  0
SECTION
  2
HEADER
  9
$ACADVER
  1
AC1009
  9
$INSBASE
 10
0.0
 20
0.0
 30
0.0
  9
$EXTMIN
 10
-118.0
 20
-21.0
 30
0.0
  9
$EXTMAX
 10
136.30480535999999
 20
36.500000000000007
 30
0.0
  9
$LIMMIN
 10
0.0
 20
0.0
  9
$LIMMAX
 10
420.0
 20
297.0
  9
$ORTHOMODE
 70
     0
  9
$REGENMODE
 70
     1
  9
$FILLMODE
 70
     1
  9
$QTEXTMODE
 70
     0
  9
$MIRRTEXT
 70
     1
  9
$DRAGMODE
 70
     2
  9
$LTSCALE
 40
10.0
  9
$OSMODE
 70
  3071
  9
$ATTMODE
 70
     1
  9
$TEXTSIZE
 40
3.0
  9
$TRACEWID
 40
1.0
  9
$TEXTSTYLE
  7
YOKO
  9
$CLAYER
  8
240
  9
$CELTYPE
  6
BYLAYER
  9
$CECOLOR
 62
   256
  9
$DIMSCALE
 40
1.0
  9
$DIMASZ
 40
2.2299999999999991
  9
$DIMEXO
 40
0.5
  9
$DIMDLI
 40
2.5
  9
$DIMRND
 40
0.0
  9
$DIMDLE
 40
0.0
  9
$DIMEXE
 40
1.0
  9
$DIMTP
 40
0.0
  9
$DIMTM
 40
0.0
  9
$DIMTXT
 40
2.799999999999998
  9
$DIMCEN
 40
0.0
  9
$DIMTSZ
 40
0.0
  9
$DIMTOL
 70
     0
  9
$DIMLIM
 70
     0
  9
$DIMTIH
 70
     0
  9
$DIMTOH
 70
     0
  9
$DIMSE1
 70
     0
  9
$DIMSE2
 70
     0
  9
$DIMTAD
 70
     3
  9
$DIMZIN
 70
     8
  9
$DIMBLK
  1

  9
$DIMASO
 70
     1
  9
$DIMSHO
 70
     1
  9
$DIMPOST
  1

  9
$DIMAPOST
  1

  9
$DIMALT
 70
     0
  9
$DIMALTD
 70
     2
  9
$DIMALTF
 40
25.399999999999999
  9
$DIMLFAC
 40
1.0
  9
$DIMTOFL
 70
     1
  9
$DIMTVP
 40
0.0
  9
$DIMTIX
 70
     1
  9
$DIMSOXD
 70
     0
  9
$DIMSAH
 70
     1
  9
$DIMBLK1
  1
OPEN
  9
$DIMBLK2
  1
OPEN
  9
$DIMSTYLE
  2
BIGT
  9
$DIMCLRD
 70
   256
  9
$DIMCLRE
 70
   256
  9
$DIMCLRT
 70
    40
  9
$DIMTFAC
 40
1.0
  9
$DIMGAP
 40
1.0
  9
$LUNITS
 70
     2
  9
$LUPREC
 70
     3
  9
$SKETCHINC
 40
1.0
  9
$FILLETRAD
 40
1.0
  9
$AUNITS
 70
     0
  9
$AUPREC
 70
     3
  9
$MENU
  1
.
  9
$ELEVATION
 40
0.0
  9
$PELEVATION
 40
0.0
  9
$THICKNESS
 40
0.0
  9
$LIMCHECK
 70
     0
  9
$BLIPMODE
 70
     0
  9
$CHAMFERA
 40
1.0
  9
$CHAMFERB
 40
1.0
  9
$SKPOLY
 70
     0
  9
$TDCREATE
 40
2455450.6949961921
  9
$TDUPDATE
 40
2457367.591907084
  9
$TDINDWG
 40
0.0241913889
  9
$TDUSRTIMER
 40
0.0241913657
  9
$USRTIMER
 70
     1
  9
$ANGBASE
 50
0.0
  9
$ANGDIR
 70
     0
  9
$PDMODE
 70
     1
  9
$PDSIZE
 40
-5.0
  9
$PLINEWID
 40
0.0
  9
$COORDS
 70
     1
  9
$SPLFRAME
 70
     0
  9
$SPLINETYPE
 70
     6
  9
$SPLINESEGS
 70
     8
  9
$ATTDIA
 70
     1
  9
$ATTREQ
 70
     1
  9
$HANDLING
 70
     1
  9
$HANDSEED
  5
E33
  9
$SURFTAB1
 70
     6
  9
$SURFTAB2
 70
     6
  9
$SURFTYPE
 70
     6
  9
$SURFU
 70
     6
  9
$SURFV
 70
     6
  9
$UCSNAME
  2

  9
$UCSORG
 10
0.0
 20
0.0
 30
0.0
  9
$UCSXDIR
 10
1.0
 20
0.0
 30
0.0
  9
$UCSYDIR
 10
0.0
 20
1.0
 30
0.0
  9
$PUCSNAME
  2

  9
$PUCSORG
 10
0.0
 20
0.0
 30
0.0
  9
$PUCSXDIR
 10
1.0
 20
0.0
 30
0.0
  9
$PUCSYDIR
 10
0.0
 20
1.0
 30
0.0
  9
$USERI1
 70
     1
  9
$USERI2
 70
     0
  9
$USERI3
 70
     0
  9
$USERI4
 70
     0
  9
$USERI5
 70
     0
  9
$USERR1
 40
0.0
  9
$USERR2
 40
0.0
  9
$USERR3
 40
0.0
  9
$USERR4
 40
0.0
  9
$USERR5
 40
0.0
  9
$WORLDVIEW
 70
     1
  9
$SHADEDGE
 70
     3
  9
$SHADEDIF
 70
    70
  9
$TILEMODE
 70
     1
  9
$MAXACTVP
 70
    16
  9
$PLIMCHECK
 70
     0
  9
$PEXTMIN
 10
1.0000000000000000E+020
 20
1.0000000000000000E+020
 30
1.0000000000000000E+020
  9
$PEXTMAX
 10
-1.0000000000000000E+020
 20
-1.0000000000000000E+020
 30
-1.0000000000000000E+020
  9
$PLIMMIN
 10
0.0
 20
0.0
  9
$PLIMMAX
 10
420.0
 20
297.0
  9
$UNITMODE
 70
     0
  9
$VISRETAIN
 70
     0
  9
$PLINEGEN
 70
     0
  9
$PSLTSCALE
 70
     1
  0
ENDSEC
  0
SECTION
  2
TABLES
  0
TABLE
  2
VPORT
 70
     1
  0
VPORT
  2
*ACTIVE
 70
     0
 10
0.0
 20
0.0
 11
1.0
 21
1.0
 12
58.664224447966603
 22
15.5428246402884
 13
0.0
 23
0.0
 14
7.0
 24
7.0
 15
7.0
 25
7.0
 16
0.0
 26
0.0
 36
1.0
 17
0.0
 27
0.0
 37
0.0
 40
119.5344278237604
 41
1.3814102564102559
 42
50.0
 43
0.0
 44
0.0
 50
0.0
 51
0.0
 71
     0
 72
  2000
 73
     1
 74
     0
 75
     1
 76
     1
 77
     0
 78
     0
  0
ENDTAB
  0
TABLE
  2
LTYPE
 70
    21
  0
LTYPE
  2
CONTINUOUS
 70
     0
  3
Solid line
 72
    65
 73
     0
 40
0.0
  0
LTYPE
  2
CENTER2
 70
     0
  3
___ _ ___ _ ___ _ ___ _ ___ _ ___ _ ___ _ ___ _
 72
    65
 73
     4
 40
1.125
 49
0.75
 49
-0.125
 49
0.125
 49
-0.125
  0
LTYPE
  2
PHANTOM2
 70
     0
  3
___ _ _ ___ _ _ ___ _ _ ___ _ _ ___ _ _ ___ _ _
 72
    65
 73
     6
 40
1.25
 49
0.625
 49
-0.125
 49
0.125
 49
-0.125
 49
0.125
 49
-0.125
  0
LTYPE
  2
HIDDEN2
 70
     0
  3
_ _ _ _ _ _ _ _ _ _ _ _ _ _ _ _ _ _ _ _ _ _ _ _
 72
    65
 73
     2
 40
0.1875
 49
0.125
 49
-0.0625
  0
LTYPE
  2
AMCONSTR
 70
     0
  3
_______________________
 72
    65
 73
     2
 40
9999.0
 49
9999.0
 49
0.0
  0
LTYPE
  2
HIDDEN
 70
     0
  3
Hidden __ __ __ __ __ __ __ __ __ __ __ __ __ _
 72
    65
 73
     2
 40
0.375
 49
0.25
 49
-0.125
  0
LTYPE
  2
CENTER
 70
     0
  3
Center ____ _ ____ _ ____ _ ____ _ ____ _ ____
 72
    65
 73
     4
 40
2.0
 49
1.25
 49
-0.25
 49
0.25
 49
-0.25
  0
LTYPE
  2
AMZIGZAG2
 70
     0
  3
/\/-/\/-/\/-/\/-/\/-/\/
 72
    65
 73
     2
 40
0.4401
 49
0.0001
 49
-0.4400000000000001
  0
LTYPE
  2
ACANSTGB
 70
     0
  3
__ . . __ . .
 72
    65
 73
     6
 40
0.35433070866
 49
0.15748031496
 49
-0.03937007874
 49
0.03937007874
 49
-0.03937007874
 49
0.03937007874
 49
-0.03937007874
  0
LTYPE
  2
ACANSTGL
 70
     0
  3
_ _ _ _ _
 72
    65
 73
     2
 40
0.11811023622
 49
0.07874015748
 49
-0.03937007874
  0
ENDTAB
  0
TABLE
  2
LAYER
 70
     8
  0
LAYER
  2
0
 70
     0
 62
     7
  6
CONTINUOUS
  0
LAYER
  2
240
 70
     0
 62
     4
  6
CONTINUOUS
  0
LAYER
  2
241
 70
     0
 62
   211
  6
CONTINUOUS
  0
LAYER
  2
242
 70
     0
 62
     3
  6
CONTINUOUS
  0
LAYER
  2
245
 70
     0
 62
     2
  6
CENTER2
  0
LAYER
  2
250
 70
     0
 62
     3
  6
CONTINUOUS
  0
LAYER
  2
DEFPOINTS
 70
     0
 62
     7
  6
CONTINUOUS
  0
LAYER
  2
247
 70
     0
 62
    60
  6
CONTINUOUS
  0
ENDTAB
  0
TABLE
  2
STYLE
 70
    10
  0
STYLE
  2
STANDARD
 70
     0
 40
0.0
 41
1.0
 50
0.0
 71
     0
 42
3.0
  3
romans.shx
  4
BIGFONT.SHX
  0
STYLE
  2
YOKO
 70
     0
 40
0.0
 41
1.0
 50
0.0
 71
     0
 42
3.0
  3
romans.shx
  4
extfont.shx
  0
STYLE
  2

 70
     1
 40
0.0
 41
1.0
 50
0.0
 71
     0
 42
3.0
  3
genltshp.shx
  4

  0
STYLE
  2
ACANSGDT
 70
     0
 40
0.0
 41
1.0
 50
0.0
 71
     0
 42
3.0
  3
amgdt.shx
  4

  0
ENDTAB
  0
TABLE
  2
VIEW
 70
     1
  0
VIEW
  2
OLE1
 70
     0
 40
106.46390372
 10
-55.23605852
 20
14.646639179999999
 41
149.95667641
 11
0.0
 21
0.0
 31
1.0
 12
0.0
 22
0.0
 32
0.0
 42
50.0
 43
0.0
 44
0.0
 50
0.0
 71
     0
  0
ENDTAB
  0
TABLE
  2
UCS
 70
     0
  0
ENDTAB
  0
TABLE
  2
APPID
 70
    40
  0
APPID
  2
ACAD
 70
     0
  0
APPID
  2
ACADANNOTATIVE
 70
     0
  0
APPID
  2
GLOBAL
 70
     0
  0
APPID
  2
DETAIL
 70
     0
  0
APPID
  2
GRPNAME
 70
     0
  0
APPID
  2
GPARA
 70
     0
  0
APPID
  2
DCO15
 70
     0
  0
APPID
  2
ITEMNAME
 70
     0
  0
APPID
  2
GRADE_0
 70
     0
  0
APPID
  2
CONTENTBLOCKICON
 70
     0
  0
APPID
  2
MCAD_NO_VIS
 70
     0
  0
APPID
  2
ACAD_TEMP_GRAPHIC
 70
     0
  0
APPID
  2
ACATTRIBSERVICES
 70
     0
  0
APPID
  2
GENIUS_GENSCREG_15
 70
     0
  0
APPID
  2
GENIUS_GENODEF_13
 70
     0
  0
APPID
  2
GENIUS_GENOBJ-N-SDF_13
 70
     0
  0
APPID
  2
GENIUS_GENREC_14
 70
     0
  0
APPID
  2
GENIUS_GENOBJ-N-REC_13
 70
     0
  0
APPID
  2
GENIUS_GENDIMSH_14
 70
     0
  0
APPID
  2
GENIUS_GENOBJ-N-DIM_13
 70
     0
  0
APPID
  2
GENIUS_GENDIM_13
 70
     0
  0
APPID
  2
GENIUS_GENDTOL_13
 70
     0
  0
APPID
  2
GENIUS_GENOLIS_13
 70
     0
  0
APPID
  2
GENIUS_GENOENT_13
 70
     0
  0
APPID
  2
GENIUS_GENOBJ-F-FEM_13
 70
     0
  0
APPID
  2
GENIUS_GENOREF_13
 70
     0
  0
APPID
  2
GENIUS_GEFFEM_13
 70
     0
  0
APPID
  2
GENIUS_GEFFEMP_13
 70
     0
  0
APPID
  2
AD_DRAW
 70
     0
  0
APPID
  2
DESIGNERASSEMBLIES
 70
     0
  0
APPID
  2
ACADM_DIM_EDIT
 70
     0
  0
APPID
  2
AMDT_DM_ADJ
 70
     0
  0
APPID
  2
GENIUS_GENOBJ-N-FIL_13
 70
     0
  0
APPID
  2
GENIUS_GENFIL_13
 70
     0
  0
APPID
  2
GENIUS_GENOBJ-N-CHA_13
 70
     0
  0
APPID
  2
ACAD_NAV_VCDISPLAY
 70
     0
  0
APPID
  2
ACAECLAYERSTANDARD
 70
     0
  0
APPID
  2
ACAD_MLEADERVER
 70
     0
  0
APPID
  2
ACAD_DSTYLE_DIMJAG
 70
     0
  0
APPID
  2
ACAD_DSTYLE_DIMBREAK
 70
     0
  0
ENDTAB
  0
TABLE
  2
DIMSTYLE
 70
    31
  0
DIMSTYLE
  2
STANDARD
 70
     0
  3

  4

  5

  6

  7

 40
1.0
 41
0.18
 42
0.0625
 43
0.38
 44
0.18
 45
0.0
 46
0.0
 47
0.0
 48
0.0
140
0.18
141
0.09
142
0.0
143
25.399999999999999
144
1.0
145
0.0
146
1.0
147
0.09
 71
     0
 72
     0
 73
     1
 74
     1
 75
     0
 76
     0
 77
     0
 78
     0
170
     0
171
     2
172
     0
173
     0
174
     0
175
     0
176
     0
177
     0
178
     0
  0
DIMSTYLE
  2
BIGT
 70
     0
  3

  4

  5

  6

  7

 40
1.0
 41
2.2299999999999991
 42
0.5
 43
7.0
 44
1.0
 45
0.0
 46
0.0
 47
0.0
 48
0.01
140
2.799999999999998
141
0.0
142
0.0
143
25.399999999999999
144
1.0
145
0.0
146
1.0
147
1.0
 71
     0
 72
     0
 73
     0
 74
     0
 75
     0
 76
     0
 77
     3
 78
     9
170
     0
171
     2
172
     1
173
     0
174
     1
175
     0
176
   256
177
   256
178
    40
  0
DIMSTYLE
  2
AM_ANSI
 70
     0
  3

  4
mm
  5

  6

  7

 40
1.0
 41
0.12
 42
0.05
 43
0.5
 44
0.1
 45
0.0
 46
0.0
 47
0.1
 48
0.1
140
0.12
141
0.0
142
0.0
143
25.399999999999999
144
1.0
145
0.0
146
0.71
147
0.06
 71
     0
 72
     0
 73
     1
 74
     1
 75
     0
 76
     0
 77
     0
 78
     7
170
     0
171
     2
172
     0
173
     0
174
     0
175
     0
176
   256
177
   256
178
     2
  0
DIMSTYLE
  2
AM_ANSI$3
 70
     0
  3

  4
mm
  5

  6

  7

 40
1.0
 41
0.12
 42
0.05
 43
0.5
 44
0.1
 45
0.0
 46
0.0
 47
0.1
 48
0.1
140
0.12
141
0.0
142
0.0
143
25.399999999999999
144
1.0
145
0.0
146
0.71
147
0.06
 71
     0
 72
     0
 73
     1
 74
     1
 75
     0
 76
     0
 77
     0
 78
     7
170
     0
171
     2
172
     0
173
     0
174
     0
175
     0
176
   256
177
   256
178
     2
  0
DIMSTYLE
  2
AM_ANSI$4
 70
     0
  3

  4
mm
  5

  6

  7

 40
1.0
 41
0.12
 42
0.05
 43
0.5
 44
0.1
 45
0.0
 46
0.0
 47
0.1
 48
0.1
140
0.12
141
0.0
142
0.0
143
25.399999999999999
144
1.0
145
0.0
146
0.71
147
0.06
 71
     0
 72
     0
 73
     1
 74
     1
 75
     0
 76
     0
 77
     0
 78
     7
170
     0
171
     2
172
     0
173
     0
174
     0
175
     0
176
   256
177
   256
178
     2
  0
DIMSTYLE
  2
AM_ANSI$7
 70
     0
  3

  4
mm
  5

  6

  7

 40
1.0
 41
0.12
 42
0.05
 43
0.5
 44
0.1
 45
0.0
 46
0.0
 47
0.1
 48
0.1
140
0.12
141
0.0
142
0.0
143
25.399999999999999
144
1.0
145
0.0
146
0.71
147
0.06
 71
     0
 72
     0
 73
     1
 74
     1
 75
     0
 76
     0
 77
     0
 78
     7
170
     0
171
     2
172
     0
173
     0
174
     0
175
     0
176
   256
177
   256
178
     2
  0
DIMSTYLE
  2
AM_ANSI$SF
 70
     0
  3

  4
mm
  5

  6

  7

 40
1.0
 41
0.12
 42
0.05
 43
0.5
 44
0.1
 45
0.0
 46
0.0
 47
0.1
 48
0.1
140
0.12
141
0.0
142
0.0
143
25.399999999999999
144
1.0
145
0.0
146
0.71
147
0.06
 71
     0
 72
     0
 73
     1
 74
     1
 75
     1
 76
     1
 77
     0
 78
     7
170
     0
171
     2
172
     0
173
     0
174
     0
175
     0
176
   256
177
   256
178
     2
  0
DIMSTYLE
  2
AM_ANSI$SH
 70
     0
  3

  4
mm
  5

  6
GENAXEH
  7

 40
1.0
 41
0.12
 42
0.05
 43
0.5
 44
0.1
 45
0.0
 46
0.0
 47
0.1
 48
0.1
140
0.12
141
0.0
142
0.0
143
25.399999999999999
144
1.0
145
0.0
146
0.71
147
0.06
 71
     0
 72
     0
 73
     1
 74
     1
 75
     1
 76
     1
 77
     0
 78
     7
170
     0
171
     2
172
     0
173
     1
174
     0
175
     0
176
   256
177
   256
178
     2
  0
ENDTAB
  0
ENDSEC
  0
SECTION
  2
BLOCKS
  0
BLOCK
  8
0
  2
$MODEL_SPACE
 70
     0
 10
0.0
 20
0.0
 30
0.0
  3
$MODEL_SPACE
  1

  0
ENDBLK
  5
CF1
  8
0
  0
BLOCK
 67
     1
  8
0
  2
$PAPER_SPACE
 70
     0
 10
0.0
 20
0.0
 30
0.0
  3
$PAPER_SPACE
  1

  0
ENDBLK
  5
CED
 67
     1
  8
0
  0
BLOCK
  8
0
  2
_OPEN
 70
     0
 10
0.0
 20
0.0
 30
0.0
  3
_OPEN
  1

  0
LINE
  5
A4B
  8
0
  6
BYBLOCK
 62
     0
 10
-1.0
 20
0.1666666666666666
 30
0.0
 11
0.0
 21
0.0
 31
0.0
  0
LINE
  5
A4C
  8
0
  6
BYBLOCK
 62
     0
 10
-1.0
 20
-0.1666666666666666
 30
0.0
 11
0.0
 21
0.0
 31
0.0
  0
LINE
  5
A4D
  8
0
  6
BYBLOCK
 62
     0
 10
0.0
 20
0.0
 30
0.0
 11
-1.0
 21
0.0
 31
0.0
  0
ENDBLK
  5
A4E
  8
0
  0
BLOCK
  8
0
  2
矢印なし
 70
     0
 10
0.0
 20
0.0
 30
0.0
  3
矢印なし
  1

  0
ENDBLK
  5
6E5
  8
0
  0
BLOCK
  8
0
  2
GENAXEH
 70
     0
 10
0.0
 20
0.0
 30
0.0
  3
GENAXEH
  1

  0
LINE
  5
A86
  8
0
 10
-1.0
 20
0.0
 30
0.0
 11
1.0
 21
0.0
 31
0.0
  0
ENDBLK
  5
A87
  8
0
  0
BLOCK
  8
0
  2
_ACMFILLEDHALF
 70
     0
 10
0.0
 20
0.0
 30
0.0
  3
_ACMFILLEDHALF
  1

  0
TRACE
  5
DB7
  8
240
 62
     0
 10
-0.8
 20
0.0
 30
0.0
 11
-1.0
 21
0.166666666
 31
0.0
 12
0.0
 22
0.0
 32
0.0
 13
0.0
 23
0.0
 33
0.0
  0
LINE
  5
DB8
  8
240
 62
     0
 10
-1.0
 20
0.0
 30
0.0
 11
-0.8
 21
0.0
 31
0.0
  0
ENDBLK
  5
DB6
  8
0
  0
ENDSEC
  0
SECTION
  2
ENTITIES
  0
INSERT
  5
6E6
  8
245
  2
矢印なし
 10
175.62382697000001
 20
90.551235719999994
 30
0.0
  0
TEXT
  5
827
  8
241
  6
CONTINUOUS
 10
0.0
 20
31.5
 30
0.0
 40
5.0
  1
ST14W-M6-100
  7
YOKO
 11
0.0
 21
31.5
 31
0.0
 73
     1
  0
LINE
  5
900
  8
250
  6
CONTINUOUS
 10
125.77147203
 20
9.6776050999999992
 30
0.0
 11
136.30480535999999
 21
9.6776050999999992
 31
0.0
1001
ITEMNAME
1000
LNSP2
  0
LINE
  5
B94
  8
245
  6
CENTER2
 10
-1.0
 20
0.0
 30
0.0
 11
124.0
 21
0.0
 31
0.0
  0
LINE
  5
B95
  8
240
  6
CONTINUOUS
 10
0.0
 20
7.0
 30
0.0
 11
117.0
 21
7.0
 31
0.0
  0
LINE
  5
B96
  8
240
  6
CONTINUOUS
 10
0.0
 20
-7.0
 30
0.0
 11
117.0
 21
-7.0
 31
0.0
  0
LINE
  5
B97
  8
240
  6
CONTINUOUS
 10
0.0
 20
7.0
 30
0.0
 11
0.0
 21
-7.0
 31
0.0
  0
LINE
  5
B9E
  8
241
  6
CONTINUOUS
 10
114.0
 20
5.0
 30
0.0
 11
114.0
 21
-5.0
 31
0.0
  0
LINE
  5
B9F
  8
240
 10
118.5
 20
-3.0
 30
0.0
 11
123.0
 21
-3.0
 31
0.0
  0
LINE
  5
BA0
  8
242
  6
CONTINUOUS
 10
118.5
 20
-2.5
 30
0.0
 11
123.0
 21
-2.5
 31
0.0
  0
LINE
  5
BA1
  8
240
 10
117.0
 20
-2.5
 30
0.0
 11
117.0
 21
-7.0
 31
0.0
  0
LINE
  5
BA4
  8
241
  6
CONTINUOUS
 10
112.0
 20
-5.0
 30
0.0
 11
114.0
 21
-5.0
 31
0.0
  0
LINE
  5
BA5
  8
241
  6
CONTINUOUS
 10
112.0
 20
-7.0
 30
0.0
 11
112.0
 21
-5.0
 31
0.0
  0
LINE
  5
BA6
  8
240
 10
117.0
 20
-2.5
 30
0.0
 11
118.5
 21
-2.5
 31
0.0
  0
LINE
  5
BA7
  8
241
  6
CONTINUOUS
 10
117.0
 20
-2.5
 30
0.0
 11
117.0
 21
2.5
 31
0.0
  0
LINE
  5
BA8
  8
240
 10
118.5
 20
-2.5
 30
0.0
 11
118.5
 21
-3.0
 31
0.0
  0
LINE
  5
BA9
  8
241
  6
CONTINUOUS
 10
118.5
 20
-2.5
 30
0.0
 11
118.5
 21
2.5
 31
0.0
  0
LINE
  5
BAA
  8
240
 10
123.0
 20
-3.0
 30
0.0
 11
123.0
 21
3.0
 31
0.0
  0
LINE
  5
BAB
  8
242
  6
CONTINUOUS
 10
118.5
 20
2.5
 30
0.0
 11
123.0
 21
2.5
 31
0.0
  0
LINE
  5
BAC
  8
240
 10
118.5
 20
3.0
 30
0.0
 11
123.0
 21
3.0
 31
0.0
  0
LINE
  5
BAD
  8
240
 10
117.0
 20
2.5
 30
0.0
 11
118.5
 21
2.5
 31
0.0
  0
LINE
  5
BAE
  8
240
 10
117.0
 20
2.5
 30
0.0
 11
117.0
 21
7.0
 31
0.0
  0
LINE
  5
BAF
  8
241
  6
CONTINUOUS
 10
112.0
 20
5.0
 30
0.0
 11
114.0
 21
5.0
 31
0.0
  0
LINE
  5
BB1
  8
241
  6
CONTINUOUS
 10
112.0
 20
7.0
 30
0.0
 11
112.0
 21
5.0
 31
0.0
  0
LINE
  5
BB2
  8
240
 10
118.5
 20
2.5
 30
0.0
 11
118.5
 21
3.0
 31
0.0
  0
TEXT
  5
BB4
  8
250
  6
CONTINUOUS
 10
128.03813869666661
 20
10.677605099999999
 30
0.0
 40
2.799999999999998
  1
M6
  7
YOKO
1001
ITEMNAME
1000
LNSP3
1001
ACAD
1000
MTEXTBEGIN
1070
    73
1070
     1
1070
    44
1040
1.0
1070
    74
1070
     0
1000
MTEXTEND
  0
LINE
  5
BB7
  8
250
  6
CONTINUOUS
 10
0.0
 20
6.5
 30
0.0
 11
0.0
 21
18.5
 31
0.0
  0
LINE
  5
BB8
  8
250
  6
CONTINUOUS
 10
117.0
 20
6.5
 30
0.0
 11
117.0
 21
18.5
 31
0.0
  0
LINE
  5
BB9
  8
250
  6
CONTINUOUS
 10
2.2300000000000031
 20
17.5
 30
0.0
 11
114.77
 21
17.5
 31
0.0
  0
LINE
  5
BBD
  8
250
  6
CONTINUOUS
 10
123.0311549217294
 20
4.931236649440824
 30
0.0
 11
125.77147203
 21
9.6776050999999992
 31
0.0
1001
ACAD
1000
DSTYLE
1002
{
1070
     6
1000
OPEN
1070
    79
1070
     2
1070
   179
1070
     3
1070
   371
1070
    -1
1070
   372
1070
    -1
1002
}
  0
LINE
  5
BBE
  8
250
  6
CONTINUOUS
 10
123.3530276966362
 20
4.7454033158192557
 30
0.0
 11
121.91615492
 21
3.0
 31
0.0
  0
LINE
  5
BBF
  8
250
  6
CONTINUOUS
 10
122.7092821468226
 20
5.1170699830623931
 30
0.0
 11
121.91615492
 21
3.0
 31
0.0
  0
LINE
  5
BC0
  8
250
  6
CONTINUOUS
 10
121.91615492
 20
3.0
 30
0.0
 11
123.0311549217294
 21
4.9312366494408231
 31
0.0
  0
TEXT
  5
BC1
  8
250
  6
CONTINUOUS
 10
54.300000000000011
 20
18.499999999999989
 30
0.0
 40
2.799999999999998
  1
117
1001
ACAD
1000
MTEXTBEGIN
1070
    73
1070
     1
1070
    44
1040
1.0
1070
    74
1070
     0
1000
MTEXTEND
  0
LINE
  5
BC2
  8
250
  6
CONTINUOUS
 10
114.77
 20
17.871666666666659
 30
0.0
 11
117.0
 21
17.5
 31
0.0
  0
LINE
  5
BC3
  8
250
  6
CONTINUOUS
 10
114.77
 20
17.12833333333333
 30
0.0
 11
117.0
 21
17.5
 31
0.0
  0
LINE
  5
BC4
  8
250
  6
CONTINUOUS
 10
117.0
 20
17.5
 30
0.0
 11
114.77
 21
17.5
 31
0.0
  0
LINE
  5
BC5
  8
250
  6
CONTINUOUS
 10
2.2300000000000031
 20
17.12833333333333
 30
0.0
 11
0.0
 21
17.5
 31
0.0
  0
LINE
  5
BC6
  8
250
  6
CONTINUOUS
 10
2.2300000000000031
 20
17.871666666666659
 30
0.0
 11
0.0
 21
17.5
 31
0.0
  0
LINE
  5
BC7
  8
250
  6
CONTINUOUS
 10
0.0
 20
17.5
 30
0.0
 11
2.2300000000000031
 21
17.5
 31
0.0
  0
LINE
  5
BF9
  8
250
  6
CONTINUOUS
 10
25.016875612199001
 20
-21.0
 30
0.0
 11
5.4454470407704028
 21
-21.0
 31
0.0
1001
ITEMNAME
1000
LNSP2
  0
TEXT
  5
BFA
  8
250
  6
CONTINUOUS
 10
8.0168756121990015
 20
-20.0
 30
0.0
 40
3.0
  1
ST14W
  7
YOKO
1001
ITEMNAME
1000
LNSP3
1001
ACAD
1000
MTEXTBEGIN
1070
    73
1070
     1
1070
    44
1040
1.0
1070
    74
1070
     0
1000
MTEXTEND
  0
LINE
  5
BFB
  8
250
  6
CONTINUOUS
 10
31.984779380853809
 20
-8.9312366504393577
 30
0.0
 11
25.016875612199001
 21
-21.0
 31
0.0
1001
ACAD
1000
DSTYLE
1002
{
1070
     5
1000
OPEN
1070
    78
1070
     8
1070
   140
1040
3.0
1002
}
  0
LINE
  5
BFC
  8
250
  6
CONTINUOUS
 10
31.662906605780631
 20
-8.7454033171060246
 30
0.0
 11
33.099779380853818
 21
-7.0
 31
0.0
  0
LINE
  5
BFD
  8
250
  6
CONTINUOUS
 10
32.306652155927033
 20
-9.1170699837726943
 30
0.0
 11
33.099779380853818
 21
-7.0
 31
0.0
  0
LINE
  5
BFE
  8
250
  6
CONTINUOUS
 10
33.099779380853818
 20
-7.0
 30
0.0
 11
31.984779380853809
 21
-8.9312366504393577
 31
0.0
  0
LINE
  5
BFF
  8
247
  6
CONTINUOUS
 10
6.7499999999299973
 20
-5.0
 30
0.0
 11
13.44230769196999
 21
-5.0
 31
0.0
  0
ARC
  5
C00
  8
247
  6
CONTINUOUS
 10
6.7499999999299973
 20
-3.2500000000700311
 30
0.0
 40
1.7499999999299991
 50
90.0
 51
270.0
  0
ARC
  5
C01
  8
247
  6
CONTINUOUS
 10
13.44230769196999
 20
-3.2500000000700311
 30
0.0
 40
1.7499999999299991
 50
270.0
 51
90.0
  0
LINE
  5
C02
  8
247
  6
CONTINUOUS
 10
7.615384615279992
 20
-1.5000000001400611
 30
0.0
 11
6.7551484580380068
 21
-4.5000000000200071
 31
0.0
  0
LINE
  5
C03
  8
247
  6
CONTINUOUS
 10
8.5150161816641941
 20
-2.9230769231598961
 30
0.0
 11
7.2073238740241967
 21
-2.9230769231598961
 31
0.0
  0
ARC
  5
C04
  8
247
  6
CONTINUOUS
 10
8.8548561839102007
 20
-2.049598667702865
 30
0.0
 40
0.5538165441895349
 50
342.9978896752952
 51
82.924166218513577
  0
ARC
  5
C05
  8
247
  6
CONTINUOUS
 10
8.4331216769712114
 20
-1.93603304446583
 30
0.0
 40
0.9904354236226808
 50
274.74293685219902
 51
343.84922627326688
1001
GENIUS_GENOBJ-N-FIL_13
1002
{
1000
OWNER
1000
GEN
1002
}
1001
GENIUS_GENODEF_13
1002
{
1000
HIER
1070
     0
1002
}
1002
{
1000
MANEDIT
1070
     0
1002
}
1002
{
1000
NOSEL
1070
     0
1002
}
1002
{
1000
BEHIND
1070
     0
1002
}
1002
{
1000
OTHER
1070
     0
1002
}
1002
{
1000
REACTOR
1002
}
  0
LINE
  5
C06
  8
247
  6
CONTINUOUS
 10
8.0628407656780041
 20
-4.5000000000200071
 30
0.0
 11
6.7551484580380068
 21
-4.5000000000200071
 31
0.0
  0
LINE
  5
C07
  8
247
  6
CONTINUOUS
 10
7.615384615279992
 20
-1.5000000001400611
 30
0.0
 11
8.9230769229200035
 21
-1.5000000001400611
 31
0.0
  0
ARC
  5
C08
  8
247
  6
CONTINUOUS
 10
8.4390803634531011
 20
-3.4820242326654789
 30
0.0
 40
0.5640818586791229
 50
335.9909416525216
 51
82.263443459069066
  0
ARC
  5
C09
  8
247
  6
CONTINUOUS
 10
7.9617373146529919
 20
-3.487429039186507
 30
0.0
 40
1.0176059446230981
 50
275.70198516425648
 51
347.27733843682199
1001
GENIUS_GENOBJ-N-FIL_13
1002
{
1000
OWNER
1000
GEN
1002
}
1001
GENIUS_GENODEF_13
1002
{
1000
HIER
1070
     0
1002
}
1002
{
1000
MANEDIT
1070
     0
1002
}
1002
{
1000
NOSEL
1070
     0
1002
}
1002
{
1000
BEHIND
1070
     0
1002
}
1002
{
1000
OTHER
1070
     0
1002
}
1002
{
1000
REACTOR
1002
}
  0
LINE
  5
C0A
  8
247
  6
CONTINUOUS
 10
9.7166869194580112
 20
-4.5000000000200071
 30
0.0
 11
10.576923076699989
 21
-1.5000000001400611
 31
0.0
  0
LINE
  5
C0B
  8
247
  6
CONTINUOUS
 10
12.99999999968
 20
-1.5000000001400611
 30
0.0
 11
12.434263380543401
 21
-1.5000000001400611
 31
0.0
  0
LINE
  5
C0C
  8
247
  6
CONTINUOUS
 10
11.538461538199989
 20
-4.5000000000200071
 30
0.0
 11
12.153846153559989
 21
-4.5000000000200071
 31
0.0
  0
ARC
  5
C0D
  8
247
  6
CONTINUOUS
 10
13.291208790877199
 20
-3.5832851359733682
 30
0.0
 40
2.2526500823422122
 50
112.3594881415293
 51
164.99324854284629
  0
ARC
  5
C0E
  8
247
  6
CONTINUOUS
 10
12.62593052078679
 20
-2.3083126551946389
 30
0.0
 40
0.8906723995727782
 50
4.9945893190753372
 51
65.166328957300493
1001
GENIUS_GENOBJ-N-FIL_13
1002
{
1000
OWNER
1000
GEN
1002
}
1001
GENIUS_GENODEF_13
1002
{
1000
HIER
1070
     0
1002
}
1002
{
1000
MANEDIT
1070
     0
1002
}
1002
{
1000
NOSEL
1070
     0
1002
}
1002
{
1000
BEHIND
1070
     0
1002
}
1002
{
1000
OTHER
1070
     0
1002
}
1002
{
1000
REACTOR
1002
}
  0
ARC
  5
C0F
  8
247
  6
CONTINUOUS
 10
11.773541113787401
 20
-3.1601458886677829
 30
0.0
 40
1.392781735586712
 50
285.84609655578072
 51
352.32513700416229
  0
ARC
  5
C10
  8
247
  6
CONTINUOUS
 10
12.357787274159699
 20
-3.4592434315272831
 30
0.0
 40
1.324563662670287
 50
159.71360167048971
 51
231.78874565641431
1001
GENIUS_GENOBJ-N-FIL_13
1002
{
1000
OWNER
1000
GEN
1002
}
1001
GENIUS_GENODEF_13
1002
{
1000
HIER
1070
     0
1002
}
1002
{
1000
MANEDIT
1070
     0
1002
}
1002
{
1000
NOSEL
1070
     0
1002
}
1002
{
1000
BEHIND
1070
     0
1002
}
1002
{
1000
OTHER
1070
     0
1002
}
1002
{
1000
REACTOR
1002
}
  0
LINE
  5
C11
  8
247
  6
CONTINUOUS
 10
12.461538461240011
 20
-3.346153846219976
 30
0.0
 11
13.153846153520121
 21
-3.346153846219976
 31
0.0
  0
LINE
  5
C12
  8
247
  6
CONTINUOUS
 10
6.7499999999299973
 20
-1.5000000001400611
 30
0.0
 11
7.4230769229800009
 21
-1.5000000001400611
 31
0.0
  0
VIEWPORT
  5
22
 67
     1
  8
0
 10
261.51769911999997
 20
148.5
 30
0.0
 40
523.03539823000006
 41
297.0
 68
     1
 69
     1
1001
ACAD
1000
MVIEW
1002
{
1070
    16
1010
0.0
1020
0.0
1030
0.0
1010
0.0
1020
0.0
1030
1.0
1040
0.0
1040
297.0
1040
261.51769911999997
1040
148.5
1040
50.0
1040
0.0
1040
0.0
1070
     0
1070
   100
1070
     1
1070
     1
1070
     0
1070
     0
1070
     0
1070
     0
1040
0.0
1040
0.0
1040
0.0
1040
1.0
1040
1.0
1040
10.0
1040
10.0
1070
     0
1002
{
1002
}
1002
}
1001
GENIUS_GENODEF_13
1002
{
1000
HIER
1070
     0
1002
}
1002
{
1000
MANEDIT
1070
     0
1002
}
1002
{
1000
NOSEL
1070
     0
1002
}
1002
{
1000
BEHIND
1070
     0
1002
}
1002
{
1000
OTHER
1070
     0
1002
}
1002
{
1000
REACTOR
1002
}
1001
GENIUS_GENOBJ-N-SDF_13
1002
{
1000
OWNER
1000
GEN
1002
}
1001
GENIUS_GENSCREG_15
1000
PF
1040
1.0
1000
DF
1040
1.0
1000
MIN
1011
0.0000000049999471
1021
0.0
1031
-1.#QNAN00000000000E+000
1021
0.0
1031
0.0
1000
MAX
1011
523.035398235
1021
0.0
1031
-1.#QNAN00000000000E+000
1021
297.0
1031
0.0
1000
FLAGS
1070
     4
  0
ENDSEC
  0
EOF
