  0
SECTION
  2
HEADER
  9
$ACADVER
  1
AC1009
  9
$INSBASE
 10
0.0
 20
0.0
 30
0.0
  9
$EXTMIN
 10
-1.593744051445213
 20
-20.99999999999994
 30
0.0
  9
$EXTMAX
 10
191.9997259069508
 20
46.000000000000021
 30
0.0
  9
$LIMMIN
 10
0.0
 20
0.0
  9
$LIMMAX
 10
297.0
 20
210.0
  9
$ORTHOMODE
 70
     1
  9
$REGENMODE
 70
     1
  9
$FILLMODE
 70
     1
  9
$QTEXTMODE
 70
     0
  9
$MIRRTEXT
 70
     1
  9
$DRAGMODE
 70
     2
  9
$LTSCALE
 40
10.0
  9
$OSMODE
 70
  3071
  9
$ATTMODE
 70
     1
  9
$TEXTSIZE
 40
3.0
  9
$TRACEWID
 40
1.0
  9
$TEXTSTYLE
  7
YOKO
  9
$CLAYER
  8
250
  9
$CELTYPE
  6
BYLAYER
  9
$CECOLOR
 62
   256
  9
$DIMSCALE
 40
1.0
  9
$DIMASZ
 40
2.2299999999999991
  9
$DIMEXO
 40
0.5
  9
$DIMDLI
 40
2.5
  9
$DIMRND
 40
0.0
  9
$DIMDLE
 40
0.0
  9
$DIMEXE
 40
1.0
  9
$DIMTP
 40
0.0
  9
$DIMTM
 40
0.0
  9
$DIMTXT
 40
3.0
  9
$DIMCEN
 40
0.0
  9
$DIMTSZ
 40
0.0
  9
$DIMTOL
 70
     0
  9
$DIMLIM
 70
     0
  9
$DIMTIH
 70
     0
  9
$DIMTOH
 70
     0
  9
$DIMSE1
 70
     0
  9
$DIMSE2
 70
     0
  9
$DIMTAD
 70
     3
  9
$DIMZIN
 70
     8
  9
$DIMBLK
  1
OPEN
  9
$DIMASO
 70
     1
  9
$DIMSHO
 70
     1
  9
$DIMPOST
  1

  9
$DIMAPOST
  1

  9
$DIMALT
 70
     0
  9
$DIMALTD
 70
     2
  9
$DIMALTF
 40
25.399999999999999
  9
$DIMLFAC
 40
1.0
  9
$DIMTOFL
 70
     1
  9
$DIMTVP
 40
0.0
  9
$DIMTIX
 70
     0
  9
$DIMSOXD
 70
     0
  9
$DIMSAH
 70
     0
  9
$DIMBLK1
  1

  9
$DIMBLK2
  1

  9
$DIMSTYLE
  2
BIGT
  9
$DIMCLRD
 70
   256
  9
$DIMCLRE
 70
   256
  9
$DIMCLRT
 70
    40
  9
$DIMTFAC
 40
1.0
  9
$DIMGAP
 40
1.0
  9
$LUNITS
 70
     2
  9
$LUPREC
 70
     2
  9
$SKETCHINC
 40
1.0
  9
$FILLETRAD
 40
1.0
  9
$AUNITS
 70
     0
  9
$AUPREC
 70
     3
  9
$MENU
  1
.
  9
$ELEVATION
 40
0.0
  9
$PELEVATION
 40
0.0
  9
$THICKNESS
 40
0.0
  9
$LIMCHECK
 70
     0
  9
$BLIPMODE
 70
     0
  9
$CHAMFERA
 40
10.0
  9
$CHAMFERB
 40
10.0
  9
$SKPOLY
 70
     0
  9
$TDCREATE
 40
2452226.7127276738
  9
$TDUPDATE
 40
2457371.4122292362
  9
$TDINDWG
 40
0.1562642708
  9
$TDUSRTIMER
 40
0.1562640394
  9
$USRTIMER
 70
     1
  9
$ANGBASE
 50
0.0
  9
$ANGDIR
 70
     0
  9
$PDMODE
 70
    35
  9
$PDSIZE
 40
-5.0
  9
$PLINEWID
 40
0.0
  9
$COORDS
 70
     1
  9
$SPLFRAME
 70
     0
  9
$SPLINETYPE
 70
     6
  9
$SPLINESEGS
 70
     8
  9
$ATTDIA
 70
     1
  9
$ATTREQ
 70
     1
  9
$HANDLING
 70
     1
  9
$HANDSEED
  5
28AE
  9
$SURFTAB1
 70
     6
  9
$SURFTAB2
 70
     6
  9
$SURFTYPE
 70
     6
  9
$SURFU
 70
     6
  9
$SURFV
 70
     6
  9
$UCSNAME
  2

  9
$UCSORG
 10
0.0
 20
0.0
 30
0.0
  9
$UCSXDIR
 10
1.0
 20
0.0
 30
0.0
  9
$UCSYDIR
 10
0.0
 20
1.0
 30
0.0
  9
$PUCSNAME
  2

  9
$PUCSORG
 10
0.0
 20
0.0
 30
0.0
  9
$PUCSXDIR
 10
1.0
 20
0.0
 30
0.0
  9
$PUCSYDIR
 10
0.0
 20
1.0
 30
0.0
  9
$USERI1
 70
     1
  9
$USERI2
 70
     0
  9
$USERI3
 70
     0
  9
$USERI4
 70
     0
  9
$USERI5
 70
     0
  9
$USERR1
 40
0.0
  9
$USERR2
 40
0.0
  9
$USERR3
 40
0.0
  9
$USERR4
 40
0.0
  9
$USERR5
 40
0.0
  9
$WORLDVIEW
 70
     1
  9
$SHADEDGE
 70
     3
  9
$SHADEDIF
 70
    70
  9
$TILEMODE
 70
     1
  9
$MAXACTVP
 70
    16
  9
$PLIMCHECK
 70
     0
  9
$PEXTMIN
 10
1.0000000000000000E+020
 20
1.0000000000000000E+020
 30
1.0000000000000000E+020
  9
$PEXTMAX
 10
-1.0000000000000000E+020
 20
-1.0000000000000000E+020
 30
-1.0000000000000000E+020
  9
$PLIMMIN
 10
0.0
 20
0.0
  9
$PLIMMAX
 10
420.0
 20
297.0
  9
$UNITMODE
 70
     0
  9
$VISRETAIN
 70
     0
  9
$PLINEGEN
 70
     0
  9
$PSLTSCALE
 70
     1
  0
ENDSEC
  0
SECTION
  2
TABLES
  0
TABLE
  2
VPORT
 70
     1
  0
VPORT
  2
*ACTIVE
 70
     0
 10
0.0
 20
0.0
 11
1.0
 21
1.0
 12
74.261699724909789
 22
9.8182826109449906
 13
0.0
 23
0.0
 14
7.0
 24
7.0
 15
7.0
 25
7.0
 16
0.0
 26
0.0
 36
1.0
 17
0.0
 27
0.0
 37
0.0
 40
223.1941310161277
 41
1.397993311036789
 42
50.0
 43
0.0
 44
0.0
 50
0.0
 51
0.0
 71
     0
 72
  2000
 73
     1
 74
     0
 75
     0
 76
     1
 77
     0
 78
     0
  0
ENDTAB
  0
TABLE
  2
LTYPE
 70
    18
  0
LTYPE
  2
CONTINUOUS
 70
     0
  3
Solid line
 72
    65
 73
     0
 40
0.0
  0
LTYPE
  2
CENTER2
 70
     0
  3
___ _ ___ _ ___ _ ___ _ ___ _ ___ _ ___ _ ___ _
 72
    65
 73
     4
 40
1.125
 49
0.75
 49
-0.125
 49
0.125
 49
-0.125
  0
LTYPE
  2
PHANTOM2
 70
     0
  3
___ _ _ ___ _ _ ___ _ _ ___ _ _ ___ _ _ ___ _ _
 72
    65
 73
     6
 40
1.25
 49
0.625
 49
-0.125
 49
0.125
 49
-0.125
 49
0.125
 49
-0.125
  0
LTYPE
  2
HIDDEN
 70
     0
  3
Hidden __ __ __ __ __ __ __ __ __ __ __ __ __ _
 72
    65
 73
     2
 40
9.5249999999999986
 49
6.349999999999997
 49
-3.174999999999998
  0
LTYPE
  2
CENTER
 70
     0
  3
Center ____ _ ____ _ ____ _ ____ _ ____ _ ____
 72
    65
 73
     4
 40
50.799999999999997
 49
31.75
 49
-6.349999999999997
 49
6.349999999999997
 49
-6.349999999999997
  0
LTYPE
  2
AMCONSTR
 70
     0
  3
_______________________
 72
    65
 73
     2
 40
9999.0
 49
9999.0
 49
0.0
  0
LTYPE
  2
HIDDEN2
 70
     0
  3
Hidden (.5x) _ _ _ _ _ _ _ _ _ _ _ _ _ _ _ _ _
 72
    65
 73
     2
 40
0.1875
 49
0.125
 49
-0.0625
  0
LTYPE
  2
AMZIGZAG2
 70
     0
  3
/\/-/\/-/\/-/\/-/\/-/\/
 72
    65
 73
     2
 40
0.4401
 49
0.0001
 49
-0.4400000000000002
  0
LTYPE
  2
ACANSTGB
 70
     0
  3
__ . . __ . .
 72
    65
 73
     6
 40
0.35433070866
 49
0.15748031496
 49
-0.03937007874
 49
0.03937007874
 49
-0.03937007874
 49
0.03937007874
 49
-0.03937007874
  0
LTYPE
  2
ACANSTGL
 70
     0
  3
_ _ _ _ _
 72
    65
 73
     2
 40
0.11811023622
 49
0.07874015748
 49
-0.03937007874
  0
ENDTAB
  0
TABLE
  2
LAYER
 70
     9
  0
LAYER
  2
0
 70
     0
 62
     7
  6
CONTINUOUS
  0
LAYER
  2
241
 70
     0
 62
   211
  6
CONTINUOUS
  0
LAYER
  2
240
 70
     0
 62
     4
  6
CONTINUOUS
  0
LAYER
  2
242
 70
     0
 62
     3
  6
CONTINUOUS
  0
LAYER
  2
245
 70
     0
 62
     2
  6
CENTER2
  0
LAYER
  2
247
 70
     0
 62
    60
  6
CONTINUOUS
  0
LAYER
  2
250
 70
     0
 62
     3
  6
CONTINUOUS
  0
LAYER
  2
DEFPOINTS
 70
     0
 62
     7
  6
CONTINUOUS
  0
ENDTAB
  0
TABLE
  2
STYLE
 70
     8
  0
STYLE
  2
STANDARD
 70
     0
 40
0.0
 41
1.0
 50
0.0
 71
     0
 42
3.0
  3
romans.shx
  4
BIGFONT.SHX
  0
STYLE
  2
YOKO
 70
     0
 40
0.0
 41
1.0
 50
0.0
 71
     0
 42
3.0
  3
romans.shx
  4
extfont.shx
  0
STYLE
  2
ACANSGDT
 70
     0
 40
0.0
 41
1.0
 50
0.0
 71
     0
 42
3.0
  3
amgdt.shx
  4

  0
ENDTAB
  0
TABLE
  2
VIEW
 70
     0
  0
ENDTAB
  0
TABLE
  2
UCS
 70
     0
  0
ENDTAB
  0
TABLE
  2
APPID
 70
    26
  0
APPID
  2
ACAD
 70
     0
  0
APPID
  2
ACADANNOTATIVE
 70
     0
  0
APPID
  2
GLOBAL
 70
     0
  0
APPID
  2
DETAIL
 70
     0
  0
APPID
  2
GRPNAME
 70
     0
  0
APPID
  2
GPARA
 70
     0
  0
APPID
  2
ITEMNAME
 70
     0
  0
APPID
  2
HATCH_TYPE
 70
     0
  0
APPID
  2
HATCH_DISPLAY
 70
     0
  0
APPID
  2
HATCH_DISTANCE
 70
     0
  0
APPID
  2
MCAD_NO_VIS
 70
     0
  0
APPID
  2
ACAD_TEMP_GRAPHIC
 70
     0
  0
APPID
  2
AD_DRAW
 70
     0
  0
APPID
  2
ACATTRIBSERVICES
 70
     0
  0
APPID
  2
DESIGNERASSEMBLIES
 70
     0
  0
APPID
  2
ACADM_DIM_EDIT
 70
     0
  0
APPID
  2
AMDT_DM_ADJ
 70
     0
  0
APPID
  2
GENIUS_GENSCREG_15
 70
     0
  0
APPID
  2
GENIUS_GENOBJ-N-SDF_13
 70
     0
  0
APPID
  2
GENIUS_GENODEF_13
 70
     0
  0
APPID
  2
ACAD_DSTYLE_DIMJAG
 70
     0
  0
APPID
  2
ACAD_DSTYLE_DIMBREAK
 70
     0
  0
APPID
  2
ACAD_NAV_VCDISPLAY
 70
     0
  0
APPID
  2
ACAECLAYERSTANDARD
 70
     0
  0
APPID
  2
GENIUS_GENOBJ-N-FIL_13
 70
     0
  0
APPID
  2
ACAD_MLEADERVER
 70
     0
  0
ENDTAB
  0
TABLE
  2
DIMSTYLE
 70
    17
  0
DIMSTYLE
  2
STANDARD
 70
     0
  3

  4

  5

  6

  7

 40
1.0
 41
2.0
 42
2.0
 43
3.75
 44
2.0
 45
0.0
 46
0.0
 47
0.0
 48
0.0
140
4.0
141
0.09
142
0.0
143
25.399999999999999
144
1.0
145
0.0
146
1.0
147
1.0
 71
     0
 72
     0
 73
     1
 74
     1
 75
     0
 76
     0
 77
     0
 78
     8
170
     0
171
     2
172
     0
173
     1
174
     0
175
     0
176
   256
177
   256
178
   256
  0
DIMSTYLE
  2
BIGT
 70
     0
  3

  4

  5

  6

  7

 40
1.0
 41
2.2299999999999991
 42
0.5
 43
2.5
 44
1.0
 45
0.0
 46
0.0
 47
0.0
 48
0.0
140
3.5
141
0.0
142
0.0
143
25.399999999999999
144
1.0
145
0.0
146
1.0
147
1.0
 71
     0
 72
     0
 73
     0
 74
     0
 75
     0
 76
     0
 77
     3
 78
     9
170
     0
171
     2
172
     1
173
     0
174
     0
175
     0
176
   256
177
   256
178
    40
  0
DIMSTYLE
  2
AM_ANSI
 70
     0
  3

  4
mm
  5

  6

  7

 40
1.0
 41
0.12
 42
0.05
 43
0.5
 44
0.1
 45
0.0
 46
0.0
 47
0.1
 48
0.1
140
0.12
141
0.0
142
0.0
143
25.399999999999999
144
1.0
145
0.0
146
0.71
147
0.06
 71
     0
 72
     0
 73
     1
 74
     1
 75
     0
 76
     0
 77
     0
 78
     7
170
     0
171
     2
172
     0
173
     0
174
     0
175
     0
176
   256
177
   256
178
     2
  0
DIMSTYLE
  2
AM_ANSI$3
 70
     0
  3

  4
mm
  5

  6

  7

 40
1.0
 41
0.12
 42
0.05
 43
0.5
 44
0.1
 45
0.0
 46
0.0
 47
0.1
 48
0.1
140
0.12
141
0.0
142
0.0
143
25.399999999999999
144
1.0
145
0.0
146
0.71
147
0.06
 71
     0
 72
     0
 73
     1
 74
     1
 75
     0
 76
     0
 77
     0
 78
     7
170
     0
171
     2
172
     0
173
     0
174
     0
175
     0
176
   256
177
   256
178
     2
  0
DIMSTYLE
  2
AM_ANSI$4
 70
     0
  3

  4
mm
  5

  6

  7

 40
1.0
 41
0.12
 42
0.05
 43
0.5
 44
0.1
 45
0.0
 46
0.0
 47
0.1
 48
0.1
140
0.12
141
0.0
142
0.0
143
25.399999999999999
144
1.0
145
0.0
146
0.71
147
0.06
 71
     0
 72
     0
 73
     1
 74
     1
 75
     0
 76
     0
 77
     0
 78
     7
170
     0
171
     2
172
     0
173
     0
174
     0
175
     0
176
   256
177
   256
178
     2
  0
DIMSTYLE
  2
AM_ANSI$7
 70
     0
  3

  4
mm
  5

  6

  7

 40
1.0
 41
0.12
 42
0.05
 43
0.5
 44
0.1
 45
0.0
 46
0.0
 47
0.1
 48
0.1
140
0.12
141
0.0
142
0.0
143
25.399999999999999
144
1.0
145
0.0
146
0.71
147
0.06
 71
     0
 72
     0
 73
     1
 74
     1
 75
     0
 76
     0
 77
     0
 78
     7
170
     0
171
     2
172
     0
173
     0
174
     0
175
     0
176
   256
177
   256
178
     2
  0
DIMSTYLE
  2
AM_ANSI$SF
 70
     0
  3

  4
mm
  5

  6

  7

 40
1.0
 41
0.12
 42
0.05
 43
0.5
 44
0.1
 45
0.0
 46
0.0
 47
0.1
 48
0.1
140
0.12
141
0.0
142
0.0
143
25.399999999999999
144
1.0
145
0.0
146
0.71
147
0.06
 71
     0
 72
     0
 73
     1
 74
     1
 75
     1
 76
     1
 77
     0
 78
     7
170
     0
171
     2
172
     0
173
     0
174
     0
175
     0
176
   256
177
   256
178
     2
  0
DIMSTYLE
  2
AM_ANSI$SH
 70
     0
  3

  4
mm
  5

  6

  7

 40
1.0
 41
0.12
 42
0.05
 43
0.5
 44
0.1
 45
0.0
 46
0.0
 47
0.1
 48
0.1
140
0.12
141
0.0
142
0.0
143
25.399999999999999
144
1.0
145
0.0
146
0.71
147
0.06
 71
     0
 72
     0
 73
     1
 74
     1
 75
     1
 76
     1
 77
     0
 78
     7
170
     0
171
     2
172
     0
173
     1
174
     0
175
     0
176
   256
177
   256
178
     2
  0
ENDTAB
  0
ENDSEC
  0
SECTION
  2
BLOCKS
  0
BLOCK
  8
0
  2
$MODEL_SPACE
 70
     0
 10
0.0
 20
0.0
 30
0.0
  3
$MODEL_SPACE
  1

  0
ENDBLK
  5
278E
  8
0
  0
BLOCK
 67
     1
  8
0
  2
$PAPER_SPACE
 70
     0
 10
0.0
 20
0.0
 30
0.0
  3
$PAPER_SPACE
  1

  0
ENDBLK
  5
278A
 67
     1
  8
0
  0
BLOCK
  8
0
  2
_OPEN
 70
     0
 10
0.0
 20
0.0
 30
0.0
  3
_OPEN
  1

  0
LINE
  5
595
  8
0
  6
BYBLOCK
 62
     0
 10
-1.0
 20
0.1666666666666666
 30
0.0
 11
0.0
 21
0.0
 31
0.0
  0
LINE
  5
596
  8
0
  6
BYBLOCK
 62
     0
 10
-1.0
 20
-0.1666666666666666
 30
0.0
 11
0.0
 21
0.0
 31
0.0
  0
LINE
  5
597
  8
0
  6
BYBLOCK
 62
     0
 10
0.0
 20
0.0
 30
0.0
 11
-1.0
 21
0.0
 31
0.0
  0
ENDBLK
  5
599
  8
0
  0
BLOCK
  8
0
  2
_ACMFILLEDHALF
 70
     0
 10
0.0
 20
0.0
 30
0.0
  3
_ACMFILLEDHALF
  1

  0
TRACE
  5
24EE
  8
240
 62
     0
 10
-0.8
 20
0.0
 30
0.0
 11
-1.0
 21
0.166666666
 31
0.0
 12
0.0
 22
0.0
 32
0.0
 13
0.0
 23
0.0
 33
0.0
  0
LINE
  5
24EF
  8
240
 62
     0
 10
-1.0
 20
0.0
 30
0.0
 11
-0.8
 21
0.0
 31
0.0
  0
ENDBLK
  5
24ED
  8
0
  0
ENDSEC
  0
SECTION
  2
ENTITIES
  0
TEXT
  5
20A8
  8
241
  6
CENTER
 10
-0.0002740930491427
 20
42.0
 30
0.0
 40
4.0
  1
ST14W-EW15-140
  7
YOKO
 11
-0.0002740930491427
 21
42.0
 31
0.0
 73
     1
  0
LINE
  5
22A4
  8
250
  6
CONTINUOUS
 10
181.29972590695081
 20
7.349999999999965
 30
0.0
 11
191.9997259069508
 21
7.3499999999999632
 31
0.0
  0
LINE
  5
22A5
  8
250
  6
CONTINUOUS
 10
190.9997259069508
 20
5.119999999999961
 30
0.0
 11
190.9997259069508
 21
-5.119999999999969
 31
0.0
  0
LINE
  5
22B1
  8
250
  6
CONTINUOUS
 10
-0.0002740930491427
 20
7.7886970715156281
 30
0.0
 11
-0.0002740930491427
 21
29.0
 31
0.0
  0
LINE
  5
22B2
  8
250
  6
CONTINUOUS
 10
180.9997259069508
 20
7.6499999999999204
 30
0.0
 11
180.9997259069508
 21
29.0
 31
0.0
  0
LINE
  5
22B3
  8
250
  6
CONTINUOUS
 10
2.2297259069508462
 20
28.0
 30
0.0
 11
178.76972590695081
 21
28.0
 31
0.0
  0
TEXT
  5
22B7
  8
250
  6
CONTINUOUS
 10
86.428297335522274
 20
29.0
 30
0.0
 40
3.0
  1
181
1001
ACAD
1000
MTEXTBEGIN
1070
    73
1070
     1
1070
    44
1040
1.0
1070
    74
1070
     0
1000
MTEXTEND
  0
LINE
  5
22B8
  8
250
  6
CONTINUOUS
 10
178.76972590695081
 20
28.371666666666659
 30
0.0
 11
180.9997259069508
 21
28.0
 31
0.0
  0
LINE
  5
22B9
  8
250
  6
CONTINUOUS
 10
178.76972590695081
 20
27.62833333333333
 30
0.0
 11
180.9997259069508
 21
28.0
 31
0.0
  0
LINE
  5
22BA
  8
250
  6
CONTINUOUS
 10
180.9997259069508
 20
28.0
 30
0.0
 11
178.76972590695081
 21
28.0
 31
0.0
  0
LINE
  5
22BB
  8
250
  6
CONTINUOUS
 10
2.2297259069508462
 20
27.62833333333333
 30
0.0
 11
-0.0002740930491427
 21
28.0
 31
0.0
  0
LINE
  5
22BC
  8
250
  6
CONTINUOUS
 10
2.2297259069508462
 20
28.371666666666659
 30
0.0
 11
-0.0002740930491427
 21
28.0
 31
0.0
  0
LINE
  5
22BD
  8
250
  6
CONTINUOUS
 10
-0.0002740930491427
 20
28.0
 30
0.0
 11
2.2297259069508462
 21
28.0
 31
0.0
  0
TEXT
  5
22CA
  8
250
  6
CONTINUOUS
 10
189.9997259069508
 20
-17.085714285714278
 30
0.0
 40
3.0
  1
\U+2205
 50
90.0
1001
ACAD
1000
MTEXTBEGIN
1070
    73
1070
     1
1070
    44
1040
1.0
1070
    74
1070
     0
1000
MTEXTEND
  0
TEXT
  5
22CB
  8
250
  6
CONTINUOUS
 10
189.9997259069508
 20
-14.37142857142857
 30
0.0
 40
3.0
  1
15ü`
 50
90.0
1001
ACAD
1000
MTEXTBEGIN
1070
    73
1070
     1
1070
    44
1040
1.0
1070
    74
1070
     0
1000
MTEXTEND
  0
TEXT
  5
22CC
  8
250
  6
CONTINUOUS
 10
189.9997259069508
 20
-5.0571428571428552
 30
0.0
 40
3.0
  1
\U+2205
 50
90.0
1001
ACAD
1000
MTEXTBEGIN
1070
    73
1070
     1
1070
    44
1040
1.0
1070
    74
1070
     0
1000
MTEXTEND
  0
TEXT
  5
22CD
  8
250
  6
CONTINUOUS
 10
189.9997259069508
 20
-2.342857142857139
 30
0.0
 40
3.0
  1
18
 50
90.0
1001
ACAD
1000
MTEXTBEGIN
1070
    73
1070
     1
1070
    44
1040
1.0
1070
    74
1070
     0
1000
MTEXTEND
  0
LINE
  5
22CE
  8
250
  6
CONTINUOUS
 10
190.6280592402841
 20
5.119999999999961
 30
0.0
 11
190.9997259069508
 21
7.3499999999999632
 31
0.0
  0
LINE
  5
22CF
  8
250
  6
CONTINUOUS
 10
191.3713925736175
 20
5.119999999999961
 30
0.0
 11
190.9997259069508
 21
7.3499999999999632
 31
0.0
  0
LINE
  5
22D0
  8
250
  6
CONTINUOUS
 10
190.9997259069508
 20
7.3499999999999632
 30
0.0
 11
190.9997259069508
 21
5.119999999999961
 31
0.0
  0
LINE
  5
2514
  8
240
  6
CONTINUOUS
 10
0.0
 20
-7.000000000000056
 30
0.0
 11
166.4000000000101
 21
-7.0
 31
0.0
  0
LINE
  5
2515
  8
245
  6
CENTER2
 10
-1.593744051445213
 20
0.0
 30
0.0
 11
180.44063541443671
 21
0.0
 31
0.0
  0
LINE
  5
2516
  8
240
  6
CONTINUOUS
 10
0.0
 20
7.0000000000001723
 30
0.0
 11
166.40000000001021
 21
7.0
 31
0.0
  0
LINE
  5
251B
  8
240
  6
CONTINUOUS
 10
0.0
 20
-7.000000000000056
 30
0.0
 11
0.0
 21
7.0000000000001723
 31
0.0
  0
LINE
  5
2580
  8
240
  6
CONTINUOUS
 10
178.04550192839761
 20
6.9081066269454334
 30
0.0
 11
178.22321609744759
 21
6.998656518812167
 31
0.0
1001
GRPNAME
1000
PASTMD01
  0
ARC
  5
2581
  8
241
  6
CENTER
 10
180.2299999999824
 20
6.9999999999998863
 30
0.0
 40
4.9999999999999929
 50
184.99406685358809
 51
196.26020470831031
  0
LINE
  5
2582
  8
240
  6
CONTINUOUS
 10
173.50008821898439
 20
6.3500000005130914
 30
0.0
 11
178.04550192839761
 21
6.9081066269454334
 31
0.0
  0
LINE
  5
2583
  8
240
  6
CONTINUOUS
 10
167.80000000001019
 20
5.600000000000021
 30
0.0
 11
166.40000000001021
 21
7.0
 31
0.0
  0
LINE
  5
2584
  8
241
  6
CENTER
 10
144.0000000000118
 20
5.0
 30
0.0
 11
144.00000000000989
 21
7.0
 31
0.0
  0
LINE
  5
2585
  8
241
  6
CENTER
 10
149.00000000001009
 20
-7.0
 30
0.0
 11
149.00000000001009
 21
7.0
 31
0.0
  0
LINE
  5
2587
  8
240
  6
CONTINUOUS
 10
180.8756473513493
 20
4.7719729293015121
 30
0.0
 11
180.9997259069508
 21
7.1395328087513672
 31
0.0
1001
GRPNAME
1000
PASTMD01
  0
LINE
  5
2588
  8
240
  6
CONTINUOUS
 10
166.40000000001021
 20
-6.9999999999999432
 30
0.0
 11
167.80000000001019
 21
-5.600000000000076
 31
0.0
  0
LINE
  5
2589
  8
242
  6
CONTINUOUS
 10
153.00000000001009
 20
-3.6055512754639909
 30
0.0
 11
160.00000000001009
 21
3.6055512754639909
 31
0.0
  0
LINE
  5
258A
  8
242
  6
CONTINUOUS
 10
153.00000000001009
 20
3.6055512754639909
 30
0.0
 11
160.00000000001009
 21
-3.6055512754639909
 31
0.0
  0
LINE
  5
258B
  8
241
  6
CENTER
 10
153.00000000001009
 20
-3.6055512754639909
 30
0.0
 11
160.00000000001009
 21
-3.6055512754639909
 31
0.0
  0
LINE
  5
258C
  8
241
  6
CENTER
 10
153.00000000001009
 20
3.6055512754639909
 30
0.0
 11
160.00000000001009
 21
3.6055512754639909
 31
0.0
  0
ARC
  5
258D
  8
241
  6
CENTER
 10
159.00000000000961
 20
0.0
 30
0.0
 40
6.9999999999995151
 50
148.99728086612379
 51
211.0027191338761
  0
LINE
  5
258E
  8
241
  6
CENTER
 10
146.00000000001029
 20
-4.9999999999999432
 30
0.0
 11
146.00000000001029
 21
5.0
 31
0.0
  0
LINE
  5
258F
  8
241
  6
CENTER
 10
153.00000000001009
 20
-3.6055512754639909
 30
0.0
 11
153.00000000001009
 21
3.6055512754639909
 31
0.0
  0
LINE
  5
2590
  8
241
  6
CENTER
 10
144.00000000001029
 20
-4.9999999999999432
 30
0.0
 11
144.0000000000083
 21
-6.9999999999999432
 31
0.0
  0
LINE
  5
2591
  8
241
  6
CENTER
 10
144.00000000001029
 20
-4.9999999999999432
 30
0.0
 11
146.00000000001029
 21
-4.9999999999999432
 31
0.0
  0
LINE
  5
2592
  8
241
  6
CENTER
 10
144.0000000000118
 20
5.0
 30
0.0
 11
146.00000000001029
 21
5.0
 31
0.0
  0
LINE
  5
2593
  8
241
  6
CENTER
 10
160.00000000001009
 20
-3.6055512754639909
 30
0.0
 11
160.00000000001009
 21
3.6055512754639909
 31
0.0
  0
ARC
  5
2594
  8
241
  6
CENTER
 10
154.0000000000108
 20
0.0
 30
0.0
 40
6.9999999999995151
 50
328.99728086612367
 51
31.002719133876141
  0
ARC
  5
2595
  8
241
  6
CENTER
 10
180.29882919111299
 20
7.016999999999995
 30
0.0
 40
4.9999999999999858
 50
196.4632326024601
 51
254.94383172846409
  0
LINE
  5
2596
  8
240
  6
CONTINUOUS
 10
179.00000000001009
 20
-3.650000000000146
 30
0.0
 11
177.8741669750905
 21
-5.599999999999965
 31
0.0
  0
LINE
  5
2597
  8
240
  6
CONTINUOUS
 10
179.00000000001009
 20
2.6927524258687501
 30
0.0
 11
179.6093948924767
 21
2.297006755445238
 31
0.0
1001
GRPNAME
1000
PASTMD01
  0
LINE
  5
2598
  8
245
  6
CENTER2
 10
172.50000000001009
 20
-1.686881251531815
 30
0.0
 11
172.50000000001009
 21
1.7015981614978271
 31
0.0
  0
LINE
  5
2599
  8
241
  6
CENTER
 10
168.55382919111301
 20
-5.599999999999965
 30
0.0
 11
176.4538291911129
 21
-5.599999999999965
 31
0.0
  0
LINE
  5
259A
  8
240
  6
CONTINUOUS
 10
174.21076951546891
 20
-6.3000000000000123
 30
0.0
 11
170.78923048455161
 21
-6.3000000000000123
 31
0.0
1001
GRPNAME
1000
00000001
  0
LINE
  5
259B
  8
240
  6
CONTINUOUS
 10
168.55000000001019
 20
-5.699999999999986
 30
0.0
 11
170.78923048455161
 21
-6.3000000000000123
 31
0.0
1001
GRPNAME
1000
00000001
  0
LINE
  5
259C
  8
240
  6
CONTINUOUS
 10
168.55382919111301
 20
-5.699999999999986
 30
0.0
 11
168.55382919111301
 21
-5.599999999999965
 31
0.0
1001
GRPNAME
1000
00000001
  0
LINE
  5
259D
  8
240
  6
CONTINUOUS
 10
167.80000000001019
 20
-5.599999999999965
 30
0.0
 11
168.55382919111301
 21
-5.599999999999965
 31
0.0
  0
LINE
  5
259E
  8
240
  6
CONTINUOUS
 10
176.45000000001011
 20
-5.699999999999986
 30
0.0
 11
174.21076951546891
 21
-6.3000000000000123
 31
0.0
1001
GRPNAME
1000
00000001
  0
LINE
  5
259F
  8
240
  6
CONTINUOUS
 10
176.4538291911129
 20
-5.699999999999986
 30
0.0
 11
176.4538291911129
 21
-5.599999999999965
 31
0.0
1001
GRPNAME
1000
00000001
  0
LINE
  5
25A0
  8
240
  6
CONTINUOUS
 10
176.4538291911129
 20
-5.599999999999965
 30
0.0
 11
177.8741669750905
 21
-5.599999999999965
 31
0.0
  0
LINE
  5
25A1
  8
241
  6
CENTER
 10
168.72999999998251
 20
5.600000000000021
 30
0.0
 11
175.5038202234467
 21
5.600000000000021
 31
0.0
  0
CIRCLE
  5
25A2
  8
241
  6
CENTER
 10
172.50000000001009
 20
0.0
 30
0.0
 40
0.8
  0
CIRCLE
  5
25A3
  8
242
  6
CONTINUOUS
 10
172.50000000001009
 20
0.0
 30
0.0
 40
1.0
  0
LINE
  5
25A4
  8
240
  6
CONTINUOUS
 10
168.72999999998251
 20
6.3500000005130914
 30
0.0
 11
173.50008821898439
 21
6.3500000005130914
 31
0.0
  0
LINE
  5
25A5
  8
240
  6
CONTINUOUS
 10
168.72999999998251
 20
5.600000000000021
 30
0.0
 11
168.72999999998251
 21
6.3500000005130914
 31
0.0
  0
LINE
  5
25A6
  8
240
  6
CONTINUOUS
 10
167.80000000001019
 20
5.600000000000021
 30
0.0
 11
168.72999999998251
 21
5.600000000000021
 31
0.0
  0
LINE
  5
262B
  8
241
  6
CENTER
 10
176.04188081700099
 20
5.6237674508346913
 30
0.0
 11
177.4686692846735
 21
3.730355203262147
 31
0.0
1001
GRPNAME
1000
PASTMD01
  0
ARC
  5
262C
  8
241
  6
CENTER
 10
177.94785059070199
 20
4.0914442171533638
 30
0.0
 40
0.6000000000000343
 50
216.99999999227791
 51
236.999999992282
1001
GRPNAME
1000
PASTMD01
  0
ARC
  5
262D
  8
241
  6
CENTER
 10
176.2016079190106
 20
5.7441304554651511
 30
0.0
 40
0.2000000000000268
 50
117.00000008657
 51
217.0000000865428
1001
GRPNAME
1000
PASTMD01
  0
LINE
  5
262E
  8
240
  6
CONTINUOUS
 10
179.00000000001009
 20
-3.650000000000146
 30
0.0
 11
179.00000000001009
 21
2.6927524258687501
 31
0.0
  0
LINE
  5
262F
  8
240
  6
CONTINUOUS
 10
179.90242367017009
 20
2.3865946433364762
 30
0.0
 11
180.82877254256809
 21
4.5689358259537549
 31
0.0
1001
GRPNAME
1000
PASTMD01
  0
ARC
  5
2630
  8
240
  6
CONTINUOUS
 10
179.71832269947959
 20
2.4647408690343582
 30
0.0
 40
0.2000000000000243
 50
236.99999992028179
 51
336.99999992030308
1001
GRPNAME
1000
PASTMD01
  0
ARC
  5
2631
  8
240
  6
CONTINUOUS
 10
180.27646963049651
 20
4.8033745030472801
 30
0.0
 40
0.6000000000000262
 50
336.99999994257911
 51
356.99999994257507
1001
GRPNAME
1000
PASTMD01
  0
LINE
  5
2632
  8
240
  6
CONTINUOUS
 10
178.42248879124841
 20
7.0595802952834674
 30
0.0
 11
180.77562613131889
 21
7.3485092303282009
 31
0.0
1001
GRPNAME
1000
PASTMD01
  0
ARC
  5
2633
  8
240
  6
CONTINUOUS
 10
178.49561039729139
 20
6.464052604298673
 30
0.0
 40
0.5999999999999967
 50
97.000000064267866
 51
117.00000006426539
1001
GRPNAME
1000
PASTMD01
  0
ARC
  5
2634
  8
240
  6
CONTINUOUS
 10
180.7999999999999
 20
7.1499999999999204
 30
0.0
 40
0.2000000000000704
 50
357.0000000642691
 51
97.000000064267866
1001
GRPNAME
1000
PASTMD01
  0
LINE
  5
263B
  8
241
  6
CENTER
 10
176.1108098187934
 20
5.9223317601656591
 30
0.0
 11
178.04550192839761
 21
6.9081066269454334
 31
0.0
  0
LINE
  5
263C
  8
241
  6
CENTER
 10
179.00000000001009
 20
2.6927524258687501
 30
0.0
 11
177.62106716962521
 21
3.5882418764301001
 31
0.0
  0
LINE
  5
269F
  8
250
  6
CONTINUOUS
 10
25.016875612198991
 20
-20.99999999999994
 30
0.0
 11
5.4454470407704321
 21
-20.99999999999994
 31
0.0
1001
ITEMNAME
1000
LNSP2
  0
TEXT
  5
26A0
  8
250
  6
CONTINUOUS
 10
8.0168756121989873
 20
-19.99999999999994
 30
0.0
 40
3.0
  1
ST14W
  7
YOKO
1001
ITEMNAME
1000
LNSP3
1001
ACAD
1000
MTEXTBEGIN
1070
    73
1070
     1
1070
    44
1040
1.0
1070
    74
1070
     0
1000
MTEXTEND
  0
LINE
  5
26A1
  8
250
  6
CONTINUOUS
 10
31.984779380853809
 20
-8.9312366504393026
 30
0.0
 11
25.016875612198991
 21
-20.99999999999994
 31
0.0
1001
ACAD
1000
DSTYLE
1002
{
1070
     5
1000
OPEN
1070
    78
1070
     8
1070
   140
1040
3.0
1002
}
  0
LINE
  5
26A2
  8
250
  6
CONTINUOUS
 10
31.66290660578062
 20
-8.7454033171059642
 30
0.0
 11
33.099779380853818
 21
-6.9999999999999423
 31
0.0
  0
LINE
  5
26A3
  8
250
  6
CONTINUOUS
 10
32.306652155926997
 20
-9.1170699837726374
 30
0.0
 11
33.099779380853818
 21
-6.9999999999999423
 31
0.0
  0
LINE
  5
26A4
  8
250
  6
CONTINUOUS
 10
33.099779380853818
 20
-6.9999999999999423
 30
0.0
 11
31.984779380853809
 21
-8.9312366504393026
 31
0.0
  0
LINE
  5
26A5
  8
247
  6
CONTINUOUS
 10
6.749999999929968
 20
-4.9999999999999423
 30
0.0
 11
13.442307691969971
 21
-4.9999999999999423
 31
0.0
  0
ARC
  5
26A6
  8
247
  6
CONTINUOUS
 10
6.749999999929968
 20
-3.250000000069972
 30
0.0
 40
1.7499999999299991
 50
90.0
 51
270.0
  0
ARC
  5
26A7
  8
247
  6
CONTINUOUS
 10
13.442307691969971
 20
-3.250000000069972
 30
0.0
 40
1.7499999999299991
 50
270.0
 51
90.0
  0
LINE
  5
26A8
  8
247
  6
CONTINUOUS
 10
7.6153846152799911
 20
-1.500000000140004
 30
0.0
 11
6.7551484580379793
 21
-4.5000000000199512
 31
0.0
  0
LINE
  5
26A9
  8
247
  6
CONTINUOUS
 10
8.5150161816641798
 20
-2.9230769231598379
 30
0.0
 11
7.2073238740241532
 21
-2.9230769231598379
 31
0.0
  0
ARC
  5
26AA
  8
247
  6
CONTINUOUS
 10
8.8548561839102131
 20
-2.0495986677028082
 30
0.0
 40
0.5538165441895349
 50
342.9978896752952
 51
82.924166218513506
  0
ARC
  5
26AB
  8
247
  6
CONTINUOUS
 10
8.4331216769712114
 20
-1.936033044465771
 30
0.0
 40
0.9904354236226808
 50
274.74293685219902
 51
343.84922627326682
1001
GENIUS_GENOBJ-N-FIL_13
1002
{
1000
OWNER
1000
GEN
1002
}
1001
GENIUS_GENODEF_13
1002
{
1000
HIER
1070
     0
1002
}
1002
{
1000
MANEDIT
1070
     0
1002
}
1002
{
1000
NOSEL
1070
     0
1002
}
1002
{
1000
BEHIND
1070
     0
1002
}
1002
{
1000
OTHER
1070
     0
1002
}
1002
{
1000
REACTOR
1002
}
  0
LINE
  5
26AC
  8
247
  6
CONTINUOUS
 10
8.0628407656780023
 20
-4.5000000000199512
 30
0.0
 11
6.7551484580379793
 21
-4.5000000000199512
 31
0.0
  0
LINE
  5
26AD
  8
247
  6
CONTINUOUS
 10
7.6153846152799911
 20
-1.500000000140004
 30
0.0
 11
8.9230769229200195
 21
-1.500000000140004
 31
0.0
  0
ARC
  5
26AE
  8
247
  6
CONTINUOUS
 10
8.4390803634530585
 20
-3.482024232665422
 30
0.0
 40
0.5640818586791229
 50
335.99094165252171
 51
82.263443459069123
  0
ARC
  5
26AF
  8
247
  6
CONTINUOUS
 10
7.9617373146529626
 20
-3.4874290391864511
 30
0.0
 40
1.0176059446230981
 50
275.70198516425648
 51
347.27733843682199
1001
GENIUS_GENOBJ-N-FIL_13
1002
{
1000
OWNER
1000
GEN
1002
}
1001
GENIUS_GENODEF_13
1002
{
1000
HIER
1070
     0
1002
}
1002
{
1000
MANEDIT
1070
     0
1002
}
1002
{
1000
NOSEL
1070
     0
1002
}
1002
{
1000
BEHIND
1070
     0
1002
}
1002
{
1000
OTHER
1070
     0
1002
}
1002
{
1000
REACTOR
1002
}
  0
LINE
  5
26B0
  8
247
  6
CONTINUOUS
 10
9.7166869194579704
 20
-4.5000000000199512
 30
0.0
 11
10.57692307669998
 21
-1.500000000140004
 31
0.0
  0
LINE
  5
26B1
  8
247
  6
CONTINUOUS
 10
12.99999999967997
 20
-1.500000000140004
 30
0.0
 11
12.434263380543371
 21
-1.500000000140004
 31
0.0
  0
LINE
  5
26B2
  8
247
  6
CONTINUOUS
 10
11.538461538200011
 20
-4.5000000000199512
 30
0.0
 11
12.15384615355998
 21
-4.5000000000199512
 31
0.0
  0
ARC
  5
26B3
  8
247
  6
CONTINUOUS
 10
13.29120879087713
 20
-3.58328513597331
 30
0.0
 40
2.2526500823422122
 50
112.3594881415295
 51
164.9932485428464
  0
ARC
  5
26B4
  8
247
  6
CONTINUOUS
 10
12.62593052078677
 20
-2.3083126551945821
 30
0.0
 40
0.8906723995727782
 50
4.9945893190753123
 51
65.166328957300649
1001
GENIUS_GENOBJ-N-FIL_13
1002
{
1000
OWNER
1000
GEN
1002
}
1001
GENIUS_GENODEF_13
1002
{
1000
HIER
1070
     0
1002
}
1002
{
1000
MANEDIT
1070
     0
1002
}
1002
{
1000
NOSEL
1070
     0
1002
}
1002
{
1000
BEHIND
1070
     0
1002
}
1002
{
1000
OTHER
1070
     0
1002
}
1002
{
1000
REACTOR
1002
}
  0
ARC
  5
26B5
  8
247
  6
CONTINUOUS
 10
11.77354111378742
 20
-3.1601458886677261
 30
0.0
 40
1.392781735586712
 50
285.84609655578078
 51
352.3251370041624
  0
ARC
  5
26B6
  8
247
  6
CONTINUOUS
 10
12.35778727415965
 20
-3.4592434315272249
 30
0.0
 40
1.324563662670287
 50
159.71360167048971
 51
231.78874565641459
1001
GENIUS_GENOBJ-N-FIL_13
1002
{
1000
OWNER
1000
GEN
1002
}
1001
GENIUS_GENODEF_13
1002
{
1000
HIER
1070
     0
1002
}
1002
{
1000
MANEDIT
1070
     0
1002
}
1002
{
1000
NOSEL
1070
     0
1002
}
1002
{
1000
BEHIND
1070
     0
1002
}
1002
{
1000
OTHER
1070
     0
1002
}
1002
{
1000
REACTOR
1002
}
  0
LINE
  5
26B7
  8
247
  6
CONTINUOUS
 10
12.46153846124002
 20
-3.3461538462199192
 30
0.0
 11
13.15384615352002
 21
-3.3461538462199192
 31
0.0
  0
LINE
  5
26B8
  8
247
  6
CONTINUOUS
 10
6.749999999929968
 20
-1.500000000140004
 30
0.0
 11
7.4230769229799289
 21
-1.500000000140004
 31
0.0
  0
VIEWPORT
  5
22
 67
     1
  8
0
 10
261.51769911504419
 20
148.5
 30
0.0
 40
523.0353982300885
 41
297.0
 68
     1
 69
     1
1001
ACAD
1000
MVIEW
1002
{
1070
    16
1010
0.0
1020
0.0
1030
0.0
1010
0.0
1020
0.0
1030
1.0
1040
0.0
1040
297.0
1040
261.51769911504419
1040
148.5
1040
50.0
1040
0.0
1040
0.0
1070
     0
1070
   100
1070
     1
1070
     1
1070
     0
1070
     0
1070
     0
1070
     0
1040
0.0
1040
0.0
1040
0.0
1040
1.0
1040
1.0
1040
10.0
1040
10.0
1070
     0
1002
{
1002
}
1002
}
1001
GENIUS_GENOBJ-N-SDF_13
1002
{
1000
OWNER
1000
GEN
1002
}
1001
GENIUS_GENODEF_13
1002
{
1000
HIER
1070
     0
1002
}
1002
{
1000
MANEDIT
1070
     0
1002
}
1002
{
1000
NOSEL
1070
     0
1002
}
1002
{
1000
BEHIND
1070
     0
1002
}
1002
{
1000
OTHER
1070
     0
1002
}
1002
{
1000
REACTOR
1002
}
1001
GENIUS_GENSCREG_15
1000
PF
1040
1.0
1000
DF
1040
1.0
1000
MIN
1011
0.0
1021
0.0
1031
0.0
1021
0.0
1031
0.0
1000
MAX
1011
523.0353982300885
1021
0.0
1031
0.0
1021
297.0
1031
0.0
1000
FLAGS
1070
     4
  0
ENDSEC
  0
EOF
