  0
SECTION
  2
HEADER
  9
$ACADVER
  1
AC1009
  9
$INSBASE
 10
0.0
 20
0.0
 30
0.0
  9
$EXTMIN
 10
-152.49580113555129
 20
-21.01409826053521
 30
-0.0000000349181948
  9
$EXTMAX
 10
11.017336197645591
 20
47.016236726407662
 30
0.0000000814935747
  9
$LIMMIN
 10
0.0
 20
0.0
  9
$LIMMAX
 10
297.0
 20
210.0
  9
$ORTHOMODE
 70
     1
  9
$REGENMODE
 70
     1
  9
$FILLMODE
 70
     1
  9
$QTEXTMODE
 70
     0
  9
$MIRRTEXT
 70
     1
  9
$DRAGMODE
 70
     2
  9
$LTSCALE
 40
10.0
  9
$OSMODE
 70
  3071
  9
$ATTMODE
 70
     1
  9
$TEXTSIZE
 40
3.0
  9
$TRACEWID
 40
1.0
  9
$TEXTSTYLE
  7
YOKO
  9
$CLAYER
  8
240
  9
$CELTYPE
  6
BYLAYER
  9
$CECOLOR
 62
   256
  9
$DIMSCALE
 40
1.0
  9
$DIMASZ
 40
2.2299999999999991
  9
$DIMEXO
 40
0.5
  9
$DIMDLI
 40
2.5
  9
$DIMRND
 40
0.0
  9
$DIMDLE
 40
0.0
  9
$DIMEXE
 40
1.0
  9
$DIMTP
 40
0.0
  9
$DIMTM
 40
0.0
  9
$DIMTXT
 40
3.0
  9
$DIMCEN
 40
0.0
  9
$DIMTSZ
 40
0.0
  9
$DIMTOL
 70
     0
  9
$DIMLIM
 70
     0
  9
$DIMTIH
 70
     0
  9
$DIMTOH
 70
     0
  9
$DIMSE1
 70
     0
  9
$DIMSE2
 70
     0
  9
$DIMTAD
 70
     3
  9
$DIMZIN
 70
     8
  9
$DIMBLK
  1
OPEN
  9
$DIMASO
 70
     1
  9
$DIMSHO
 70
     1
  9
$DIMPOST
  1

  9
$DIMAPOST
  1

  9
$DIMALT
 70
     0
  9
$DIMALTD
 70
     2
  9
$DIMALTF
 40
25.399999999999999
  9
$DIMLFAC
 40
1.0
  9
$DIMTOFL
 70
     1
  9
$DIMTVP
 40
0.0
  9
$DIMTIX
 70
     0
  9
$DIMSOXD
 70
     0
  9
$DIMSAH
 70
     0
  9
$DIMBLK1
  1

  9
$DIMBLK2
  1

  9
$DIMSTYLE
  2
BIGT
  9
$DIMCLRD
 70
   256
  9
$DIMCLRE
 70
   256
  9
$DIMCLRT
 70
    40
  9
$DIMTFAC
 40
1.0
  9
$DIMGAP
 40
1.0
  9
$LUNITS
 70
     2
  9
$LUPREC
 70
     2
  9
$SKETCHINC
 40
1.0
  9
$FILLETRAD
 40
1.0
  9
$AUNITS
 70
     0
  9
$AUPREC
 70
     3
  9
$MENU
  1
.
  9
$ELEVATION
 40
0.0
  9
$PELEVATION
 40
0.0
  9
$THICKNESS
 40
0.0
  9
$LIMCHECK
 70
     0
  9
$BLIPMODE
 70
     0
  9
$CHAMFERA
 40
10.0
  9
$CHAMFERB
 40
10.0
  9
$SKPOLY
 70
     0
  9
$TDCREATE
 40
2452226.7127276738
  9
$TDUPDATE
 40
2457368.6863599769
  9
$TDINDWG
 40
0.1151543171
  9
$TDUSRTIMER
 40
0.1151539236
  9
$USRTIMER
 70
     1
  9
$ANGBASE
 50
0.0
  9
$ANGDIR
 70
     0
  9
$PDMODE
 70
    35
  9
$PDSIZE
 40
-5.0
  9
$PLINEWID
 40
0.0
  9
$COORDS
 70
     1
  9
$SPLFRAME
 70
     0
  9
$SPLINETYPE
 70
     6
  9
$SPLINESEGS
 70
     8
  9
$ATTDIA
 70
     1
  9
$ATTREQ
 70
     1
  9
$HANDLING
 70
     1
  9
$HANDSEED
  5
2360
  9
$SURFTAB1
 70
     6
  9
$SURFTAB2
 70
     6
  9
$SURFTYPE
 70
     6
  9
$SURFU
 70
     6
  9
$SURFV
 70
     6
  9
$UCSNAME
  2

  9
$UCSORG
 10
0.0
 20
0.0
 30
0.0
  9
$UCSXDIR
 10
1.0
 20
0.0
 30
0.0
  9
$UCSYDIR
 10
0.0
 20
1.0
 30
0.0
  9
$PUCSNAME
  2

  9
$PUCSORG
 10
0.0
 20
0.0
 30
0.0
  9
$PUCSXDIR
 10
1.0
 20
0.0
 30
0.0
  9
$PUCSYDIR
 10
0.0
 20
1.0
 30
0.0
  9
$USERI1
 70
     1
  9
$USERI2
 70
     0
  9
$USERI3
 70
     0
  9
$USERI4
 70
     0
  9
$USERI5
 70
     0
  9
$USERR1
 40
0.0
  9
$USERR2
 40
0.0
  9
$USERR3
 40
0.0
  9
$USERR4
 40
0.0
  9
$USERR5
 40
0.0
  9
$WORLDVIEW
 70
     1
  9
$SHADEDGE
 70
     3
  9
$SHADEDIF
 70
    70
  9
$TILEMODE
 70
     1
  9
$MAXACTVP
 70
    16
  9
$PLIMCHECK
 70
     0
  9
$PEXTMIN
 10
1.0000000000000000E+020
 20
1.0000000000000000E+020
 30
1.0000000000000000E+020
  9
$PEXTMAX
 10
-1.0000000000000000E+020
 20
-1.0000000000000000E+020
 30
-1.0000000000000000E+020
  9
$PLIMMIN
 10
0.0
 20
0.0
  9
$PLIMMAX
 10
420.0
 20
297.0
  9
$UNITMODE
 70
     0
  9
$VISRETAIN
 70
     0
  9
$PLINEGEN
 70
     0
  9
$PSLTSCALE
 70
     1
  0
ENDSEC
  0
SECTION
  2
TABLES
  0
TABLE
  2
VPORT
 70
     1
  0
VPORT
  2
*ACTIVE
 70
     0
 10
0.0
 20
0.0
 11
1.0
 21
1.0
 12
-88.352840036088324
 22
10.07513268243647
 13
0.0
 23
0.0
 14
7.0
 24
7.0
 15
7.0
 25
7.0
 16
0.0
 26
0.0
 36
1.0
 17
0.0
 27
0.0
 37
0.0
 40
190.25852798175379
 41
1.3814102564102559
 42
50.0
 43
0.0
 44
0.0
 50
0.0
 51
0.0
 71
     0
 72
  2000
 73
     1
 74
     0
 75
     0
 76
     0
 77
     0
 78
     0
  0
ENDTAB
  0
TABLE
  2
LTYPE
 70
    22
  0
LTYPE
  2
CONTINUOUS
 70
     0
  3
Solid line
 72
    65
 73
     0
 40
0.0
  0
LTYPE
  2
CENTER2
 70
     0
  3
___ _ ___ _ ___ _ ___ _ ___ _ ___ _ ___ _ ___ _
 72
    65
 73
     4
 40
1.125
 49
0.75
 49
-0.125
 49
0.125
 49
-0.125
  0
LTYPE
  2
PHANTOM2
 70
     0
  3
___ _ _ ___ _ _ ___ _ _ ___ _ _ ___ _ _ ___ _ _
 72
    65
 73
     6
 40
1.25
 49
0.625
 49
-0.125
 49
0.125
 49
-0.125
 49
0.125
 49
-0.125
  0
LTYPE
  2
HIDDEN
 70
     0
  3
Hidden __ __ __ __ __ __ __ __ __ __ __ __ __ _
 72
    65
 73
     2
 40
9.5249999999999986
 49
6.3499999999999979
 49
-3.174999999999998
  0
LTYPE
  2
CENTER
 70
     0
  3
Center ____ _ ____ _ ____ _ ____ _ ____ _ ____
 72
    65
 73
     4
 40
50.799999999999997
 49
31.75
 49
-6.3499999999999979
 49
6.3499999999999979
 49
-6.3499999999999979
  0
LTYPE
  2
AM_ISO02W050
 70
     0
  3
__ __ __ __ __ __ __ __ __ __ __ __ __ __ __
 72
    65
 73
     2
 40
7.5
 49
6.0
 49
-1.5
  0
LTYPE
  2
AMCONSTR
 70
     0
  3
_______________________
 72
    65
 73
     2
 40
9999.0
 49
9999.0
 49
0.0
  0
LTYPE
  2
HIDDEN2
 70
     0
  3
Hidden (.5x) _ _ _ _ _ _ _ _ _ _ _ _ _ _ _ _ _
 72
    65
 73
     2
 40
0.1875
 49
0.125
 49
-0.0625
  0
LTYPE
  2
AMZIGZAG2
 70
     0
  3
/\/-/\/-/\/-/\/-/\/-/\/
 72
    65
 73
     2
 40
0.4401
 49
0.0001
 49
-0.4400000000000001
  0
LTYPE
  2
ACANSTGB
 70
     0
  3
__ . . __ . .
 72
    65
 73
     6
 40
0.35433070866
 49
0.15748031496
 49
-0.03937007874
 49
0.03937007874
 49
-0.03937007874
 49
0.03937007874
 49
-0.03937007874
  0
LTYPE
  2
ACANSTGL
 70
     0
  3
_ _ _ _ _
 72
    65
 73
     2
 40
0.11811023622
 49
0.07874015748
 49
-0.03937007874
  0
LTYPE
  2
ACJISTGB
 70
     0
  3
__ . . __ . .
 72
    65
 73
     6
 40
9.0
 49
4.0
 49
-1.0
 49
1.0
 49
-1.0
 49
1.0
 49
-1.0
  0
LTYPE
  2
ACJISTGL
 70
     0
  3
_ _ _ _ _
 72
    65
 73
     2
 40
3.0
 49
2.0
 49
-1.0
  0
ENDTAB
  0
TABLE
  2
LAYER
 70
    10
  0
LAYER
  2
0
 70
     0
 62
     7
  6
CONTINUOUS
  0
LAYER
  2
240
 70
     0
 62
     4
  6
CONTINUOUS
  0
LAYER
  2
241
 70
     0
 62
   211
  6
CONTINUOUS
  0
LAYER
  2
242
 70
     0
 62
     3
  6
CONTINUOUS
  0
LAYER
  2
245
 70
     0
 62
     2
  6
CENTER2
  0
LAYER
  2
247
 70
     0
 62
    60
  6
CONTINUOUS
  0
LAYER
  2
250
 70
     0
 62
     3
  6
CONTINUOUS
  0
LAYER
  2
DEFPOINTS
 70
     0
 62
     7
  6
CONTINUOUS
  0
ENDTAB
  0
TABLE
  2
STYLE
 70
    11
  0
STYLE
  2
STANDARD
 70
     0
 40
0.0
 41
1.0
 50
0.0
 71
     0
 42
3.0
  3
romans.shx
  4
BIGFONT.SHX
  0
STYLE
  2
YOKO
 70
     0
 40
0.0
 41
1.0
 50
0.0
 71
     0
 42
3.0
  3
romans.shx
  4
extfont.shx
  0
STYLE
  2

 70
     1
 40
0.0
 41
1.0
 50
0.0
 71
     0
 42
3.0
  3
genltshp.shx
  4

  0
STYLE
  2
ACANSGDT
 70
     0
 40
0.0
 41
1.0
 50
0.0
 71
     0
 42
3.0
  3
amgdt.shx
  4

  0
STYLE
  2
ACJISTS
 70
     0
 40
1.0
 41
1.0
 50
0.0
 71
     0
 42
3.0
  3
amgdt.shx
  4
extfont.shx
  0
STYLE
  2
ACJISGDT
 70
     0
 40
0.0
 41
1.0
 50
0.0
 71
     0
 42
3.0
  3
amgdt.shx
  4
extfont.shx
  0
ENDTAB
  0
TABLE
  2
VIEW
 70
     0
  0
ENDTAB
  0
TABLE
  2
UCS
 70
     0
  0
ENDTAB
  0
TABLE
  2
APPID
 70
    26
  0
APPID
  2
ACAD
 70
     0
  0
APPID
  2
ACADANNOTATIVE
 70
     0
  0
APPID
  2
GLOBAL
 70
     0
  0
APPID
  2
DETAIL
 70
     0
  0
APPID
  2
GRPNAME
 70
     0
  0
APPID
  2
GPARA
 70
     0
  0
APPID
  2
ITEMNAME
 70
     0
  0
APPID
  2
HATCH_TYPE
 70
     0
  0
APPID
  2
HATCH_DISPLAY
 70
     0
  0
APPID
  2
HATCH_DISTANCE
 70
     0
  0
APPID
  2
MCAD_NO_VIS
 70
     0
  0
APPID
  2
ACAD_TEMP_GRAPHIC
 70
     0
  0
APPID
  2
AD_DRAW
 70
     0
  0
APPID
  2
ACATTRIBSERVICES
 70
     0
  0
APPID
  2
DESIGNERASSEMBLIES
 70
     0
  0
APPID
  2
ACADM_DIM_EDIT
 70
     0
  0
APPID
  2
AMDT_DM_ADJ
 70
     0
  0
APPID
  2
GENIUS_GENSCREG_15
 70
     0
  0
APPID
  2
GENIUS_GENOBJ-N-SDF_13
 70
     0
  0
APPID
  2
GENIUS_GENODEF_13
 70
     0
  0
APPID
  2
ACAD_DSTYLE_DIMJAG
 70
     0
  0
APPID
  2
ACAD_DSTYLE_DIMBREAK
 70
     0
  0
APPID
  2
ACAD_NAV_VCDISPLAY
 70
     0
  0
APPID
  2
ACAECLAYERSTANDARD
 70
     0
  0
APPID
  2
GENIUS_GENOBJ-N-FIL_13
 70
     0
  0
APPID
  2
ACAD_MLEADERVER
 70
     0
  0
ENDTAB
  0
TABLE
  2
DIMSTYLE
 70
    26
  0
DIMSTYLE
  2
STANDARD
 70
     0
  3

  4

  5

  6

  7

 40
1.0
 41
2.0
 42
2.0
 43
3.75
 44
2.0
 45
0.0
 46
0.0
 47
0.0
 48
0.0
140
4.0
141
0.09
142
0.0
143
25.399999999999999
144
1.0
145
0.0
146
1.0
147
1.0
 71
     0
 72
     0
 73
     1
 74
     1
 75
     0
 76
     0
 77
     0
 78
     8
170
     0
171
     2
172
     0
173
     1
174
     0
175
     0
176
   256
177
   256
178
   256
  0
DIMSTYLE
  2
BIGT
 70
     0
  3

  4

  5

  6

  7

 40
1.0
 41
2.2299999999999991
 42
0.5
 43
2.5
 44
1.0
 45
0.0
 46
0.0
 47
0.0
 48
0.0
140
3.5
141
0.0
142
0.0
143
25.399999999999999
144
1.0
145
0.0
146
1.0
147
1.0
 71
     0
 72
     0
 73
     0
 74
     0
 75
     0
 76
     0
 77
     3
 78
     9
170
     0
171
     2
172
     1
173
     0
174
     0
175
     0
176
   256
177
   256
178
    40
  0
DIMSTYLE
  2
AM_ANSI
 70
     0
  3

  4
mm
  5

  6

  7

 40
1.0
 41
0.12
 42
0.05
 43
0.5
 44
0.1
 45
0.0
 46
0.0
 47
0.1
 48
0.1
140
0.12
141
0.0
142
0.0
143
25.399999999999999
144
1.0
145
0.0
146
0.71
147
0.06
 71
     0
 72
     0
 73
     1
 74
     1
 75
     0
 76
     0
 77
     0
 78
     7
170
     0
171
     2
172
     0
173
     0
174
     0
175
     0
176
   256
177
   256
178
     2
  0
DIMSTYLE
  2
AM_ANSI$3
 70
     0
  3

  4
mm
  5

  6

  7

 40
1.0
 41
0.12
 42
0.05
 43
0.5
 44
0.1
 45
0.0
 46
0.0
 47
0.1
 48
0.1
140
0.12
141
0.0
142
0.0
143
25.399999999999999
144
1.0
145
0.0
146
0.71
147
0.06
 71
     0
 72
     0
 73
     1
 74
     1
 75
     0
 76
     0
 77
     0
 78
     7
170
     0
171
     2
172
     0
173
     0
174
     0
175
     0
176
   256
177
   256
178
     2
  0
DIMSTYLE
  2
AM_ANSI$4
 70
     0
  3

  4
mm
  5

  6

  7

 40
1.0
 41
0.12
 42
0.05
 43
0.5
 44
0.1
 45
0.0
 46
0.0
 47
0.1
 48
0.1
140
0.12
141
0.0
142
0.0
143
25.399999999999999
144
1.0
145
0.0
146
0.71
147
0.06
 71
     0
 72
     0
 73
     1
 74
     1
 75
     0
 76
     0
 77
     0
 78
     7
170
     0
171
     2
172
     0
173
     0
174
     0
175
     0
176
   256
177
   256
178
     2
  0
DIMSTYLE
  2
AM_ANSI$7
 70
     0
  3

  4
mm
  5

  6

  7

 40
1.0
 41
0.12
 42
0.05
 43
0.5
 44
0.1
 45
0.0
 46
0.0
 47
0.1
 48
0.1
140
0.12
141
0.0
142
0.0
143
25.399999999999999
144
1.0
145
0.0
146
0.71
147
0.06
 71
     0
 72
     0
 73
     1
 74
     1
 75
     0
 76
     0
 77
     0
 78
     7
170
     0
171
     2
172
     0
173
     0
174
     0
175
     0
176
   256
177
   256
178
     2
  0
DIMSTYLE
  2
AM_ANSI$SF
 70
     0
  3

  4
mm
  5

  6

  7

 40
1.0
 41
0.12
 42
0.05
 43
0.5
 44
0.1
 45
0.0
 46
0.0
 47
0.1
 48
0.1
140
0.12
141
0.0
142
0.0
143
25.399999999999999
144
1.0
145
0.0
146
0.71
147
0.06
 71
     0
 72
     0
 73
     1
 74
     1
 75
     1
 76
     1
 77
     0
 78
     7
170
     0
171
     2
172
     0
173
     0
174
     0
175
     0
176
   256
177
   256
178
     2
  0
DIMSTYLE
  2
AM_ANSI$SH
 70
     0
  3

  4
mm
  5

  6
GENAXEH
  7

 40
1.0
 41
0.12
 42
0.05
 43
0.5
 44
0.1
 45
0.0
 46
0.0
 47
0.1
 48
0.1
140
0.12
141
0.0
142
0.0
143
25.399999999999999
144
1.0
145
0.0
146
0.71
147
0.06
 71
     0
 72
     0
 73
     1
 74
     1
 75
     1
 76
     1
 77
     0
 78
     7
170
     0
171
     2
172
     0
173
     1
174
     0
175
     0
176
   256
177
   256
178
     2
  0
DIMSTYLE
  2
BIGT$2
 70
     0
  3

  4

  5
OPEN
  6

  7

 40
1.0
 41
2.2299999999999991
 42
0.5
 43
7.0
 44
1.0
 45
0.0
 46
0.0
 47
0.0
 48
0.01
140
2.7999999999999989
141
0.0
142
0.0
143
25.399999999999999
144
1.0
145
0.0
146
1.0
147
1.0
 71
     0
 72
     0
 73
     0
 74
     0
 75
     0
 76
     0
 77
     3
 78
     9
170
     0
171
     2
172
     1
173
     0
174
     0
175
     0
176
   256
177
   256
178
    40
  0
DIMSTYLE
  2
BIGT$3
 70
     0
  3

  4

  5
OPEN
  6

  7

 40
1.0
 41
2.2299999999999991
 42
0.5
 43
2.5
 44
1.0
 45
0.0
 46
0.0
 47
0.0
 48
0.01
140
2.7999999999999989
141
0.0
142
0.0
143
25.399999999999999
144
1.0
145
0.0
146
1.0
147
1.0
 71
     0
 72
     0
 73
     0
 74
     0
 75
     0
 76
     0
 77
     3
 78
     9
170
     0
171
     2
172
     1
173
     0
174
     0
175
     0
176
   256
177
   256
178
    40
  0
DIMSTYLE
  2
BIGT$7
 70
     0
  3

  4

  5
OPEN
  6

  7

 40
0.0
 41
2.2299999999999991
 42
0.5
 43
7.0
 44
1.0
 45
0.0
 46
0.0
 47
0.0
 48
0.01
140
2.7999999999999989
141
0.0
142
0.0
143
25.399999999999999
144
1.0
145
0.0
146
1.0
147
1.0
 71
     0
 72
     0
 73
     0
 74
     0
 75
     0
 76
     0
 77
     3
 78
     9
170
     0
171
     2
172
     0
173
     0
174
     0
175
     0
176
   256
177
   256
178
    40
  0
DIMSTYLE
  2
BIGT$6
 70
     0
  3

  4

  5
OPEN
  6

  7

 40
1.0
 41
2.2299999999999991
 42
0.5
 43
2.5
 44
1.0
 45
0.0
 46
0.0
 47
0.0
 48
0.01
140
2.7999999999999989
141
0.0
142
0.0
143
25.399999999999999
144
1.0
145
0.0
146
1.0
147
1.0
 71
     0
 72
     0
 73
     0
 74
     0
 75
     0
 76
     0
 77
     3
 78
     9
170
     0
171
     2
172
     1
173
     0
174
     0
175
     0
176
   256
177
   256
178
    40
  0
DIMSTYLE
  2
BIGT$0
 70
     0
  3

  4

  5
OPEN
  6

  7

 40
1.0
 41
2.2299999999999991
 42
0.5
 43
7.0
 44
1.0
 45
0.0
 46
0.0
 47
0.0
 48
0.01
140
2.7999999999999989
141
0.0
142
0.0
143
25.399999999999999
144
1.0
145
0.0
146
1.0
147
1.0
 71
     0
 72
     0
 73
     0
 74
     0
 75
     0
 76
     0
 77
     3
 78
     9
170
     0
171
     2
172
     1
173
     0
174
     1
175
     0
176
   256
177
   256
178
    40
  0
DIMSTYLE
  2
BIGT$4
 70
     0
  3

  4

  5
OPEN
  6

  7

 40
1.0
 41
2.2299999999999991
 42
0.5
 43
2.5
 44
1.0
 45
0.0
 46
0.0
 47
0.0
 48
0.01
140
2.7999999999999989
141
0.0
142
0.0
143
25.399999999999999
144
1.0
145
0.0
146
1.0
147
1.0
 71
     0
 72
     0
 73
     0
 74
     0
 75
     0
 76
     0
 77
     3
 78
     9
170
     0
171
     2
172
     1
173
     0
174
     0
175
     0
176
   256
177
   256
178
    40
  0
DIMSTYLE
  2
BIGT$SH
 70
     0
  3

  4

  5
OPEN
  6

  7

 40
1.0
 41
2.2299999999999991
 42
0.5
 43
7.0
 44
1.0
 45
0.0
 46
0.0
 47
0.0
 48
0.0
140
2.7999999999999989
141
0.0
142
0.0
143
25.399999999999999
144
1.0
145
0.0
146
1.0
147
1.0
 71
     0
 72
     0
 73
     0
 74
     0
 75
     0
 76
     0
 77
     3
 78
     9
170
     0
171
     2
172
     1
173
     0
174
     0
175
     0
176
   256
177
   256
178
    40
  0
DIMSTYLE
  2
BIGT$SF
 70
     0
  3

  4

  5
OPEN
  6

  7

 40
1.0
 41
2.2299999999999991
 42
0.5
 43
7.0
 44
1.0
 45
0.0
 46
0.0
 47
0.0
 48
0.0
140
2.7999999999999989
141
0.0
142
0.0
143
25.399999999999999
144
1.0
145
0.0
146
1.0
147
1.0
 71
     0
 72
     0
 73
     0
 74
     0
 75
     0
 76
     0
 77
     3
 78
     9
170
     0
171
     2
172
     1
173
     0
174
     0
175
     0
176
   256
177
   256
178
    40
  0
ENDTAB
  0
ENDSEC
  0
SECTION
  2
BLOCKS
  0
BLOCK
  8
0
  2
$MODEL_SPACE
 70
     0
 10
0.0
 20
0.0
 30
0.0
  3
$MODEL_SPACE
  1

  0
ENDBLK
  5
2070
  8
0
  0
BLOCK
 67
     1
  8
0
  2
$PAPER_SPACE
 70
     0
 10
0.0
 20
0.0
 30
0.0
  3
$PAPER_SPACE
  1

  0
ENDBLK
  5
206C
 67
     1
  8
0
  0
BLOCK
  8
0
  2
_OPEN
 70
     0
 10
0.0
 20
0.0
 30
0.0
  3
_OPEN
  1

  0
LINE
  5
595
  8
0
  6
BYBLOCK
 62
     0
 10
-1.0
 20
0.1666666666666666
 30
0.0
 11
0.0
 21
0.0
 31
0.0
  0
LINE
  5
596
  8
0
  6
BYBLOCK
 62
     0
 10
-1.0
 20
-0.1666666666666666
 30
0.0
 11
0.0
 21
0.0
 31
0.0
  0
LINE
  5
597
  8
0
  6
BYBLOCK
 62
     0
 10
0.0
 20
0.0
 30
0.0
 11
-1.0
 21
0.0
 31
0.0
  0
ENDBLK
  5
599
  8
0
  0
BLOCK
  8
0
  2
GENAXEH
 70
     0
 10
0.0
 20
0.0
 30
0.0
  3
GENAXEH
  1

  0
LINE
  5
1EC5
  8
0
 10
-1.0
 20
0.0
 30
0.0
 11
1.0
 21
0.0
 31
0.0
  0
ENDBLK
  5
1EC7
  8
0
  0
BLOCK
  8
0
  2
_ACMFILLEDHALF
 70
     0
 10
0.0
 20
0.0
 30
0.0
  3
_ACMFILLEDHALF
  1

  0
TRACE
  5
211E
  8
240
 62
     0
 10
-0.8
 20
0.0
 30
0.0
 11
-1.0
 21
0.166666666
 31
0.0
 12
0.0
 22
0.0
 32
0.0
 13
0.0
 23
0.0
 33
0.0
  0
LINE
  5
211F
  8
240
 62
     0
 10
-1.0
 20
0.0
 30
0.0
 11
-0.8
 21
0.0
 31
0.0
  0
ENDBLK
  5
211D
  8
0
  0
ENDSEC
  0
SECTION
  2
ENTITIES
  0
TEXT
  5
1B9A
  8
241
  6
CONTINUOUS
 10
-151.0
 20
41.999999999999979
 30
0.0
 40
5.0
  1
ST14W-EW15-110
  7
YOKO
 11
-151.0
 21
41.999999999999979
 31
0.0
 73
     1
  0
LINE
  5
1ED6
  8
250
  6
CONTINUOUS
 10
0.2999999999999545
 20
7.3499999999999499
 30
0.0
 11
10.99999999999994
 21
7.3499999999999472
 31
0.0
  0
LINE
  5
1ED7
  8
250
  6
CONTINUOUS
 10
9.9999999999999432
 20
5.1199999999999477
 30
0.0
 11
9.9999999999999396
 21
-5.1199999999999832
 31
0.0
  0
LINE
  5
1EE3
  8
250
  6
CONTINUOUS
 10
-151.0
 20
7.6499999999999053
 30
0.0
 11
-151.0
 21
28.999999999999979
 31
0.0
  0
LINE
  5
1EE4
  8
250
  6
CONTINUOUS
 10
0.0
 20
7.6499999999999053
 30
0.0
 11
0.0000000000000013
 21
28.999999999999979
 31
0.0
  0
LINE
  5
1EE5
  8
250
  6
CONTINUOUS
 10
-148.77000000000001
 20
27.999999999999979
 30
0.0
 11
-2.229999999999996
 21
27.999999999999979
 31
0.0
  0
TEXT
  5
1EE9
  8
250
  6
CONTINUOUS
 10
-79.571428571428569
 20
28.999999999999979
 30
0.0
 40
3.0
  1
151
1001
ACAD
1000
MTEXTBEGIN
1070
    73
1070
     1
1070
    44
1040
1.0
1070
    74
1070
     0
1000
MTEXTEND
  0
LINE
  5
1EEA
  8
250
  6
CONTINUOUS
 10
-2.229999999999996
 20
28.371666666666648
 30
0.0
 11
0.0000000000000013
 21
27.999999999999979
 31
0.0
  0
LINE
  5
1EEB
  8
250
  6
CONTINUOUS
 10
-2.229999999999996
 20
27.62833333333332
 30
0.0
 11
0.0000000000000013
 21
27.999999999999979
 31
0.0
  0
LINE
  5
1EEC
  8
250
  6
CONTINUOUS
 10
0.0000000000000013
 20
27.999999999999979
 30
0.0
 11
-2.229999999999996
 21
27.999999999999979
 31
0.0
  0
LINE
  5
1EED
  8
250
  6
CONTINUOUS
 10
-148.77000000000001
 20
27.62833333333332
 30
0.0
 11
-151.0
 21
27.999999999999979
 31
0.0
  0
LINE
  5
1EEE
  8
250
  6
CONTINUOUS
 10
-148.77000000000001
 20
28.371666666666648
 30
0.0
 11
-151.0
 21
27.999999999999979
 31
0.0
  0
LINE
  5
1EEF
  8
250
  6
CONTINUOUS
 10
-151.0
 20
27.999999999999979
 30
0.0
 11
-148.77000000000001
 21
27.999999999999979
 31
0.0
  0
TEXT
  5
1EFC
  8
250
  6
CONTINUOUS
 10
8.8903621976509708
 20
-13.94368179876011
 30
0.0
 40
3.0
  1
\U+2205
 50
90.0
1001
ACAD
1000
MTEXTBEGIN
1070
    73
1070
     1
1070
    44
1040
1.0
1070
    74
1070
     0
1000
MTEXTEND
  0
TEXT
  5
1EFD
  8
250
  6
CONTINUOUS
 10
8.671085751068345
 20
-11.26593131760462
 30
0.0
 40
3.0
  1
15ü`
 50
90.0
1001
ACAD
1000
MTEXTBEGIN
1070
    73
1070
     1
1070
    44
1040
1.0
1070
    74
1070
     0
1000
MTEXTEND
  0
TEXT
  5
1EFE
  8
250
  6
CONTINUOUS
 10
8.6710857510683468
 20
-1.9516456033189129
 30
0.0
 40
3.0
  1
\U+2205
 50
90.0
1001
ACAD
1000
MTEXTBEGIN
1070
    73
1070
     1
1070
    44
1040
1.0
1070
    74
1070
     0
1000
MTEXTEND
  0
TEXT
  5
1EFF
  8
250
  6
CONTINUOUS
 10
8.6710857510683468
 20
0.7626401109668004
 30
0.0
 40
3.0
  1
18
 50
90.0
1001
ACAD
1000
MTEXTBEGIN
1070
    73
1070
     1
1070
    44
1040
1.0
1070
    74
1070
     0
1000
MTEXTEND
  0
LINE
  5
1F00
  8
250
  6
CONTINUOUS
 10
9.6283333333332752
 20
5.1199999999999477
 30
0.0
 11
9.9999999999999432
 21
7.349999999999949
 31
0.0
  0
LINE
  5
1F01
  8
250
  6
CONTINUOUS
 10
10.371666666666609
 20
5.1199999999999477
 30
0.0
 11
9.9999999999999432
 21
7.349999999999949
 31
0.0
  0
LINE
  5
1F02
  8
250
  6
CONTINUOUS
 10
9.9999999999999432
 20
7.349999999999949
 30
0.0
 11
9.9999999999999432
 21
5.1199999999999477
 31
0.0
  0
LINE
  5
213D
  8
245
  6
CENTER2
 10
-0.5593645855633436
 20
-0.0000000000000284
 30
0.0
 11
-152.4822042816202
 21
-0.0000000000000284
 31
0.0
  0
LINE
  5
213E
  8
240
  6
CONTINUOUS
 10
-151.0
 20
-7.0000000000000853
 30
0.0
 11
-14.599999999989899
 21
-7.0000000000000258
 31
0.0
  0
LINE
  5
213F
  8
240
  6
CONTINUOUS
 10
-151.0
 20
7.000000000000143
 30
0.0
 11
-14.599999999989871
 21
6.9999999999999698
 31
0.0
  0
LINE
  5
2145
  8
240
  6
CONTINUOUS
 10
-151.0
 20
-7.0000000000000853
 30
0.0
 11
-151.0
 21
7.000000000000143
 31
0.0
  0
ARC
  5
21A9
  8
241
  6
CONTINUOUS
 10
-0.7700000000175176
 20
6.999999999999857
 30
0.0
 40
4.9999999999999938
 50
184.99406685358809
 51
196.26020470831031
  0
LINE
  5
21AA
  8
240
  6
CONTINUOUS
 10
-7.4999117810156974
 20
6.350000000513063
 30
0.0
 11
-2.9544980716010771
 21
6.9081066269455658
 31
0.0
  0
LINE
  5
21AB
  8
240
  6
CONTINUOUS
 10
-2.9544980715984641
 20
6.9081066269458882
 30
0.0
 11
-2.776783902551839
 21
6.9986565188107877
 31
0.0
1001
GRPNAME
1000
PASTMD01
  0
LINE
  5
21AC
  8
240
  6
CONTINUOUS
 10
-13.19999999998978
 20
5.5999999999999934
 30
0.0
 11
-14.599999999989871
 21
6.9999999999999698
 31
0.0
  0
LINE
  5
21AD
  8
241
  6
CONTINUOUS
 10
-31.999999999989821
 20
-7.0000000000000258
 30
0.0
 11
-31.999999999989821
 21
6.9999999999999698
 31
0.0
  0
LINE
  5
21AE
  8
241
  6
CONTINUOUS
 10
-36.999999999988262
 20
4.999999999999968
 30
0.0
 11
-36.999999999990159
 21
6.9999999999999698
 31
0.0
  0
LINE
  5
21AF
  8
240
  6
CONTINUOUS
 10
-0.1243526486506706
 20
4.771972929301481
 30
0.0
 11
-0.0002740930491707
 21
7.139532808751337
 31
0.0
1001
GRPNAME
1000
PASTMD01
  0
LINE
  5
21B1
  8
240
  6
CONTINUOUS
 10
-14.599999999989871
 20
-6.9999999999999991
 30
0.0
 11
-13.19999999998984
 21
-5.6000000000000787
 31
0.0
  0
LINE
  5
21B2
  8
242
  6
CONTINUOUS
 10
-27.999999999989821
 20
3.6055512754639638
 30
0.0
 11
-20.99999999998985
 21
-3.605551275464022
 31
0.0
  0
LINE
  5
21B3
  8
242
  6
CONTINUOUS
 10
-27.999999999989821
 20
-3.605551275464022
 30
0.0
 11
-20.99999999998985
 21
3.6055512754639638
 31
0.0
  0
LINE
  5
21B4
  8
241
  6
CONTINUOUS
 10
-27.999999999989821
 20
-3.605551275464022
 30
0.0
 11
-20.99999999998985
 21
-3.605551275464022
 31
0.0
  0
LINE
  5
21B5
  8
241
  6
CONTINUOUS
 10
-27.999999999989821
 20
3.6055512754639638
 30
0.0
 11
-20.99999999998985
 21
3.6055512754639638
 31
0.0
  0
ARC
  5
21B6
  8
241
  6
CONTINUOUS
 10
-21.999999999990411
 20
-0.0000000000000284
 30
0.0
 40
6.9999999999995151
 50
148.9972808661241
 51
211.0027191338757
  0
LINE
  5
21B7
  8
241
  6
CONTINUOUS
 10
-27.999999999989821
 20
-3.605551275464022
 30
0.0
 11
-27.999999999989821
 21
3.6055512754639638
 31
0.0
  0
LINE
  5
21B8
  8
241
  6
CONTINUOUS
 10
-34.99999999998974
 20
-4.9999999999999698
 30
0.0
 11
-34.999999999989761
 21
4.999999999999968
 31
0.0
  0
LINE
  5
21B9
  8
241
  6
CONTINUOUS
 10
-36.999999999989761
 20
-4.9999999999999973
 30
0.0
 11
-36.999999999991701
 21
-6.9999999999999991
 31
0.0
  0
LINE
  5
21BA
  8
241
  6
CONTINUOUS
 10
-36.999999999989761
 20
-4.9999999999999973
 30
0.0
 11
-34.99999999998974
 21
-4.9999999999999698
 31
0.0
  0
LINE
  5
21BB
  8
241
  6
CONTINUOUS
 10
-36.999999999988262
 20
4.999999999999968
 30
0.0
 11
-34.999999999989761
 21
4.999999999999968
 31
0.0
  0
ARC
  5
21BC
  8
241
  6
CONTINUOUS
 10
-26.999999999989249
 20
-0.0000000000000284
 30
0.0
 40
6.9999999999995151
 50
328.99728086612407
 51
31.002719133875839
  0
LINE
  5
21BD
  8
241
  6
CONTINUOUS
 10
-20.99999999998985
 20
-3.605551275464022
 30
0.0
 11
-20.99999999998985
 21
3.6055512754639638
 31
0.0
  0
LINE
  5
21BE
  8
240
  6
CONTINUOUS
 10
-1.9999999999898519
 20
2.6927524258691551
 30
0.0
 11
-1.390605107523099
 21
2.2970067554456479
 31
0.0
1001
GRPNAME
1000
PASTMD01
  0
ARC
  5
21BF
  8
241
  6
CONTINUOUS
 10
-0.7011708088870701
 20
7.0169999999999648
 30
0.0
 40
4.9999999999999867
 50
196.46323260246021
 51
254.94383172846409
  0
LINE
  5
21C0
  8
240
  6
CONTINUOUS
 10
-1.9999999999898519
 20
-3.6500000000001762
 30
0.0
 11
-3.1258330249096091
 21
-5.600000000000021
 31
0.0
  0
LINE
  5
21C1
  8
245
  6
CENTER2
 10
-8.4999999999898534
 20
-1.7438336224979021
 30
0.0
 11
-8.4999999999898534
 21
1.7935465435409119
 31
0.0
  0
LINE
  5
21C2
  8
240
  6
CONTINUOUS
 10
-6.7892304845312008
 20
-6.3000000000000682
 30
0.0
 11
-10.21076951544844
 21
-6.3000000000000682
 31
0.0
1001
GRPNAME
1000
00000001
  0
LINE
  5
21C3
  8
241
  6
CONTINUOUS
 10
-12.44617080888704
 20
-5.600000000000021
 30
0.0
 11
-4.5461708088870667
 21
-5.600000000000021
 31
0.0
  0
LINE
  5
21C4
  8
240
  6
CONTINUOUS
 10
-12.44999999998984
 20
-5.7000000000000446
 30
0.0
 11
-10.21076951544844
 21
-6.3000000000000682
 31
0.0
1001
GRPNAME
1000
00000001
  0
LINE
  5
21C5
  8
240
  6
CONTINUOUS
 10
-12.44617080888704
 20
-5.7000000000000446
 30
0.0
 11
-12.44617080888704
 21
-5.600000000000021
 31
0.0
1001
GRPNAME
1000
00000001
  0
LINE
  5
21C6
  8
240
  6
CONTINUOUS
 10
-13.19999999998978
 20
-5.600000000000021
 30
0.0
 11
-12.44617080888704
 21
-5.600000000000021
 31
0.0
  0
LINE
  5
21C7
  8
240
  6
CONTINUOUS
 10
-4.549999999989863
 20
-5.7000000000000446
 30
0.0
 11
-6.7892304845312008
 21
-6.3000000000000682
 31
0.0
1001
GRPNAME
1000
00000001
  0
LINE
  5
21C8
  8
240
  6
CONTINUOUS
 10
-4.5461708088870667
 20
-5.7000000000000446
 30
0.0
 11
-4.5461708088870667
 21
-5.600000000000021
 31
0.0
1001
GRPNAME
1000
00000001
  0
LINE
  5
21C9
  8
240
  6
CONTINUOUS
 10
-4.5461708088870667
 20
-5.600000000000021
 30
0.0
 11
-3.1258330249096091
 21
-5.600000000000021
 31
0.0
  0
CIRCLE
  5
21CA
  8
242
  6
CONTINUOUS
 10
-8.4999999999898534
 20
-0.0000000000000284
 30
0.0
 40
1.0
  0
CIRCLE
  5
21CB
  8
241
  6
CONTINUOUS
 10
-8.4999999999898534
 20
-0.0000000000000284
 30
0.0
 40
0.8
  0
LINE
  5
21CC
  8
241
  6
CONTINUOUS
 10
-12.270000000017509
 20
5.5999999999999934
 30
0.0
 11
-5.4961797765533307
 21
5.5999999999999934
 31
0.0
  0
LINE
  5
21CD
  8
240
  6
CONTINUOUS
 10
-12.270000000017509
 20
6.350000000513063
 30
0.0
 11
-7.4999117810156974
 21
6.350000000513063
 31
0.0
  0
LINE
  5
21CF
  8
240
  6
CONTINUOUS
 10
-12.270000000017509
 20
5.5999999999999934
 30
0.0
 11
-12.270000000017509
 21
6.350000000513063
 31
0.0
  0
LINE
  5
21D0
  8
240
  6
CONTINUOUS
 10
-13.19999999998978
 20
5.5999999999999934
 30
0.0
 11
-12.270000000017509
 21
5.5999999999999934
 31
0.0
  0
ARC
  5
2254
  8
241
  6
CONTINUOUS
 10
-3.0521494092980368
 20
4.0914442171533381
 30
0.0
 40
0.6000000000000343
 50
216.9999999922783
 51
236.999999992282
1001
GRPNAME
1000
PASTMD01
  0
ARC
  5
2255
  8
241
  6
CONTINUOUS
 10
-4.798392080989486
 20
5.7441304554651236
 30
0.0
 40
0.2000000000000268
 50
117.00000008657
 51
217.0000000865432
1001
GRPNAME
1000
PASTMD01
  0
LINE
  5
2256
  8
241
  6
CONTINUOUS
 10
-4.9581191829989537
 20
5.623767450834662
 30
0.0
 11
-3.5313307153264462
 21
3.7303552032621199
 31
0.0
1001
GRPNAME
1000
PASTMD01
  0
LINE
  5
2257
  8
240
  6
CONTINUOUS
 10
-1.9999999999898519
 20
-3.6500000000001762
 30
0.0
 11
-1.9999999999898519
 21
2.6927524258687452
 31
0.0
  0
LINE
  5
2258
  8
240
  6
CONTINUOUS
 10
-1.097576329829876
 20
2.3865946433364491
 30
0.0
 11
-0.1712274574319675
 21
4.56893582595373
 31
0.0
1001
GRPNAME
1000
PASTMD01
  0
ARC
  5
2259
  8
240
  6
CONTINUOUS
 10
-1.281677300520383
 20
2.464740869034328
 30
0.0
 40
0.2000000000000243
 50
236.99999992028009
 51
336.99999992030268
1001
GRPNAME
1000
PASTMD01
  0
ARC
  5
225A
  8
240
  6
CONTINUOUS
 10
-0.7235303695034357
 20
4.803374503047249
 30
0.0
 40
0.6000000000000262
 50
336.99999994257922
 51
356.99999994257479
1001
GRPNAME
1000
PASTMD01
  0
LINE
  5
225B
  8
240
  6
CONTINUOUS
 10
-2.5775112087516998
 20
7.0595802952834381
 30
0.0
 11
-0.2243738686811123
 21
7.348509230328176
 31
0.0
1001
GRPNAME
1000
PASTMD01
  0
ARC
  5
225C
  8
240
  6
CONTINUOUS
 10
-2.5043896027086392
 20
6.4640526042986419
 30
0.0
 40
0.5999999999999967
 50
97.000000064267866
 51
117.00000006426539
1001
GRPNAME
1000
PASTMD01
  0
ARC
  5
225D
  8
240
  6
CONTINUOUS
 10
-0.2000000000000735
 20
7.1499999999998911
 30
0.0
 40
0.2000000000000704
 50
357.0000000642691
 51
97.000000064267866
1001
GRPNAME
1000
PASTMD01
  0
LINE
  5
2266
  8
241
  6
CONTINUOUS
 10
-2.9544980715984641
 20
6.9081066269458882
 30
0.0
 11
-4.8891901809373222
 21
5.9223317603028649
 31
0.0
  0
LINE
  5
2267
  8
241
  6
CONTINUOUS
 10
-1.9999999999898519
 20
2.6927524258687452
 30
0.0
 11
-3.3789328303070651
 21
3.58824187638605
 31
0.0
  0
LINE
  5
22CD
  8
250
  6
CONTINUOUS
 10
-125.983124387801
 20
-21.000000000000028
 30
0.0
 11
-145.55455295922951
 21
-21.000000000000028
 31
0.0
1001
ITEMNAME
1000
LNSP2
  0
TEXT
  5
22CE
  8
250
  6
CONTINUOUS
 10
-142.98312438780101
 20
-20.000000000000028
 30
0.0
 40
3.0
  1
ST14W
  7
YOKO
1001
ITEMNAME
1000
LNSP3
1001
ACAD
1000
MTEXTBEGIN
1070
    73
1070
     1
1070
    44
1040
1.0
1070
    74
1070
     0
1000
MTEXTEND
  0
LINE
  5
22CF
  8
250
  6
CONTINUOUS
 10
-119.01522061914621
 20
-8.9312366504393879
 30
0.0
 11
-125.983124387801
 21
-21.000000000000028
 31
0.0
1001
ACAD
1000
DSTYLE
1002
{
1070
     5
1000
OPEN
1070
    78
1070
     8
1070
   140
1040
3.0
1002
}
  0
LINE
  5
22D0
  8
250
  6
CONTINUOUS
 10
-118.693347844073
 20
-9.1170699837727227
 30
0.0
 11
-117.9002206191462
 21
-7.0000000000000284
 31
0.0
  0
LINE
  5
22D1
  8
250
  6
CONTINUOUS
 10
-117.9002206191462
 20
-7.0000000000000284
 30
0.0
 11
-119.01522061914621
 21
-8.9312366504393879
 31
0.0
  0
LINE
  5
22D2
  8
247
  6
CONTINUOUS
 10
-144.25000000007
 20
-5.0000000000000284
 30
0.0
 11
-137.55769230803
 21
-5.0000000000000284
 31
0.0
  0
ARC
  5
22D3
  8
247
  6
CONTINUOUS
 10
-144.25000000007
 20
-3.2500000000700591
 30
0.0
 40
1.7499999999299991
 50
90.0
 51
270.0
  0
ARC
  5
22D4
  8
247
  6
CONTINUOUS
 10
-137.55769230803
 20
-3.2500000000700591
 30
0.0
 40
1.7499999999299991
 50
270.0
 51
90.0
  0
LINE
  5
22D5
  8
247
  6
CONTINUOUS
 10
-143.38461538472001
 20
-1.5000000001400899
 30
0.0
 11
-144.24485154196199
 21
-4.5000000000200373
 31
0.0
  0
LINE
  5
22D6
  8
247
  6
CONTINUOUS
 10
-142.48498381833579
 20
-2.923076923159925
 30
0.0
 11
-143.79267612597579
 21
-2.923076923159925
 31
0.0
  0
ARC
  5
22D7
  8
247
  6
CONTINUOUS
 10
-142.14514381608981
 20
-2.0495986677028948
 30
0.0
 40
0.5538165441895349
 50
342.9978896752952
 51
82.924166218513577
  0
ARC
  5
22D8
  8
247
  6
CONTINUOUS
 10
-142.56687832302879
 20
-1.936033044465858
 30
0.0
 40
0.9904354236226808
 50
274.74293685219902
 51
343.84922627326659
1001
GENIUS_GENOBJ-N-FIL_13
1002
{
1000
OWNER
1000
GEN
1002
}
1001
GENIUS_GENODEF_13
1002
{
1000
HIER
1070
     0
1002
}
1002
{
1000
MANEDIT
1070
     0
1002
}
1002
{
1000
NOSEL
1070
     0
1002
}
1002
{
1000
BEHIND
1070
     0
1002
}
1002
{
1000
OTHER
1070
     0
1002
}
1002
{
1000
REACTOR
1002
}
  0
LINE
  5
22D9
  8
247
  6
CONTINUOUS
 10
-142.937159234322
 20
-4.5000000000200373
 30
0.0
 11
-144.24485154196199
 21
-4.5000000000200373
 31
0.0
  0
LINE
  5
22DA
  8
247
  6
CONTINUOUS
 10
-143.38461538472001
 20
-1.5000000001400899
 30
0.0
 11
-142.0769230770799
 21
-1.5000000001400899
 31
0.0
  0
ARC
  5
22DB
  8
247
  6
CONTINUOUS
 10
-142.56091963654691
 20
-3.4820242326655091
 30
0.0
 40
0.5640818586791229
 50
335.9909416525216
 51
82.263443459069066
  0
ARC
  5
22DC
  8
247
  6
CONTINUOUS
 10
-143.03826268534701
 20
-3.4874290391865368
 30
0.0
 40
1.0176059446230981
 50
275.70198516425648
 51
347.27733843682222
1001
GENIUS_GENOBJ-N-FIL_13
1002
{
1000
OWNER
1000
GEN
1002
}
1001
GENIUS_GENODEF_13
1002
{
1000
HIER
1070
     0
1002
}
1002
{
1000
MANEDIT
1070
     0
1002
}
1002
{
1000
NOSEL
1070
     0
1002
}
1002
{
1000
BEHIND
1070
     0
1002
}
1002
{
1000
OTHER
1070
     0
1002
}
1002
{
1000
REACTOR
1002
}
  0
LINE
  5
22DD
  8
247
  6
CONTINUOUS
 10
-141.283313080542
 20
-4.5000000000200373
 30
0.0
 11
-140.42307692329999
 21
-1.5000000001400899
 31
0.0
  0
LINE
  5
22DE
  8
247
  6
CONTINUOUS
 10
-138.00000000032
 20
-1.5000000001400899
 30
0.0
 11
-138.5657366194566
 21
-1.5000000001400899
 31
0.0
  0
LINE
  5
22DF
  8
247
  6
CONTINUOUS
 10
-139.46153846179999
 20
-4.5000000000200373
 30
0.0
 11
-138.84615384643999
 21
-4.5000000000200373
 31
0.0
  0
ARC
  5
22E0
  8
247
  6
CONTINUOUS
 10
-137.70879120912281
 20
-3.583285135973397
 30
0.0
 40
2.2526500823422122
 50
112.3594881415293
 51
164.9932485428464
  0
ARC
  5
22E1
  8
247
  6
CONTINUOUS
 10
-138.3740694792132
 20
-2.3083126551946691
 30
0.0
 40
0.8906723995727782
 50
4.9945893190752537
 51
65.166328957300522
1001
GENIUS_GENOBJ-N-FIL_13
1002
{
1000
OWNER
1000
GEN
1002
}
1001
GENIUS_GENODEF_13
1002
{
1000
HIER
1070
     0
1002
}
1002
{
1000
MANEDIT
1070
     0
1002
}
1002
{
1000
NOSEL
1070
     0
1002
}
1002
{
1000
BEHIND
1070
     0
1002
}
1002
{
1000
OTHER
1070
     0
1002
}
1002
{
1000
REACTOR
1002
}
  0
ARC
  5
22E2
  8
247
  6
CONTINUOUS
 10
-139.22645888621261
 20
-3.1601458886678131
 30
0.0
 40
1.392781735586712
 50
285.84609655578072
 51
352.32513700416251
  0
ARC
  5
22E3
  8
247
  6
CONTINUOUS
 10
-138.6422127258403
 20
-3.459243431527312
 30
0.0
 40
1.324563662670287
 50
159.71360167048991
 51
231.78874565641499
1001
GENIUS_GENOBJ-N-FIL_13
1002
{
1000
OWNER
1000
GEN
1002
}
1001
GENIUS_GENODEF_13
1002
{
1000
HIER
1070
     0
1002
}
1002
{
1000
MANEDIT
1070
     0
1002
}
1002
{
1000
NOSEL
1070
     0
1002
}
1002
{
1000
BEHIND
1070
     0
1002
}
1002
{
1000
OTHER
1070
     0
1002
}
1002
{
1000
REACTOR
1002
}
  0
LINE
  5
22E4
  8
247
  6
CONTINUOUS
 10
-138.53846153875989
 20
-3.3461538462200049
 30
0.0
 11
-137.84615384648001
 21
-3.3461538462200049
 31
0.0
  0
LINE
  5
22E5
  8
247
  6
CONTINUOUS
 10
-144.25000000007
 20
-1.5000000001400899
 30
0.0
 11
-143.57692307702001
 21
-1.5000000001400899
 31
0.0
  0
LINE
  5
22E6
  8
250
  6
CONTINUOUS
 10
-119.33709339421939
 20
-8.745403317106053
 30
0.0
 11
-117.9002206191462
 21
-7.0000000000000284
 31
0.0
  0
VIEWPORT
  5
22
 67
     1
  8
0
 10
261.51769911504419
 20
148.5
 30
0.0
 40
523.0353982300885
 41
297.0
 68
     1
 69
     1
1001
ACAD
1000
MVIEW
1002
{
1070
    16
1010
0.0
1020
0.0
1030
0.0
1010
0.0
1020
0.0
1030
1.0
1040
0.0
1040
297.0
1040
261.51769911504419
1040
148.5
1040
50.0
1040
0.0
1040
0.0
1070
     0
1070
   100
1070
     1
1070
     1
1070
     0
1070
     0
1070
     0
1070
     0
1040
0.0
1040
0.0
1040
0.0
1040
1.0
1040
1.0
1040
10.0
1040
10.0
1070
     0
1002
{
1002
}
1002
}
1001
GENIUS_GENOBJ-N-SDF_13
1002
{
1000
OWNER
1000
GEN
1002
}
1001
GENIUS_GENODEF_13
1002
{
1000
HIER
1070
     0
1002
}
1002
{
1000
MANEDIT
1070
     0
1002
}
1002
{
1000
NOSEL
1070
     0
1002
}
1002
{
1000
BEHIND
1070
     0
1002
}
1002
{
1000
OTHER
1070
     0
1002
}
1002
{
1000
REACTOR
1002
}
1001
GENIUS_GENSCREG_15
1000
PF
1040
1.0
1000
DF
1040
1.0
1000
MIN
1011
0.0
1021
2.0370359796545262E+090
1031
0.0
1021
0.0
1031
0.0
1000
MAX
1011
523.0353982300885
1021
2.0370359796545262E+090
1031
0.0
1021
297.0
1031
0.0
1000
FLAGS
1070
     4
  0
ENDSEC
  0
EOF
