  0
SECTION
  2
HEADER
  9
$ACADVER
  1
AC1009
  9
$INSBASE
 10
0.0
 20
0.0
 30
0.0
  9
$EXTMIN
 10
-215.0
 20
-7.461041832269415
 30
-0.0000000349181948
  9
$EXTMAX
 10
15.00567813263887
 20
47.00633348873037
 30
0.0000000814935747
  9
$LIMMIN
 10
0.0
 20
0.0
  9
$LIMMAX
 10
297.0
 20
210.0
  9
$ORTHOMODE
 70
     1
  9
$REGENMODE
 70
     1
  9
$FILLMODE
 70
     1
  9
$QTEXTMODE
 70
     0
  9
$MIRRTEXT
 70
     1
  9
$DRAGMODE
 70
     2
  9
$LTSCALE
 40
10.0
  9
$OSMODE
 70
  2597
  9
$ATTMODE
 70
     1
  9
$TEXTSIZE
 40
3.0
  9
$TRACEWID
 40
1.0
  9
$TEXTSTYLE
  7
YOKO
  9
$CLAYER
  8
240
  9
$CELTYPE
  6
BYLAYER
  9
$CECOLOR
 62
   256
  9
$DIMSCALE
 40
1.0
  9
$DIMASZ
 40
2.2299999999999991
  9
$DIMEXO
 40
0.5
  9
$DIMDLI
 40
2.5
  9
$DIMRND
 40
0.0
  9
$DIMDLE
 40
0.0
  9
$DIMEXE
 40
1.0
  9
$DIMTP
 40
0.0
  9
$DIMTM
 40
0.0
  9
$DIMTXT
 40
3.0
  9
$DIMCEN
 40
0.0
  9
$DIMTSZ
 40
0.0
  9
$DIMTOL
 70
     0
  9
$DIMLIM
 70
     0
  9
$DIMTIH
 70
     0
  9
$DIMTOH
 70
     0
  9
$DIMSE1
 70
     0
  9
$DIMSE2
 70
     0
  9
$DIMTAD
 70
     3
  9
$DIMZIN
 70
     8
  9
$DIMBLK
  1
OPEN
  9
$DIMASO
 70
     1
  9
$DIMSHO
 70
     1
  9
$DIMPOST
  1

  9
$DIMAPOST
  1

  9
$DIMALT
 70
     0
  9
$DIMALTD
 70
     2
  9
$DIMALTF
 40
25.399999999999999
  9
$DIMLFAC
 40
1.0
  9
$DIMTOFL
 70
     1
  9
$DIMTVP
 40
0.0
  9
$DIMTIX
 70
     0
  9
$DIMSOXD
 70
     0
  9
$DIMSAH
 70
     0
  9
$DIMBLK1
  1

  9
$DIMBLK2
  1

  9
$DIMSTYLE
  2
BIGT
  9
$DIMCLRD
 70
   256
  9
$DIMCLRE
 70
   256
  9
$DIMCLRT
 70
    40
  9
$DIMTFAC
 40
1.0
  9
$DIMGAP
 40
1.0
  9
$LUNITS
 70
     2
  9
$LUPREC
 70
     3
  9
$SKETCHINC
 40
1.0
  9
$FILLETRAD
 40
0.4
  9
$AUNITS
 70
     0
  9
$AUPREC
 70
     3
  9
$MENU
  1
.
  9
$ELEVATION
 40
0.0
  9
$PELEVATION
 40
0.0
  9
$THICKNESS
 40
0.0
  9
$LIMCHECK
 70
     0
  9
$BLIPMODE
 70
     0
  9
$CHAMFERA
 40
10.0
  9
$CHAMFERB
 40
10.0
  9
$SKPOLY
 70
     0
  9
$TDCREATE
 40
2452196.467881945
  9
$TDUPDATE
 40
2453601.715906343
  9
$TDINDWG
 40
0.0266784259
  9
$TDUSRTIMER
 40
0.0266784259
  9
$USRTIMER
 70
     1
  9
$ANGBASE
 50
0.0
  9
$ANGDIR
 70
     0
  9
$PDMODE
 70
    35
  9
$PDSIZE
 40
2.0
  9
$PLINEWID
 40
0.0
  9
$COORDS
 70
     0
  9
$SPLFRAME
 70
     0
  9
$SPLINETYPE
 70
     6
  9
$SPLINESEGS
 70
     8
  9
$ATTDIA
 70
     1
  9
$ATTREQ
 70
     1
  9
$HANDLING
 70
     1
  9
$HANDSEED
  5
1C29
  9
$SURFTAB1
 70
     6
  9
$SURFTAB2
 70
     6
  9
$SURFTYPE
 70
     6
  9
$SURFU
 70
     6
  9
$SURFV
 70
     6
  9
$UCSNAME
  2

  9
$UCSORG
 10
0.0
 20
0.0
 30
0.0
  9
$UCSXDIR
 10
1.0
 20
0.0
 30
0.0
  9
$UCSYDIR
 10
0.0
 20
1.0
 30
0.0
  9
$PUCSNAME
  2

  9
$PUCSORG
 10
0.0
 20
0.0
 30
0.0
  9
$PUCSXDIR
 10
1.0
 20
0.0
 30
0.0
  9
$PUCSYDIR
 10
0.0
 20
1.0
 30
0.0
  9
$USERI1
 70
     1
  9
$USERI2
 70
     0
  9
$USERI3
 70
     0
  9
$USERI4
 70
     0
  9
$USERI5
 70
     0
  9
$USERR1
 40
0.0
  9
$USERR2
 40
0.0
  9
$USERR3
 40
0.0
  9
$USERR4
 40
0.0
  9
$USERR5
 40
0.0
  9
$WORLDVIEW
 70
     1
  9
$SHADEDGE
 70
     3
  9
$SHADEDIF
 70
    70
  9
$TILEMODE
 70
     1
  9
$MAXACTVP
 70
    16
  9
$PLIMCHECK
 70
     0
  9
$PEXTMIN
 10
1.0000000000000000E+020
 20
1.0000000000000000E+020
 30
1.0000000000000000E+020
  9
$PEXTMAX
 10
-1.0000000000000000E+020
 20
-1.0000000000000000E+020
 30
-1.0000000000000000E+020
  9
$PLIMMIN
 10
0.0
 20
0.0
  9
$PLIMMAX
 10
420.0
 20
297.0
  9
$UNITMODE
 70
     0
  9
$VISRETAIN
 70
     0
  9
$PLINEGEN
 70
     0
  9
$PSLTSCALE
 70
     1
  0
ENDSEC
  0
SECTION
  2
TABLES
  0
TABLE
  2
VPORT
 70
    68
  0
VPORT
  2
*ACTIVE
 70
     0
 10
0.0
 20
0.0
 11
1.0
 21
1.0
 12
-72.639469143427789
 22
32.340091589751722
 13
0.0
 23
0.0
 14
7.0
 24
7.0
 15
7.0
 25
7.0
 16
0.0
 26
0.0
 36
1.0
 17
0.0
 27
0.0
 37
0.0
 40
208.83583848228091
 41
1.4630303030303029
 42
50.0
 43
0.0
 44
0.0
 50
0.0
 51
0.0
 71
     0
 72
  2000
 73
     1
 74
     0
 75
     0
 76
     0
 77
     0
 78
     0
  0
ENDTAB
  0
TABLE
  2
LTYPE
 70
    19
  0
LTYPE
  2
CONTINUOUS
 70
     0
  3
Solid line
 72
    65
 73
     0
 40
0.0
  0
LTYPE
  2
CENTER2
 70
     0
  3
___ _ ___ _ ___ _ ___ _ ___ _ ___ _ ___ _ ___ _
 72
    65
 73
     4
 40
1.125
 49
0.75
 49
-0.125
 49
0.125
 49
-0.125
  0
LTYPE
  2
PHANTOM2
 70
     0
  3
___ _ _ ___ _ _ ___ _ _ ___ _ _ ___ _ _ ___ _ _
 72
    65
 73
     6
 40
1.25
 49
0.625
 49
-0.125
 49
0.125
 49
-0.125
 49
0.125
 49
-0.125
  0
LTYPE
  2
HIDDEN
 70
     0
  3
Hidden __ __ __ __ __ __ __ __ __ __ __ __ __ _
 72
    65
 73
     2
 40
9.5249999999999986
 49
6.3499999999999979
 49
-3.174999999999998
  0
LTYPE
  2
CENTER
 70
     0
  3
Center ____ _ ____ _ ____ _ ____ _ ____ _ ____
 72
    65
 73
     4
 40
50.799999999999997
 49
31.75
 49
-6.3499999999999979
 49
6.3499999999999979
 49
-6.3499999999999979
  0
LTYPE
  2
AMCONSTR
 70
     0
  3
_______________________
 72
    65
 73
     2
 40
9999.0
 49
9999.0
 49
0.0
  0
LTYPE
  2
HIDDEN2
 70
     0
  3
Hidden (.5x) _ _ _ _ _ _ _ _ _ _ _ _ _ _ _ _ _
 72
    65
 73
     2
 40
0.1875
 49
0.125
 49
-0.0625
  0
LTYPE
  2
AMZIGZAG2
 70
     0
  3
/\/-/\/-/\/-/\/-/\/-/\/
 72
    65
 73
     2
 40
0.4401
 49
0.0001
 49
-0.4400000000000001
  0
LTYPE
  2
ACANSTGB
 70
     0
  3
__ . . __ . .
 72
    65
 73
     6
 40
0.35433070866
 49
0.15748031496
 49
-0.03937007874
 49
0.03937007874
 49
-0.03937007874
 49
0.03937007874
 49
-0.03937007874
  0
LTYPE
  2
ACANSTGL
 70
     0
  3
_ _ _ _ _
 72
    65
 73
     2
 40
0.11811023622
 49
0.07874015748
 49
-0.03937007874
  0
ENDTAB
  0
TABLE
  2
LAYER
 70
     9
  0
LAYER
  2
0
 70
     0
 62
     7
  6
CONTINUOUS
  0
LAYER
  2
240
 70
     0
 62
     4
  6
CONTINUOUS
  0
LAYER
  2
241
 70
     0
 62
   211
  6
CONTINUOUS
  0
LAYER
  2
245
 70
     0
 62
     2
  6
CENTER2
  0
LAYER
  2
246
 70
     0
 62
     3
  6
PHANTOM2
  0
LAYER
  2
247
 70
     0
 62
    60
  6
CONTINUOUS
  0
LAYER
  2
250
 70
     0
 62
     3
  6
CONTINUOUS
  0
LAYER
  2
DEFPOINTS
 70
     0
 62
     7
  6
CONTINUOUS
  0
ENDTAB
  0
TABLE
  2
STYLE
 70
     7
  0
STYLE
  2
STANDARD
 70
     0
 40
0.0
 41
1.0
 50
0.0
 71
     0
 42
3.0
  3
romans.shx
  4
BIGFONT.SHX
  0
STYLE
  2
YOKO
 70
     0
 40
0.0
 41
1.0
 50
0.0
 71
     0
 42
3.0
  3
romans.shx
  4
extfont.shx
  0
STYLE
  2

 70
     1
 40
0.0
 41
1.0
 50
0.0
 71
     0
 42
3.0
  3
ltypeshp.shx
  4

  0
STYLE
  2
ACANSTS
 70
     0
 40
1.0
 41
1.0
 50
0.0
 71
     0
 42
3.0
  3
romans.shx
  4
extfont.shx
  0
STYLE
  2
ACANSGDT
 70
     0
 40
0.0
 41
1.0
 50
0.0
 71
     0
 42
3.0
  3
amgdtans.shx
  4

  0
ENDTAB
  0
TABLE
  2
VIEW
 70
     0
  0
ENDTAB
  0
TABLE
  2
UCS
 70
     0
  0
ENDTAB
  0
TABLE
  2
APPID
 70
    20
  0
APPID
  2
ACAD
 70
     0
  0
APPID
  2
GLOBAL
 70
     0
  0
APPID
  2
DETAIL
 70
     0
  0
APPID
  2
GRPNAME
 70
     0
  0
APPID
  2
GPARA
 70
     0
  0
APPID
  2
HATCH_TYPE
 70
     0
  0
APPID
  2
HATCH_DISPLAY
 70
     0
  0
APPID
  2
HATCH_DISTANCE
 70
     0
  0
APPID
  2
ITEMNAME
 70
     0
  0
APPID
  2
GENIUS_GENODEF_13
 70
     0
  0
APPID
  2
GENIUS_GENOBJ-N-FIL_13
 70
     0
  0
APPID
  2
MCAD_NO_VIS
 70
     0
  0
APPID
  2
ACAD_TEMP_GRAPHIC
 70
     0
  0
APPID
  2
AD_DRAW
 70
     0
  0
APPID
  2
ACATTRIBSERVICES
 70
     0
  0
APPID
  2
DESIGNERASSEMBLIES
 70
     0
  0
APPID
  2
ACADM_DIM_EDIT
 70
     0
  0
APPID
  2
AMDT_DM_ADJ
 70
     0
  0
APPID
  2
GENIUS_GENSCREG_15
 70
     0
  0
APPID
  2
GENIUS_GENOBJ-N-SDF_13
 70
     0
  0
ENDTAB
  0
TABLE
  2
DIMSTYLE
 70
    15
  0
DIMSTYLE
  2
STANDARD
 70
     0
  3

  4

  5

  6

  7

 40
1.0
 41
2.0
 42
2.0
 43
3.75
 44
2.0
 45
0.0
 46
0.0
 47
0.0
 48
0.0
140
4.0
141
0.09
142
0.0
143
25.399999999999999
144
1.0
145
0.0
146
1.0
147
1.0
 71
     0
 72
     0
 73
     1
 74
     1
 75
     0
 76
     0
 77
     0
 78
     8
170
     0
171
     2
172
     0
173
     1
174
     0
175
     0
176
   256
177
   256
178
   256
  0
DIMSTYLE
  2
BIGT
 70
     0
  3

  4

  5

  6

  7

 40
1.0
 41
2.2299999999999991
 42
0.5
 43
2.5
 44
1.0
 45
0.0
 46
0.0
 47
0.0
 48
0.0
140
3.5
141
0.0
142
0.0
143
25.399999999999999
144
1.0
145
0.0
146
1.0
147
1.0
 71
     0
 72
     0
 73
     0
 74
     0
 75
     0
 76
     0
 77
     3
 78
     9
170
     0
171
     2
172
     1
173
     0
174
     0
175
     0
176
   256
177
   256
178
    40
  0
DIMSTYLE
  2
AM_ANSI
 70
     0
  3

  4
mm
  5

  6

  7

 40
1.0
 41
0.1
 42
0.05
 43
0.5
 44
0.1
 45
0.0
 46
0.0
 47
0.1
 48
0.1
140
0.12
141
0.0
142
0.0
143
25.399999999999999
144
1.0
145
0.0
146
0.71
147
0.06
 71
     0
 72
     0
 73
     1
 74
     1
 75
     0
 76
     0
 77
     0
 78
     7
170
     0
171
     2
172
     0
173
     0
174
     0
175
     0
176
   256
177
   256
178
     2
  0
DIMSTYLE
  2
AM_ANSI$3
 70
     0
  3

  4
mm
  5

  6

  7

 40
1.0
 41
0.1
 42
0.05
 43
0.5
 44
0.1
 45
0.0
 46
0.0
 47
0.1
 48
0.1
140
0.12
141
0.0
142
0.0
143
25.399999999999999
144
1.0
145
0.0
146
0.71
147
0.06
 71
     0
 72
     0
 73
     1
 74
     1
 75
     0
 76
     0
 77
     0
 78
     7
170
     0
171
     2
172
     0
173
     0
174
     0
175
     0
176
   256
177
   256
178
     2
  0
DIMSTYLE
  2
AM_ANSI$4
 70
     0
  3

  4
mm
  5

  6

  7

 40
1.0
 41
0.1
 42
0.05
 43
0.5
 44
0.1
 45
0.0
 46
0.0
 47
0.1
 48
0.1
140
0.12
141
0.0
142
0.0
143
25.399999999999999
144
1.0
145
0.0
146
0.71
147
0.06
 71
     0
 72
     0
 73
     1
 74
     1
 75
     0
 76
     0
 77
     0
 78
     7
170
     0
171
     2
172
     0
173
     0
174
     0
175
     0
176
   256
177
   256
178
     2
  0
DIMSTYLE
  2
AM_ANSI$7
 70
     0
  3

  4
mm
  5

  6

  7

 40
1.0
 41
0.1
 42
0.05
 43
0.5
 44
0.1
 45
0.0
 46
0.0
 47
0.1
 48
0.1
140
0.24
141
0.0
142
0.0
143
25.399999999999999
144
1.0
145
0.0
146
0.71
147
0.06
 71
     0
 72
     0
 73
     1
 74
     1
 75
     0
 76
     0
 77
     0
 78
     7
170
     0
171
     2
172
     0
173
     0
174
     0
175
     0
176
   256
177
   256
178
     2
  0
DIMSTYLE
  2
AM_ANSI$SF
 70
     0
  3

  4
mm
  5

  6

  7

 40
1.0
 41
0.1
 42
0.05
 43
0.5
 44
0.1
 45
0.0
 46
0.0
 47
0.1
 48
0.1
140
0.12
141
0.0
142
0.0
143
25.399999999999999
144
1.0
145
0.0
146
0.71
147
0.06
 71
     0
 72
     0
 73
     1
 74
     1
 75
     1
 76
     1
 77
     0
 78
     7
170
     0
171
     2
172
     0
173
     0
174
     0
175
     0
176
   256
177
   256
178
     2
  0
DIMSTYLE
  2
AM_ANSI$SH
 70
     0
  3

  4
mm
  5

  6
GENAXEH
  7

 40
1.0
 41
0.1
 42
0.05
 43
0.5
 44
0.1
 45
0.0
 46
0.0
 47
0.1
 48
0.1
140
0.12
141
0.0
142
0.0
143
25.399999999999999
144
1.0
145
0.0
146
0.71
147
0.06
 71
     0
 72
     0
 73
     1
 74
     1
 75
     1
 76
     1
 77
     0
 78
     7
170
     0
171
     2
172
     0
173
     1
174
     0
175
     0
176
   256
177
   256
178
     2
  0
ENDTAB
  0
ENDSEC
  0
SECTION
  2
BLOCKS
  0
BLOCK
  8
0
  2
$MODEL_SPACE
 70
     0
 10
0.0
 20
0.0
 30
0.0
  3
$MODEL_SPACE
  1

  0
ENDBLK
  5
183F
  8
0
  0
BLOCK
 67
     1
  8
0
  2
$PAPER_SPACE
 70
     0
 10
0.0
 20
0.0
 30
0.0
  3
$PAPER_SPACE
  1

  0
ENDBLK
  5
183B
 67
     1
  8
0
  0
BLOCK
  8
0
  2
_OPEN
 70
     0
 10
0.0
 20
0.0
 30
0.0
  3
_OPEN
  1

  0
LINE
  5
595
  8
0
  6
BYBLOCK
 62
     0
 10
-1.0
 20
0.1666666666666666
 30
0.0
 11
0.0
 21
0.0
 31
0.0
  0
LINE
  5
596
  8
0
  6
BYBLOCK
 62
     0
 10
-1.0
 20
-0.1666666666666666
 30
0.0
 11
0.0
 21
0.0
 31
0.0
  0
LINE
  5
597
  8
0
  6
BYBLOCK
 62
     0
 10
0.0
 20
0.0
 30
0.0
 11
-1.0
 21
0.0
 31
0.0
  0
ENDBLK
  5
599
  8
0
  0
BLOCK
  8
0
  2
GENAXEH
 70
     0
 10
0.0
 20
0.0
 30
0.0
  3
GENAXEH
  1

  0
LINE
  5
15DD
  8
0
 10
-1.0
 20
0.0
 30
0.0
 11
1.0
 21
0.0
 31
0.0
  0
ENDBLK
  5
15DF
  8
0
  0
BLOCK
  8
0
  2
*X22
 70
     1
 10
0.0
 20
0.0
 30
0.0
  3
*X22
  1

  0
LINE
  5
1B10
  8
0
 62
     0
 10
-66.788363048241905
 20
-6.4396050088432499
 30
0.0
 11
-65.993521911274172
 21
-5.644763871875524
 31
0.0
  0
LINE
  5
1B11
  8
0
 62
     0
 10
-66.246217914719793
 20
-5.6280521916890924
 30
0.0
 11
-65.927801065047646
 21
-5.3096353420169251
 31
0.0
  0
LINE
  5
1B12
  8
0
 62
     0
 10
-67.123491578100499
 20
-6.5053258550697688
 30
0.0
 11
-66.805074728428309
 21
-6.1869090053976006
 31
0.0
  0
LINE
  5
1B13
  8
0
 62
     0
 10
-66.169161984527676
 20
-5.2815885778648646
 30
0.0
 11
-65.93882085473507
 21
-5.0512474480722602
 31
0.0
  0
LINE
  5
1B14
  8
0
 62
     0
 10
-67.395123953642823
 20
-6.5075505469800401
 30
0.0
 11
-67.151538342252564
 21
-6.26396493558976
 31
0.0
  0
LINE
  5
1B15
  8
0
 62
     0
 10
-66.188291144154704
 20
-5.0313100538598468
 30
0.0
 11
-65.990380229228975
 21
-4.8333991389341051
 31
0.0
  0
LINE
  5
1B16
  8
0
 62
     0
 10
-67.664531637274891
 20
-6.5075505469800401
 30
0.0
 11
-67.422026760703531
 21
-6.2650456704086812
 31
0.0
  0
LINE
  5
1B17
  8
0
 62
     0
 10
-66.25243498305818
 20
-4.8260462091312188
 30
0.0
 11
-66.070627485410824
 21
-4.6442387114838848
 31
0.0
  0
LINE
  5
1B18
  8
0
 62
     0
 10
-67.933939320906973
 20
-6.5075505469800401
 30
0.0
 11
-67.691434444335613
 21
-6.2650456704086812
 31
0.0
  0
LINE
  5
1B19
  8
0
 62
     0
 10
-66.348164889637275
 20
-4.652368432078255
 30
0.0
 11
-66.174282032398267
 21
-4.4784855748392483
 31
0.0
  0
LINE
  5
1B1A
  8
0
 62
     0
 10
-68.203347004539054
 20
-6.5075505469800401
 30
0.0
 11
-67.960842127967695
 21
-6.2650456704086812
 31
0.0
  0
LINE
  5
1B1B
  8
0
 62
     0
 10
-66.470395541533819
 20
-4.50519140034271
 30
0.0
 11
-66.298918668267788
 21
-4.3337145270767081
 31
0.0
  0
LINE
  5
1B1C
  8
0
 62
     0
 10
-68.472754688171136
 20
-6.5075505469800401
 30
0.0
 11
-68.230249811599776
 21
-6.2650456704086812
 31
0.0
  0
LINE
  5
1B1D
  8
0
 62
     0
 10
-66.617740864770923
 20
-4.383129039947752
 30
0.0
 11
-66.443825128775771
 21
-4.209213303952593
 31
0.0
  0
LINE
  5
1B1E
  8
0
 62
     0
 10
-68.742162371803218
 20
-6.5075505469800401
 30
0.0
 11
-68.499657495231844
 21
-6.2650456704086812
 31
0.0
  0
LINE
  5
1B1F
  8
0
 62
     0
 10
-66.791606352440894
 20
-4.2875868439856699
 30
0.0
 11
-66.609723490393463
 21
-4.1057039819382108
 31
0.0
  0
LINE
  5
1B20
  8
0
 62
     0
 10
-69.011570055435286
 20
-6.5075505469800401
 30
0.0
 11
-68.769065178863926
 21
-6.2650456704086812
 31
0.0
  0
LINE
  5
1B21
  8
0
 62
     0
 10
-66.99711043335418
 20
-4.223683241266869
 30
0.0
 11
-66.799052777229889
 21
-4.0256255851425617
 31
0.0
  0
LINE
  5
1B22
  8
0
 62
     0
 10
-69.280977739067367
 20
-6.5075505469800401
 30
0.0
 11
-69.038472862495993
 21
-6.2650456704086812
 31
0.0
  0
LINE
  5
1B23
  8
0
 62
     0
 10
-67.247775260424262
 20
-4.2049403847048623
 30
0.0
 11
-67.017120104682249
 21
-3.974285228962847
 31
0.0
  0
LINE
  5
1B24
  8
0
 62
     0
 10
-69.550385422699435
 20
-6.5075505469800401
 30
0.0
 11
-69.307880546128089
 21
-6.2650456704086812
 31
0.0
  0
LINE
  5
1B25
  8
0
 62
     0
 10
-67.473508482434141
 20
-4.1612659230826718
 30
0.0
 11
-67.275848392213447
 21
-3.963605832861993
 31
0.0
  0
LINE
  5
1B26
  8
0
 62
     0
 10
-69.819793106331502
 20
-6.5075505469800401
 30
0.0
 11
-69.577288229760143
 21
-6.2650456704086812
 31
0.0
  0
LINE
  5
1B27
  8
0
 62
     0
 10
-70.089200789963598
 20
-6.5075505469800401
 30
0.0
 11
-69.846695913392224
 21
-6.2650456704086812
 31
0.0
  0
LINE
  5
1B28
  8
0
 62
     0
 10
-70.35860847359568
 20
-6.5075505469800401
 30
0.0
 11
-70.11610359702432
 21
-6.2650456704086812
 31
0.0
  0
LINE
  5
1B29
  8
0
 62
     0
 10
-70.628016157227734
 20
-6.5075505469800401
 30
0.0
 11
-70.385511280656374
 21
-6.2650456704086812
 31
0.0
  0
LINE
  5
1B2A
  8
0
 62
     0
 10
-70.897423840859815
 20
-6.5075505469800401
 30
0.0
 11
-70.654918964288456
 21
-6.2650456704086812
 31
0.0
  0
LINE
  5
1B2B
  8
0
 62
     0
 10
-71.166831524491911
 20
-6.5075505469800401
 30
0.0
 11
-70.924326647920509
 21
-6.2650456704086812
 31
0.0
  0
LINE
  5
1B2C
  8
0
 62
     0
 10
-71.436239208123965
 20
-6.5075505469800401
 30
0.0
 11
-71.193734331552605
 21
-6.2650456704086812
 31
0.0
  0
LINE
  5
1B2D
  8
0
 62
     0
 10
-71.705646891756047
 20
-6.5075505469800401
 30
0.0
 11
-71.463142015184673
 21
-6.2650456704086812
 31
0.0
  0
LINE
  5
1B2E
  8
0
 62
     0
 10
-71.975054575388114
 20
-6.5075505469800481
 30
0.0
 11
-71.732549698816754
 21
-6.2650456704086892
 31
0.0
  0
LINE
  5
1B2F
  8
0
 62
     0
 10
-72.239028931224667
 20
-6.50211721918454
 30
0.0
 11
-72.001957382448822
 21
-6.2650456704086812
 31
0.0
  0
LINE
  5
1B30
  8
0
 62
     0
 10
-72.466300261045419
 20
-6.459980865373204
 30
0.0
 11
-72.261778552363253
 21
-6.2554591566910158
 31
0.0
  0
LINE
  5
1B31
  8
0
 62
     0
 10
-72.662589823747993
 20
-6.386862744443718
 30
0.0
 11
-72.477389719066693
 21
-6.2016626397623877
 31
0.0
  0
LINE
  5
1B32
  8
0
 62
     0
 10
-72.834397792221097
 20
-6.2892630292847107
 30
0.0
 11
-72.658964969547156
 21
-6.1138302066107979
 31
0.0
  0
LINE
  5
1B33
  8
0
 62
     0
 10
-72.98475881141789
 20
-6.170216364849451
 30
0.0
 11
-72.813109571137559
 21
-5.9985671245691119
 31
0.0
  0
LINE
  5
1B34
  8
0
 62
     0
 10
-73.11479935893091
 20
-6.0308492287303963
 30
0.0
 11
-72.942042456170057
 21
-5.8580923259695501
 31
0.0
  0
LINE
  5
1B35
  8
0
 62
     0
 10
-73.224192563995288
 20
-5.8708347501626932
 30
0.0
 11
-73.045131763760793
 21
-5.6917739499282041
 31
0.0
  0
LINE
  5
1B36
  8
0
 62
     0
 10
-71.82653768841169
 20
-4.2037721909470118
 30
0.0
 11
-71.635487225061766
 21
-4.0127217275971043
 31
0.0
  0
LINE
  5
1B37
  8
0
 62
     0
 10
-73.311032598269449
 20
-5.6882671008047918
 30
0.0
 11
-73.11849352228198
 21
-5.4957280248173088
 31
0.0
  0
LINE
  5
1B38
  8
0
 62
     0
 10
-72.09594537204373
 20
-4.2037721909470118
 30
0.0
 11
-71.853440489231247
 21
-3.961267308134508
 31
0.0
  0
LINE
  5
1B39
  8
0
 62
     0
 10
-73.370996344915241
 20
-5.4788231638185021
 30
0.0
 11
-73.151862619117523
 21
-5.2596894380207697
 31
0.0
  0
LINE
  5
1B3A
  8
0
 62
     0
 10
-72.405141694394601
 20
-4.2435608296657881
 30
0.0
 11
-72.122848849632049
 21
-3.96126798490323
 31
0.0
  0
LINE
  5
1B3B
  8
0
 62
     0
 10
-73.394676928378274
 20
-5.2330960636494481
 30
0.0
 11
-73.112384083615709
 21
-4.9508032188868878
 31
0.0
  0
LINE
  5
1B3C
  8
0
 62
     0
 10
-73.356681318468461
 20
-4.9256927701075881
 30
0.0
 11
-72.430252143173902
 21
-3.9992635948130211
 31
0.0
  0
ENDBLK
  5
1B3D
  8
0
  0
BLOCK
  8
0
  2
*X23
 70
     1
 10
0.0
 20
0.0
 30
0.0
  3
*X23
  1

  0
LINE
  5
1B40
  8
0
 62
     0
 10
-67.98298473139036
 20
-6.017780590199278
 30
0.0
 11
-67.755640064020383
 21
-5.7904359228293103
 31
0.0
  0
LINE
  5
1B41
  8
0
 62
     0
 10
-68.374727566041045
 20
-6.1401157412178691
 30
0.0
 11
-67.647331231318219
 21
-5.4127194064950492
 31
0.0
  0
LINE
  5
1B42
  8
0
 62
     0
 10
-68.260315228002511
 20
-5.7562957195472659
 30
0.0
 11
-67.539022398616027
 21
-5.0350028901607891
 31
0.0
  0
LINE
  5
1B43
  8
0
 62
     0
 10
-68.627722426271418
 20
-6.1237029178161659
 30
0.0
 11
-68.343017724007652
 21
-5.8389982155524081
 31
0.0
  0
LINE
  5
1B44
  8
0
 62
     0
 10
-68.138110476552384
 20
-5.364683284465058
 30
0.0
 11
-67.680452556862448
 21
-4.9070253647751212
 31
0.0
  0
LINE
  5
1B45
  8
0
 62
     0
 10
-68.8235482223877
 20
-6.0501210303003869
 30
0.0
 11
-68.611798882489609
 21
-5.8383716904022833
 31
0.0
  0
LINE
  5
1B46
  8
0
 62
     0
 10
-68.192365123307027
 20
-5.1495302475876272
 30
0.0
 11
-67.94986024049453
 21
-4.9070253647751372
 31
0.0
  0
LINE
  5
1B47
  8
0
 62
     0
 10
-68.981365582161686
 20
-5.9385307064422781
 30
0.0
 11
-68.724534861094966
 21
-5.6816999853755661
 31
0.0
  0
LINE
  5
1B48
  8
0
 62
     0
 10
-67.595416172804832
 20
-4.2831736134533713
 30
0.0
 11
-67.570167632339604
 21
-4.2579250729881419
 31
0.0
  0
LINE
  5
1B49
  8
0
 62
     0
 10
-69.106017346428828
 20
-5.7937747870773517
 30
0.0
 11
-68.664262090670519
 21
-5.3520195313190513
 31
0.0
  0
LINE
  5
1B4A
  8
0
 62
     0
 10
-67.932322399888051
 20
-4.3506721569045137
 30
0.0
 11
-67.634754549822716
 21
-4.0531043068391721
 31
0.0
  0
LINE
  5
1B4B
  8
0
 62
     0
 10
-69.195512847848903
 20
-5.6138626048653517
 30
0.0
 11
-68.55595288981128
 21
-4.9743026468277218
 31
0.0
  0
LINE
  5
1B4C
  8
0
 62
     0
 10
-68.087012638380173
 20
-4.2359547117645491
 30
0.0
 11
-67.905426634752374
 21
-4.0543687081367548
 31
0.0
  0
LINE
  5
1B4D
  8
0
 62
     0
 10
-69.238371587845108
 20
-5.3873136612294843
 30
0.0
 11
-68.447643688952013
 21
-4.596585762336387
 31
0.0
  0
LINE
  5
1B4E
  8
0
 62
     0
 10
-69.200197914098823
 20
-5.0797323038511442
 30
0.0
 11
-68.101521330283134
 21
-3.9810557200354482
 31
0.0
  0
LINE
  5
1B4F
  8
0
 62
     0
 10
-69.110756497003749
 20
-4.7208832031239947
 30
0.0
 11
-68.355006775337216
 21
-3.9651334814574479
 31
0.0
  0
ENDBLK
  5
1B50
  8
0
  0
BLOCK
  8
0
  2
*X24
 70
     1
 10
0.0
 20
0.0
 30
0.0
  3
*X24
  1

  0
LINE
  5
1B53
  8
0
 62
     0
 10
-69.725443471985983
 20
-6.1437932290024246
 30
0.0
 11
-69.705460726988719
 21
-6.1238104840051761
 31
0.0
  0
LINE
  5
1B54
  8
0
 62
     0
 10
-69.994851155618036
 20
-6.1437932290024122
 30
0.0
 11
-69.597152941762218
 21
-5.7460950151465919
 31
0.0
  0
LINE
  5
1B55
  8
0
 62
     0
 10
-70.249294786520693
 20
-6.1288291762730083
 30
0.0
 11
-69.488845156535703
 21
-5.3683795462880113
 31
0.0
  0
LINE
  5
1B56
  8
0
 62
     0
 10
-70.14098552322389
 20
-5.7511122293441357
 30
0.0
 11
-69.380537371309202
 21
-4.9906640774294271
 31
0.0
  0
LINE
  5
1B57
  8
0
 62
     0
 10
-70.032676259927115
 20
-5.3733952824152649
 30
0.0
 11
-69.272229586082673
 21
-4.6129486085708393
 31
0.0
  0
LINE
  5
1B58
  8
0
 62
     0
 10
-69.924366996630312
 20
-4.995678335486387
 30
0.0
 11
-69.163921800856173
 21
-4.235233139712256
 31
0.0
  0
LINE
  5
1B59
  8
0
 62
     0
 10
-69.816057733333523
 20
-4.617961388557525
 30
0.0
 11
-69.159363652910514
 21
-3.961267308134508
 31
0.0
  0
LINE
  5
1B5A
  8
0
 62
     0
 10
-69.707748470036719
 20
-4.2402444416286542
 30
0.0
 11
-69.428771336542582
 21
-3.961267308134516
 31
0.0
  0
LINE
  5
1B5B
  8
0
 62
     0
 10
-69.723237994487263
 20
-3.9863262824471288
 30
0.0
 11
-69.698179020174649
 21
-3.961267308134508
 31
0.0
  0
ENDBLK
  5
1B5C
  8
0
  0
BLOCK
  8
0
  2
A$C3AF52770
 70
     0
 10
0.0
 20
0.0
 30
0.0
  3
A$C3AF52770
  1

  0
LINE
  5
1B5E
  8
240
  6
CONTINUOUS
 10
-0.0878679656438522
 20
5.6378679656439923
 30
0.0
 11
-0.2236859766171051
 21
5.7736859766172151
 31
0.0
1001
GRPNAME
1000
0000000G
  0
ARC
  5
1B5F
  8
240
  6
CONTINUOUS
 10
-0.0115539422612869
 20
5.9858180109731762
 30
0.0
 40
0.3000000000000005
 50
187.1160052377088
 51
225.0
1001
GRPNAME
1000
0000000G
  0
ARC
  5
1B60
  8
240
  6
CONTINUOUS
 10
-0.3000000000000114
 20
5.4257359312880311
 30
0.0
 40
0.2999999999999971
 50
0.0
 51
45.0
1001
GRPNAME
1000
0000000G
  0
LINE
  5
1B61
  8
246
 10
-1.5000000000004541
 20
4.299999999997751
 30
0.0
 11
-1.9000000000004591
 21
4.6999999999999744
 31
0.0
  0
LINE
  5
1B62
  8
246
 10
-1.9000000000004591
 20
4.6999999999999744
 30
0.0
 11
-2.3000000000004661
 21
4.6999999999999744
 31
0.0
  0
LINE
  5
1B63
  8
246
 10
-2.3000000000004661
 20
4.6999999999999744
 30
0.0
 11
-2.7000000000004989
 21
4.2999999999999972
 31
0.0
  0
LINE
  5
1B64
  8
246
 10
-3.1501820558248421
 20
4.299999999999967
 30
0.0
 11
-2.7000000000004989
 21
4.2999999999999972
 31
0.0
  0
LINE
  5
1B65
  8
246
 10
-3.3000000000004079
 20
4.5594922911975981
 30
0.0
 11
-3.1501820558248421
 21
4.299999999999967
 31
0.0
  0
ARC
  5
1B66
  8
240
  6
CONTINUOUS
 10
-1.5000000000000271
 20
5.7999999999999972
 30
0.0
 40
1.1999999999999951
 50
7.1160052377104739
 51
90.0
1001
GRPNAME
1000
0000000G
  0
ARC
  5
1B67
  8
240
  6
CONTINUOUS
 10
-0.0115539422612869
 20
-5.9858180109731762
 30
0.0
 40
0.3000000000000043
 50
134.9999999999977
 51
172.8839947622894
1001
GRPNAME
1000
0000000G
  0
LINE
  5
1B68
  8
240
  6
CONTINUOUS
 10
-0.2236859766172756
 20
-5.7736859766171857
 30
0.0
 11
-0.0878679656440227
 21
-5.6378679656439923
 31
0.0
1001
GRPNAME
1000
0000000G
  0
ARC
  5
1B69
  8
240
  6
CONTINUOUS
 10
-0.3000000000000114
 20
-5.4257359312880009
 30
0.0
 40
0.3000000000000145
 50
314.99999999999591
 51
0.0
1001
GRPNAME
1000
0000000G
  0
LINE
  5
1B6A
  8
246
 10
-3.3000000000004079
 20
-4.5594922911975839
 30
0.0
 11
-3.1501820558248421
 21
-4.2999999999999527
 31
0.0
  0
LINE
  5
1B6B
  8
246
 10
-3.1501820558248421
 20
-4.2999999999999527
 30
0.0
 11
-2.7000000000004989
 21
-4.2999999999999821
 31
0.0
  0
LINE
  5
1B6C
  8
246
 10
-2.3000000000004661
 20
-4.6999999999999602
 30
0.0
 11
-2.7000000000004989
 21
-4.2999999999999821
 31
0.0
  0
LINE
  5
1B6D
  8
246
 10
-1.9000000000004591
 20
-4.6999999999999602
 30
0.0
 11
-2.3000000000004661
 21
-4.6999999999999602
 31
0.0
  0
LINE
  5
1B6E
  8
246
 10
-1.5000000000004541
 20
-4.2999999999977359
 30
0.0
 11
-1.9000000000004591
 21
-4.6999999999999602
 31
0.0
  0
ARC
  5
1B6F
  8
240
  6
CONTINUOUS
 10
-1.5000000000000271
 20
-5.7999999999999972
 30
0.0
 40
1.199999999999988
 50
270.0
 51
352.88399476228949
1001
GRPNAME
1000
0000000G
  0
LINE
  5
1B70
  8
246
 10
-1.5000000000004541
 20
-4.2999999999977359
 30
0.0
 11
-1.5000000000001981
 21
4.299999999997751
 31
0.0
  0
LINE
  5
1B71
  8
241
  6
CONTINUOUS
 10
-0.3092431538090636
 20
-5.9486544087997526
 30
0.0
 11
-0.3092431538090636
 21
5.9486544087997251
 31
0.0
  0
LINE
  5
1B72
  8
240
  6
CONTINUOUS
 10
0.0
 20
-5.4257359312880009
 30
0.0
 11
0.0
 21
5.4257359312880311
 31
0.0
1001
GRPNAME
1000
0000000G
  0
LINE
  5
1B73
  8
240
  6
CONTINUOUS
 10
-14.060768878848901
 20
6.9500000000000313
 30
0.0
 11
-14.524013903868561
 21
6.9500000000000313
 31
0.0
  0
ARC
  5
1B74
  8
240
  6
CONTINUOUS
 10
-14.470950815188701
 20
7.94859116189751
 30
0.0
 40
1.0000000000000011
 50
238.0587654377436
 51
266.95828040635507
  0
ARC
  5
1B75
  8
240
  6
CONTINUOUS
 10
-14.117027916672781
 20
7.9484162061300889
 30
0.0
 40
1.0000000000000031
 50
273.22510824217238
 51
288.48328076622818
  0
ARC
  5
1B76
  8
240
  6
CONTINUOUS
 10
-16.699999999999989
 20
6.7999999999999972
 30
0.0
 40
0.3000000000000114
 50
90.0
 51
180.0
1001
GRPNAME
1000
0000000G
  0
LINE
  5
1B77
  8
240
  6
CONTINUOUS
 10
-16.699999999999989
 20
7.1000000000000068
 30
0.0
 11
-15.0
 21
7.1000000000000068
 31
0.0
  0
LINE
  5
1B78
  8
240
 10
-18.272278313936209
 20
6.9829629131445321
 30
0.0
 11
-18.335861587693781
 21
7.0
 31
0.0
  0
ARC
  5
1B79
  8
240
 10
-18.40168783648749
 20
6.5
 30
0.0
 40
0.5
 50
29.99999999999973
 51
74.99999999999882
1001
GENIUS_GENOBJ-N-FIL_13
1002
{
1000
OWNER
1000
GEN
1002
}
1001
GENIUS_GENODEF_13
1002
{
1000
HIER
1070
     0
1002
}
1002
{
1000
MANEDIT
1070
     0
1002
}
1002
{
1000
NOSEL
1070
     0
1002
}
1002
{
1000
BEHIND
1070
     0
1002
}
1002
{
1000
OTHER
1070
     0
1002
}
1002
{
1000
REACTOR
1002
}
  0
ARC
  5
1B7A
  8
240
 10
-17.449059892324581
 20
6.6499999999999906
 30
0.0
 40
0.4
 50
209.99999999999829
 51
270.0
1001
GENIUS_GENODEF_13
1002
{
1000
HIER
1070
     0
1002
}
1002
{
1000
MANEDIT
1070
     0
1002
}
1002
{
1000
NOSEL
1070
     0
1002
}
1002
{
1000
BEHIND
1070
     0
1002
}
1002
{
1000
OTHER
1070
     0
1002
}
1002
{
1000
REACTOR
1002
}
1001
GENIUS_GENOBJ-N-FIL_13
1002
{
1000
OWNER
1000
GEN
1002
}
  0
LINE
  5
1B7B
  8
240
  6
CONTINUOUS
 10
-17.449059892324581
 20
6.249999999999984
 30
0.0
 11
-17.0
 21
6.249999999999984
 31
0.0
1001
GRPNAME
1000
PASTMD0E
  0
LINE
  5
1B7C
  8
246
 10
-25.979999999997549
 20
3.7000000000000162
 30
0.0
 11
-13.124041842211961
 21
3.69999999999993
 31
0.0
1001
GRPNAME
1000
PASTMD0E
  0
LINE
  5
1B7D
  8
246
 10
-23.899999999995259
 20
3.7000000000002871
 30
0.0
 11
-20.00000000000043
 21
3.6999999999999731
 31
0.0
1001
GRPNAME
1000
PASTMD0E
  0
LINE
  5
1B7E
  8
240
 10
-17.795470053838361
 20
6.4500000000000011
 30
0.0
 11
-17.968675134595291
 21
6.75
 31
0.0
  0
LINE
  5
1B7F
  8
240
  6
CONTINUOUS
 10
-17.0
 20
6.7999999999999972
 30
0.0
 11
-17.0
 21
6.249999999999984
 31
0.0
1001
GRPNAME
1000
0000000G
  0
LINE
  5
1B80
  8
240
  6
CONTINUOUS
 10
-14.060768878848901
 20
-6.9500000000000011
 30
0.0
 11
-14.524013903868561
 21
-6.9500000000000011
 31
0.0
  0
ARC
  5
1B81
  8
240
  6
CONTINUOUS
 10
-14.470950815188701
 20
-7.9485911618974807
 30
0.0
 40
1.0000000000000011
 50
93.041719593644913
 51
121.9412345622563
  0
ARC
  5
1B82
  8
240
  6
CONTINUOUS
 10
-14.117027916672781
 20
-7.9484162061300623
 30
0.0
 40
0.9999999999999955
 50
71.516719233771809
 51
86.774891757827575
  0
ARC
  5
1B83
  8
240
  6
CONTINUOUS
 10
-16.699999999999989
 20
-6.8000000000000238
 30
0.0
 40
0.3000000000000114
 50
180.0
 51
270.0
1001
GRPNAME
1000
0000000G
  0
LINE
  5
1B84
  8
240
  6
CONTINUOUS
 10
-17.0
 20
-6.8000000000000238
 30
0.0
 11
-17.0
 21
-6.2500000000000284
 31
0.0
1001
GRPNAME
1000
0000000G
  0
LINE
  5
1B85
  8
240
  6
CONTINUOUS
 10
-16.699999999999989
 20
-7.0999999999999801
 30
0.0
 11
-15.0
 21
-7.0999999999999801
 31
0.0
  0
ARC
  5
1B86
  8
240
 10
-17.449059892324581
 20
-6.650000000000019
 30
0.0
 40
0.4
 50
90.0
 51
150.00000000000171
1001
GENIUS_GENODEF_13
1002
{
1000
HIER
1070
     0
1002
}
1002
{
1000
MANEDIT
1070
     0
1002
}
1002
{
1000
NOSEL
1070
     0
1002
}
1002
{
1000
BEHIND
1070
     0
1002
}
1002
{
1000
OTHER
1070
     0
1002
}
1002
{
1000
REACTOR
1002
}
1001
GENIUS_GENOBJ-N-FIL_13
1002
{
1000
OWNER
1000
GEN
1002
}
  0
LINE
  5
1B87
  8
240
 10
-18.272278313936209
 20
-6.9829629131445614
 30
0.0
 11
-18.335861587693781
 21
-7.0000000000000284
 31
0.0
  0
LINE
  5
1B88
  8
240
 10
-17.795470053838361
 20
-6.4500000000000313
 30
0.0
 11
-17.968675134595291
 21
-6.7500000000000284
 31
0.0
  0
ARC
  5
1B89
  8
240
 10
-18.40168783648749
 20
-6.5000000000000284
 30
0.0
 40
0.5
 50
285.00000000000119
 51
330.00000000000028
1001
GENIUS_GENOBJ-N-FIL_13
1002
{
1000
OWNER
1000
GEN
1002
}
1001
GENIUS_GENODEF_13
1002
{
1000
HIER
1070
     0
1002
}
1002
{
1000
MANEDIT
1070
     0
1002
}
1002
{
1000
NOSEL
1070
     0
1002
}
1002
{
1000
BEHIND
1070
     0
1002
}
1002
{
1000
OTHER
1070
     0
1002
}
1002
{
1000
REACTOR
1002
}
  0
LINE
  5
1B8A
  8
240
  6
CONTINUOUS
 10
-17.449059892324581
 20
-6.2500000000000142
 30
0.0
 11
-17.0
 21
-6.2500000000000142
 31
0.0
1001
GRPNAME
1000
PASTMD0E
  0
LINE
  5
1B8B
  8
246
 10
-23.899999999995259
 20
-3.7000000000003141
 30
0.0
 11
-20.00000000000043
 21
-3.7000000000000011
 31
0.0
1001
GRPNAME
1000
PASTMD0E
  0
LINE
  5
1B8C
  8
246
 10
-25.979999999997549
 20
-3.7000000000000441
 30
0.0
 11
-13.124041842211961
 21
-3.6999999999999438
 31
0.0
1001
GRPNAME
1000
PASTMD0E
  0
LINE
  5
1B8D
  8
246
 10
-25.980000000056808
 20
-3.7000000000000441
 30
0.0
 11
-25.979999999997549
 21
3.7000000000000162
 31
0.0
1001
GRPNAME
1000
PASTMD0E
  0
LINE
  5
1B8E
  8
241
 10
-18.113012701892611
 20
-6.9082482904638436
 30
0.0
 11
-18.113012701892611
 21
6.9082482904638161
 31
0.0
  0
LINE
  5
1B8F
  8
241
 10
-17.68000000000043
 20
-6.3234013676289322
 30
0.0
 11
-17.68000000000043
 21
6.323401367628902
 31
0.0
  0
LINE
  5
1B90
  8
241
  6
CONTINUOUS
 10
-15.0
 20
-7.0999999999999801
 30
0.0
 11
-15.0
 21
7.0999999999999499
 31
0.0
  0
LINE
  5
1B91
  8
241
  6
CONTINUOUS
 10
-13.80000000000001
 20
-7.0000000000000142
 30
0.0
 11
-13.80000000000001
 21
6.999999999999984
 31
0.0
  0
LINE
  5
1B92
  8
241
  6
CONTINUOUS
 10
-17.0
 20
-6.2500000000000284
 30
0.0
 11
-17.0
 21
6.249999999999984
 31
0.0
1001
GRPNAME
1000
0000000G
  0
LINE
  5
1B93
  8
247
 10
-67.999218620771956
 20
-6.0015477456039852
 30
0.0
 11
-67.856963982100112
 21
-6.1437932290024246
 31
0.0
1001
ACAD
1000
ASC_BOUNDS
1002
{
1070
    19
1005
1BF4
1002
}
  0
LINE
  5
1B94
  8
247
 10
-67.856963982100112
 20
-6.1437932290024246
 30
0.0
 11
-67.502325310225103
 21
-4.9070253647751372
 31
0.0
1001
ACAD
1000
ASC_BOUNDS
1002
{
1070
    19
1005
1BF4
1002
}
  0
ARC
  5
1B95
  8
247
 10
-67.19871813249074
 20
-5.2344087876266912
 30
0.0
 40
1.0306394577026341
 50
110.8721834020772
 51
132.5419489373858
1001
ACAD
1000
ASC_BOUNDS
1002
{
1070
    19
1005
1BF4
1002
}
  0
POLYLINE
  5
1B96
  8
247
 66
     1
 10
0.0
 20
0.0
 30
0.0
 70
     1
1001
HATCH_DISTANCE
1040
1.0
1001
HATCH_DISPLAY
1070
     0
1001
HATCH_TYPE
1070
     7
  0
VERTEX
  5
1B97
  8
247
 10
-67.450277580732916
 20
-4.2349367417282622
 30
0.0
  0
VERTEX
  5
1B98
  8
247
 10
-67.52330919694387
 20
-4.0033357895798201
 30
0.0
  0
VERTEX
  5
1B99
  8
247
 10
-67.52330919694387
 20
-4.0033357895798201
 30
0.0
  0
VERTEX
  5
1B9A
  8
247
 10
-67.450277580732916
 20
-4.2349367417282622
 30
0.0
  0
SEQEND
  5
1B9B
  8
247
  0
POLYLINE
  5
1B9C
  8
247
 66
     1
 10
0.0
 20
0.0
 30
0.0
 70
     1
  0
VERTEX
  5
1B9D
  8
247
 10
-67.450277580732916
 20
-4.2349367417282622
 30
0.0
  0
VERTEX
  5
1B9E
  8
247
 10
-67.52330919694387
 20
-4.0033357895798201
 30
0.0
  0
VERTEX
  5
1B9F
  8
247
 10
-67.52330919694387
 20
-4.0033357895798201
 30
0.0
  0
VERTEX
  5
1BA0
  8
247
 10
-67.450277580732916
 20
-4.2349367417282622
 30
0.0
  0
SEQEND
  5
1BA1
  8
247
  0
POLYLINE
  5
1BA2
  8
247
 66
     1
 10
0.0
 20
0.0
 30
0.0
 70
     1
1001
HATCH_DISTANCE
1040
1.0
1001
HATCH_DISPLAY
1070
     0
1001
HATCH_TYPE
1070
     7
  0
VERTEX
  5
1BA3
  8
247
 10
-67.450277580732916
 20
-4.2349367417282622
 30
0.0
  0
VERTEX
  5
1BA4
  8
247
 10
-67.52330919694387
 20
-4.0033357895798201
 30
0.0
  0
VERTEX
  5
1BA5
  8
247
 10
-67.52330919694387
 20
-4.0033357895798201
 30
0.0
  0
VERTEX
  5
1BA6
  8
247
 10
-67.450277580732916
 20
-4.2349367417282622
 30
0.0
  0
SEQEND
  5
1BA7
  8
247
  0
POLYLINE
  5
1BA8
  8
247
 66
     1
 10
0.0
 20
0.0
 30
0.0
 70
     1
  0
VERTEX
  5
1BA9
  8
247
 10
-67.450277580732916
 20
-4.2349367417282622
 30
0.0
  0
VERTEX
  5
1BAA
  8
247
 10
-67.52330919694387
 20
-4.0033357895798201
 30
0.0
  0
VERTEX
  5
1BAB
  8
247
 10
-67.52330919694387
 20
-4.0033357895798201
 30
0.0
  0
VERTEX
  5
1BAC
  8
247
 10
-67.450277580732916
 20
-4.2349367417282622
 30
0.0
  0
SEQEND
  5
1BAD
  8
247
  0
LINE
  5
1BAE
  8
247
 10
-67.450277580732916
 20
-4.2349367417282622
 30
0.0
 11
-67.523309196943842
 21
-4.0033357895798201
 31
0.0
1001
ACAD
1000
ASC_BOUNDS
1002
{
1070
    19
1005
1BF7
1002
}
  0
ARC
  5
1BAF
  8
247
 10
-67.19871813249074
 20
-5.2344087876266912
 30
0.0
 40
1.2731420516967751
 50
110.22964506332011
 51
118.5716889237184
1001
ACAD
1000
ASC_BOUNDS
1002
{
1070
    19
1005
1BF4
1002
}
  0
LINE
  5
1BB0
  8
247
 10
-67.565917839521973
 20
-4.2714021958298201
 30
0.0
 11
-67.638949455732899
 21
-4.0398012436813797
 31
0.0
1001
ACAD
1000
ASC_BOUNDS
1002
{
1070
    19
1005
1BF4
1002
}
  0
LINE
  5
1BB1
  8
247
 10
-69.716052116865711
 20
-3.961267308134508
 30
0.0
 11
-69.085363640303214
 21
-3.961267308134508
 31
0.0
  0
LINE
  5
1BB2
  8
247
 10
-68.721670402998541
 20
-5.5522249497360701
 30
0.0
 11
-68.394845451826654
 21
-4.4124574936813872
 31
0.0
1001
ACAD
1000
ASC_BOUNDS
1002
{
1070
    19
1005
1BF4
1002
}
  0
ARC
  5
1BB3
  8
247
 10
-67.162298454756353
 20
-5.3970979966110653
 30
0.0
 40
2.0624633789062479
 50
155.20517736984081
 51
172.79482596205219
1001
ACAD
1000
ASC_BOUNDS
1002
{
1070
    19
1005
1BF4
1002
}
  0
LINE
  5
1BB4
  8
247
 10
-70.25358568620166
 20
-6.1437932290024246
 30
0.0
 11
-69.70424181413135
 21
-4.2280153550095019
 31
0.0
  0
LINE
  5
1BB5
  8
247
 10
-70.25358568620166
 20
-6.1437932290024246
 30
0.0
 11
-69.711190666670404
 21
-6.1437932290024246
 31
0.0
  0
LINE
  5
1BB6
  8
247
 10
-68.232137932295416
 20
-5.6925936020798229
 30
0.0
 11
-68.076415886396973
 21
-5.1495302475876326
 31
0.0
1001
ACAD
1000
ASC_BOUNDS
1002
{
1070
    19
1005
1BF4
1002
}
  0
ARC
  5
1BB7
  8
247
 10
-68.476904167646978
 20
-5.6224092759079412
 30
0.0
 40
0.2546298265457154
 50
164.00027305718419
 51
344.0002730571843
1001
ACAD
1000
ASC_BOUNDS
1002
{
1070
    19
1005
1BF4
1002
}
  0
LINE
  5
1BB8
  8
247
 10
-68.278234734053214
 20
-5.1495302475876326
 30
0.0
 11
-68.076415886396973
 21
-5.1495302475876326
 31
0.0
1001
ACAD
1000
ASC_BOUNDS
1002
{
1070
    19
1005
1BF4
1002
}
  0
LINE
  5
1BB9
  8
247
 10
-68.278234734053214
 20
-5.1495302475876326
 30
0.0
 11
-68.208700432295416
 21
-4.9070253647751372
 31
0.0
1001
ACAD
1000
ASC_BOUNDS
1002
{
1070
    19
1005
1BF4
1002
}
  0
LINE
  5
1BBA
  8
247
 10
-69.792544426436024
 20
-4.2280153550095019
 30
0.0
 11
-69.70424181413135
 21
-4.2280153550095019
 31
0.0
  0
LINE
  5
1BBB
  8
247
 10
-69.711190666670404
 20
-6.1437932290024246
 30
0.0
 11
-69.085363640303214
 21
-3.961267308134508
 31
0.0
  0
POLYLINE
  5
1BBC
  8
247
 66
     1
 10
0.0
 20
0.0
 30
0.0
 70
     1
1001
HATCH_DISTANCE
1040
1.0
1001
HATCH_DISPLAY
1070
     0
1001
HATCH_TYPE
1070
     7
  0
VERTEX
  5
1BBD
  8
247
 10
-69.71605211686574
 20
-3.961267308134508
 30
0.0
  0
VERTEX
  5
1BBE
  8
247
 10
-69.792544426436038
 20
-4.2280153550095019
 30
0.0
  0
VERTEX
  5
1BBF
  8
247
 10
-69.704241814131365
 20
-4.2280153550095019
 30
0.0
  0
VERTEX
  5
1BC0
  8
247
 10
-70.253585686201689
 20
-6.1437932290024246
 30
0.0
  0
VERTEX
  5
1BC1
  8
247
 10
-69.711190666670433
 20
-6.1437932290024246
 30
0.0
  0
VERTEX
  5
1BC2
  8
247
 10
-69.085363640303214
 20
-3.961267308134508
 30
0.0
  0
SEQEND
  5
1BC3
  8
247
  0
POLYLINE
  5
1BC4
  8
247
 66
     1
 10
0.0
 20
0.0
 30
0.0
 70
     1
  0
VERTEX
  5
1BC5
  8
247
 10
-69.71605211686574
 20
-3.961267308134508
 30
0.0
  0
VERTEX
  5
1BC6
  8
247
 10
-69.792544426436038
 20
-4.2280153550095019
 30
0.0
  0
VERTEX
  5
1BC7
  8
247
 10
-69.704241814131365
 20
-4.2280153550095019
 30
0.0
  0
VERTEX
  5
1BC8
  8
247
 10
-70.253585686201689
 20
-6.1437932290024246
 30
0.0
  0
VERTEX
  5
1BC9
  8
247
 10
-69.711190666670433
 20
-6.1437932290024246
 30
0.0
  0
VERTEX
  5
1BCA
  8
247
 10
-69.085363640303214
 20
-3.961267308134508
 30
0.0
  0
SEQEND
  5
1BCB
  8
247
  0
INSERT
  5
1BCC
  8
247
  6
CONTINUOUS
  2
*X24
 10
0.0
 20
0.0
 30
0.0
1001
ACAD
1000
HATCH
1002
{
1070
    19
1000
ANSI31
1040
0.06
1040
6.2831853071795853
1000
R14_HATCH_DATA
1000
16DB
1011
1.0
1021
0.0
1031
0.0
1021
0.0
1031
0.0
1011
0.0
1021
0.0
1031
0.0
1021
1.0
1031
0.0
1011
0.0
1021
0.0
1031
0.0
1021
0.0
1031
1.0
1040
0.0
1010
0.0
1020
0.0
1030
1.0
1000
ANSI31
1070
     0
1070
     0
1071
        1
1071
        7
1070
     0
1070
     1
1071
        6
1040
-69.085363640303214
1040
-3.961267308134508
1040
-69.716052116865711
1040
-3.961267308134508
1040
-69.792544426436024
1040
-4.2280153550095019
1040
-69.70424181413135
1040
-4.2280153550095019
1040
-70.253585686201632
1040
-6.1437932290024246
1040
-69.711190666670404
1040
-6.1437932290024246
1071
        0
1070
     0
1070
     1
1040
6.2831853071795853
1040
0.06
1070
     0
1070
     1
1040
0.7853981633974481
1040
-145.2746695942827
1040
-15.957544545072929
1040
-0.1347038418160373
1040
0.1347038418160374
1070
     0
1040
0.0134348504236232
1071
        1
1040
-69.652352999266498
1040
-4.9953819401334973
1040
0.0
1002
}
  0
LINE
  5
1BCD
  8
247
 10
-69.792544426436024
 20
-4.2280153550095019
 30
0.0
 11
-69.716052116865711
 21
-3.961267308134508
 31
0.0
  0
LINE
  5
1BCE
  8
247
 10
-72.121536125654785
 20
-3.961267308134508
 30
0.0
 11
-71.620733513350089
 21
-3.961267308134508
 31
0.0
1001
ACAD
1000
ASC_BOUNDS
1002
{
1070
    19
1005
1BF7
1002
}
  0
LINE
  5
1BCF
  8
247
 10
-71.494601311201521
 20
-3.961267308134508
 30
0.0
 11
-70.712291809453859
 21
-3.9612673081345928
 31
0.0
  0
LINE
  5
1BD0
  8
247
 10
-72.121536125654785
 20
-4.2037721909470047
 30
0.0
 11
-71.690267815107916
 21
-4.2037721909470047
 31
0.0
1001
ACAD
1000
ASC_BOUNDS
1002
{
1070
    19
1005
1BF7
1002
}
  0
LINE
  5
1BD1
  8
247
 10
-71.994286980146967
 20
-6.1437932290024246
 30
0.0
 11
-70.987939323896967
 21
-6.1437932290024246
 31
0.0
  0
LINE
  5
1BD2
  8
247
 10
-71.931641248672065
 20
-5.9253218529999003
 30
0.0
 11
-70.905577671534132
 21
-4.8992582758619241
 31
0.0
  0
LINE
  5
1BD3
  8
247
 10
-71.994286980146967
 20
-6.1437932290024246
 30
0.0
 11
-71.437994255537859
 21
-4.2037721909477312
 31
0.0
  0
LINE
  5
1BD4
  8
247
 10
-70.834353946489372
 20
-4.2101106554737981
 30
0.0
 11
-71.033083971701373
 21
-4.9031801306941087
 31
0.0
  0
ARC
  5
1BD5
  8
247
 10
-70.98034044694387
 20
-4.5432771958298162
 30
0.0
 40
0.3637471675872803
 50
261.6626016879294
 51
66.33815509518989
  0
LINE
  5
1BD6
  8
247
 10
-71.715024253988929
 20
-5.1698894910525581
 30
0.0
 11
-70.866156465546709
 21
-4.3210217026103521
 31
0.0
  0
LINE
  5
1BD7
  8
247
 10
-71.112497414453912
 20
-5.1801109374876253
 30
0.0
 11
-71.311230709025978
 21
-5.8732009698409637
 31
0.0
  0
ARC
  5
1BD8
  8
247
 10
-71.258486809248524
 20
-5.5132875718063872
 30
0.0
 40
0.3637575745582581
 50
261.6628542111489
 51
66.338192159110136
  0
LINE
  5
1BD9
  8
247
 10
-71.34188957377846
 20
-6.1437932290024246
 30
0.0
 11
-70.452084021892261
 21
-5.2539876771162852
 31
0.0
  0
LINE
  5
1BDA
  8
247
 10
-71.88070494104258
 20
-6.1437932290024246
 30
0.0
 11
-71.191079015695664
 21
-5.454167303655522
 31
0.0
  0
LINE
  5
1BDB
  8
247
 10
-71.611297257410513
 20
-6.1437932290024246
 30
0.0
 11
-71.299381932313182
 21
-5.8318779039051361
 31
0.0
  0
LINE
  5
1BDC
  8
247
 10
-70.757620160504501
 20
-6.0983391829927172
 30
0.0
 11
-70.427140032046623
 21
-5.7678590545348243
 31
0.0
  0
LINE
  5
1BDD
  8
247
 10
-71.072481890146307
 20
-6.1437932290024682
 30
0.0
 11
-70.386898916259156
 21
-5.4582102551152483
 31
0.0
  0
LINE
  5
1BDE
  8
247
 10
-71.823332751330497
 20
-5.5476056720262221
 30
0.0
 11
-70.974461387922588
 21
-4.698734308618369
 31
0.0
  0
LINE
  5
1BDF
  8
247
 10
-71.564135612959745
 20
-4.2037721909470047
 30
0.0
 11
-71.437994255537859
 21
-4.2037721909477312
 31
0.0
  0
LINE
  5
1BE0
  8
247
 10
-71.606715756647304
 20
-4.7921733100789208
 30
0.0
 11
-70.775809754702991
 21
-3.9612673081345928
 31
0.0
  0
LINE
  5
1BE1
  8
247
 10
-71.620733513350089
 20
-3.961267308134508
 30
0.0
 11
-71.690267815107916
 21
-4.2037721909470047
 31
0.0
1001
ACAD
1000
ASC_BOUNDS
1002
{
1070
    19
1005
1BF7
1002
}
  0
LINE
  5
1BE2
  8
247
 10
-70.782908236610808
 20
-4.2377734736745207
 30
0.0
 11
-70.532806252903328
 21
-3.987671489967056
 31
0.0
  0
LINE
  5
1BE3
  8
247
 10
-71.494601311201521
 20
-3.961267308134508
 30
0.0
 11
-71.564135612959745
 21
-4.2037721909470047
 31
0.0
  0
LINE
  5
1BE4
  8
247
 10
-71.557130004779594
 20
-4.2037721909470491
 30
0.0
 11
-71.314625121967111
 21
-3.9612673081345511
 31
0.0
  0
LINE
  5
1BE5
  8
247
 10
-71.498407259305736
 20
-4.4144571291052443
 30
0.0
 11
-71.045217438335044
 21
-3.9612673081345928
 31
0.0
  0
LINE
  5
1BE6
  8
247
 10
-70.655441607692197
 20
-4.3797145283879502
 30
0.0
 11
-70.353055940857786
 21
-4.077328861553525
 31
0.0
  0
ARC
  5
1BE7
  8
247
 10
-70.709792961592314
 20
-4.5675203598923266
 30
0.0
 40
0.6062582015991211
 50
287.66957754739792
 51
90.236159842671555
  0
LINE
  5
1BE8
  8
247
 10
-70.997160979219842
 20
-5.2602492671797592
 30
0.0
 11
-70.1293624131401
 21
-4.392450701099988
 31
0.0
  0
LINE
  5
1BE9
  8
247
 10
-70.903118699365024
 20
-5.435614670957035
 30
0.0
 11
-70.107934958619921
 21
-4.64043093021189
 31
0.0
  0
ARC
  5
1BEA
  8
247
 10
-70.987939323896995
 20
-5.5375398911423162
 30
0.0
 40
0.6062530517578129
 50
270.0
 51
40.329840654167668
  0
LINE
  5
1BEB
  8
247
 10
-70.62435936691179
 20
-4.618039971239595
 30
0.0
 11
-70.218550856858997
 21
-4.2122314611868017
 31
0.0
  0
ARC
  5
1BEC
  8
247
 10
-72.121536125654814
 20
-5.2344087876266912
 30
0.0
 40
1.0306365966796871
 50
90.0
 51
270.0
1001
ACAD
1000
ASC_BOUNDS
1002
{
1070
    19
1005
1BF7
1002
}
  0
ARC
  5
1BED
  8
247
 10
-72.121536125654814
 20
-5.2344087876266912
 30
0.0
 40
1.273141479492186
 50
90.0
 51
270.0
1001
ACAD
1000
ASC_BOUNDS
1002
{
1070
    19
1005
1BF7
1002
}
  0
ARC
  5
1BEE
  8
247
 10
-68.450866569990751
 20
-5.3556612290329451
 30
0.0
 40
0.7881408691406251
 50
163.99975070172931
 51
304.96387329163082
1001
ACAD
1000
ASC_BOUNDS
1002
{
1070
    19
1005
1BF4
1002
}
  0
LINE
  5
1BEF
  8
247
 10
-68.208700432295416
 20
-4.9070253647751372
 30
0.0
 11
-67.502325310225103
 21
-4.9070253647751372
 31
0.0
1001
ACAD
1000
ASC_BOUNDS
1002
{
1070
    19
1005
1BF4
1002
}
  0
ARC
  5
1BF0
  8
247
 10
-68.15007921647512
 20
-4.4826509751267007
 30
0.0
 40
0.2546300053596497
 50
1.7101213820627319
 51
163.9983983544486
1001
ACAD
1000
ASC_BOUNDS
1002
{
1070
    19
1005
1BF4
1002
}
  0
ARC
  5
1BF1
  8
247
 10
-67.19871813249074
 20
-5.2344087876266912
 30
0.0
 40
1.0306365966796871
 50
270.0
 51
104.1274364964119
1001
ACAD
1000
ASC_BOUNDS
1002
{
1070
    19
1005
1BF7
1002
}
  0
ARC
  5
1BF2
  8
247
 10
-67.19871813249074
 20
-5.2344087876266912
 30
0.0
 40
1.273141479492186
 50
270.0
 51
104.7707939660942
1001
ACAD
1000
ASC_BOUNDS
1002
{
1070
    19
1005
1BF7
1002
}
  0
ARC
  5
1BF3
  8
247
 10
-68.27702623795949
 20
-4.7493990220016951
 30
0.0
 40
0.788132858276367
 50
53.444012197057837
 51
164.00018438768541
1001
ACAD
1000
ASC_BOUNDS
1002
{
1070
    19
1005
1BF4
1002
}
  0
INSERT
  5
1BF4
  8
247
  6
CONTINUOUS
  2
*X23
 10
0.0
 20
0.0
 30
0.0
1001
ACAD
1000
HATCH
1002
{
1070
    19
1000
ANSI31
1040
0.06
1040
6.2831853071795853
1000
ASC_BOUNDS
1070
     1
1070
     2
1070
    15
1005
1BAF
1005
1BF3
1005
1BB3
1005
1BEE
1005
1B93
1005
1B94
1005
1BEF
1005
1BB9
1005
1BB8
1005
1BB6
1005
1BB7
1005
1BB2
1005
1BF0
1005
1B95
1005
1BB0
1000
ASC_SEEDPOINT
1011
-145.2746695942827
1021
0.0
1031
0.0
1021
-15.957544545072929
1031
0.0
1000
R14_HATCH_DATA
1000
16B3
1011
1.0
1021
0.0
1031
0.0
1021
0.0
1031
0.0
1011
0.0
1021
0.0
1031
0.0
1021
1.0
1031
0.0
1011
0.0
1021
0.0
1031
0.0
1021
0.0
1031
1.0
1040
0.0
1010
0.0
1020
0.0
1030
1.0
1000
ANSI31
1070
     0
1070
     1
1071
        1
1071
       33
1071
       15
1070
     1
1040
-67.565917839521973
1040
-4.2714021958298201
1040
-67.638949455732899
1040
-4.0398012436813797
1070
     2
1040
-67.19871813249074
1040
-5.2344087876266912
1040
1.0306394577026341
1040
1.935084649241255
1040
2.3132934059675798
1070
     1
1070
     2
1040
-68.15007921647512
1040
-4.4826509751267007
1040
0.2546300053596497
1040
0.0298472487257506
1040
2.862312019282379
1070
     1
1070
     1
1040
-68.721670402998541
1040
-5.5522249497360701
1040
-68.394845451826654
1040
-4.4124574936813872
1070
     2
1040
-68.476904167646978
1040
-5.6224092759079412
1040
0.2546298265457154
1040
2.8623447390176122
1040
6.003937392607404
1070
     1
1070
     1
1040
-68.232137932295416
1040
-5.6925936020798229
1040
-68.076415886396973
1040
-5.1495302475876326
1070
     1
1040
-68.278234734053214
1040
-5.1495302475876326
1040
-68.076415886396973
1040
-5.1495302475876326
1070
     1
1040
-68.278234734053214
1040
-5.1495302475876326
1040
-68.208700432295416
1040
-4.9070253647751372
1070
     1
1040
-68.208700432295416
1040
-4.9070253647751372
1040
-67.502325310225103
1040
-4.9070253647751372
1070
     1
1040
-67.856963982100112
1040
-6.1437932290024246
1040
-67.502325310225103
1040
-4.9070253647751372
1070
     1
1040
-67.999218620771956
1040
-6.0015477456039852
1040
-67.856963982100112
1040
-6.1437932290024246
1070
     2
1040
-68.450866569990751
1040
-5.3556612290329451
1040
0.7881408691406251
1040
2.8623356221950562
1040
5.3226236885737537
1070
     1
1070
     2
1040
-67.162298454756353
1040
-5.3970979966110653
1040
2.0624633789062479
1040
2.708841361245514
1040
3.0158386434483879
1070
     1
1070
     2
1040
-68.27702623795949
1040
-4.7493990220016951
1040
0.788132858276367
1040
0.9327739783146679
1040
2.8623431914429101
1070
     1
1070
     2
1040
-67.19871813249074
1040
-5.2344087876266912
1040
1.2731420516967751
1040
1.923870239659649
1040
2.0694663713693782
1070
     1
1071
       15
1005
1BB0
1005
1B95
1005
1BF0
1005
1BB2
1005
1BB7
1005
1BB6
1005
1BB8
1005
1BB9
1005
1BEF
1005
1B94
1005
1B93
1005
1BEE
1005
1BB3
1005
1BF3
1005
1BAF
1070
     0
1070
     1
1040
6.2831853071795853
1040
0.06
1070
     0
1070
     1
1040
0.7853981633974481
1040
-145.2746695942827
1040
-15.957544545072929
1040
-0.1347038418160373
1040
0.1347038418160374
1070
     0
1071
        1
1040
-145.2746695942827
1040
-15.957544545072929
1040
0.0
1002
}
  0
LINE
  5
1BF5
  8
247
 10
-72.121536125654785
 20
-6.5075505469800401
 30
0.0
 11
-67.198718132490711
 21
-6.5075505469800401
 31
0.0
1001
ACAD
1000
ASC_BOUNDS
1002
{
1070
    19
1005
1BF7
1002
}
  0
LINE
  5
1BF6
  8
247
 10
-72.121536125654785
 20
-6.2650456704086812
 30
0.0
 11
-67.198718132490711
 21
-6.2650456704086812
 31
0.0
1001
ACAD
1000
ASC_BOUNDS
1002
{
1070
    19
1005
1BF7
1002
}
  0
INSERT
  5
1BF7
  8
247
  6
CONTINUOUS
  2
*X22
 10
0.0
 20
0.0
 30
0.0
1001
ACAD
1000
HATCH
1002
{
1070
    19
1000
ANSI31
1040
0.06
1040
6.2831853071795853
1000
ASC_BOUNDS
1070
     1
1070
     2
1070
    10
1005
1BAE
1005
1BF1
1005
1BF2
1005
1BF6
1005
1BF5
1005
1BED
1005
1BEC
1005
1BD0
1005
1BCE
1005
1BE1
1000
ASC_SEEDPOINT
1011
-145.2746695942827
1021
0.0
1031
0.0
1021
-15.957544545072929
1031
0.0
1000
R14_HATCH_DATA
1000
16B0
1011
1.0
1021
0.0
1031
0.0
1021
0.0
1031
0.0
1011
0.0
1021
0.0
1031
0.0
1021
1.0
1031
0.0
1011
0.0
1021
0.0
1031
0.0
1021
0.0
1031
1.0
1040
0.0
1010
0.0
1020
0.0
1030
1.0
1000
ANSI31
1070
     0
1070
     1
1071
        1
1071
       33
1071
       10
1070
     1
1040
-71.620733513350089
1040
-3.961267308134508
1040
-71.690267815107916
1040
-4.2037721909470047
1070
     1
1040
-72.121536125654785
1040
-3.961267308134508
1040
-71.620733513350089
1040
-3.961267308134508
1070
     1
1040
-72.121536125654785
1040
-4.2037721909470047
1040
-71.690267815107916
1040
-4.2037721909470047
1070
     2
1040
-72.121536125654814
1040
-5.2344087876266912
1040
1.0306365966796871
1040
1.570796326794895
1040
4.7123889803846879
1070
     1
1070
     2
1040
-72.121536125654814
1040
-5.2344087876266912
1040
1.273141479492186
1040
1.570796326794895
1040
4.7123889803846879
1070
     1
1070
     1
1040
-72.121536125654785
1040
-6.5075505469800401
1040
-67.198718132490711
1040
-6.5075505469800401
1070
     1
1040
-72.121536125654785
1040
-6.2650456704086812
1040
-67.198718132490711
1040
-6.2650456704086812
1070
     2
1040
-67.19871813249074
1040
-5.2344087876266912
1040
1.273141479492186
1040
4.7123889803846879
1040
8.1117806218165374
1070
     1
1070
     2
1040
-67.19871813249074
1040
-5.2344087876266912
1040
1.0306365966796871
1040
4.7123889803846879
1040
8.1005519157032833
1070
     1
1070
     1
1040
-67.450277580732916
1040
-4.2349367417282622
1040
-67.523309196943842
1040
-4.0033357895798201
1071
       10
1005
1BE1
1005
1BCE
1005
1BD0
1005
1BEC
1005
1BED
1005
1BF5
1005
1BF6
1005
1BF2
1005
1BF1
1005
1BAE
1070
     0
1070
     1
1040
6.2831853071795853
1040
0.06
1070
     0
1070
     1
1040
0.7853981633974481
1040
-145.2746695942827
1040
-15.957544545072929
1040
-0.1347038418160373
1040
0.1347038418160374
1070
     0
1071
        1
1040
-145.2746695942827
1040
-15.957544545072929
1040
0.0
1002
}
  0
TEXT
  5
1BF8
  8
247
 10
-65.119737232564532
 20
-6.1617941121172626
 30
0.0
 40
2.0
  1
ST14-MEGA6S-200
  7
YOKO
 11
-65.119737232564532
 21
-6.1617941121172626
 31
0.0
 73
     1
  0
LINE
  5
1BF9
  8
240
  6
CONTINUOUS
 10
-1.5000000000000271
 20
7.0000000000000142
 30
0.0
 11
-13.80000000000007
 21
7.0000000000000142
 31
0.0
1001
GRPNAME
1000
0000000G
  0
LINE
  5
1BFA
  8
240
  6
CONTINUOUS
 10
-1.5000000000000271
 20
-6.999999999999984
 30
0.0
 11
-13.80000000000001
 21
-6.999999999999984
 31
0.0
1001
GRPNAME
1000
0000000G
  0
LINE
  5
1BFB
  8
246
 10
-25.980000000008861
 20
3.000000000000155
 30
0.0
 11
-1.50000000000051
 21
3.0000000000000551
 31
0.0
  0
LINE
  5
1BFC
  8
246
 10
-3.3000000000004079
 20
4.5594922911975981
 30
0.0
 11
-13.124041842211961
 21
3.69999999999993
 31
0.0
  0
LINE
  5
1BFD
  8
246
 10
-3.3000000000004079
 20
-4.5594922911975839
 30
0.0
 11
-13.124041842211961
 21
-3.6999999999999438
 31
0.0
  0
LINE
  5
1BFE
  8
246
 10
-25.980000000008861
 20
-3.000000000000183
 30
0.0
 11
-1.50000000000051
 21
-3.0000000000000422
 31
0.0
  0
ARC
  5
1BFF
  8
240
 10
-199.59999999999999
 20
6.5999999999999801
 30
0.0
 40
0.4
 50
90.0
 51
180.0
  0
LINE
  5
1C00
  8
240
 10
-197.75
 20
7.0
 30
0.0
 11
-198.6750000000001
 21
6.8368975428446799
 31
0.0
  0
LINE
  5
1C01
  8
240
 10
-198.6750000000001
 20
6.8368975428446799
 30
0.0
 11
-199.59999999999991
 21
6.999999999999984
 31
0.0
  0
ARC
  5
1C02
  8
240
 10
-199.59999999999999
 20
-6.5999999999999934
 30
0.0
 40
0.4
 50
180.0
 51
270.0
  0
LINE
  5
1C03
  8
240
 10
-197.7499999999998
 20
-7.0000000000000142
 30
0.0
 11
-198.6749999999999
 21
-6.8368975428446799
 31
0.0
  0
LINE
  5
1C04
  8
240
 10
-198.6749999999999
 20
-6.8368975428446799
 30
0.0
 11
-199.59999999999991
 21
-7.0
 31
0.0
  0
LINE
  5
1C05
  8
240
 10
-200.0
 20
-6.5999999999999934
 30
0.0
 11
-200.0
 21
6.5999999999999801
 31
0.0
  0
LINE
  5
1C06
  8
241
 10
-197.75
 20
-7.0
 30
0.0
 11
-197.75
 21
6.9999999999999698
 31
0.0
  0
LINE
  5
1C07
  8
241
 10
-198.6750000000001
 20
6.8368975428446674
 30
0.0
 11
-198.6750000000001
 21
-6.8368975428445671
 31
0.0
  0
LINE
  5
1C08
  8
240
 10
-197.7499999999998
 20
-7.0000000000000142
 30
0.0
 11
-18.335861587693621
 21
-6.9999999999999831
 31
0.0
  0
LINE
  5
1C09
  8
240
 10
-197.75
 20
7.0
 30
0.0
 11
-18.33586158769462
 21
7.0000000000000284
 31
0.0
  0
LINE
  5
1C0A
  8
245
 10
2.7447309999999998
 20
0.0
 30
0.0
 11
-203.62864037617041
 21
0.0000000000000142
 31
0.0
  0
ENDBLK
  5
1C0C
  8
0
  0
ENDSEC
  0
SECTION
  2
ENTITIES
  0
TEXT
  5
12C4
  8
241
 10
-197.0
 20
42.0
 30
0.0
 40
5.0
  1
ST14-MEGA6S-200
  7
YOKO
 11
-197.0
 21
42.0
 31
0.0
 73
     1
  0
LINE
  5
1A62
  8
250
 10
-200.0
 20
7.0999999999999801
 30
0.0
 11
-200.0
 21
29.0
 31
0.0
  0
LINE
  5
1A63
  8
250
 10
0.0
 20
5.9257359999999721
 30
0.0
 11
0.0000000000000014
 21
29.0
 31
0.0
  0
LINE
  5
1A64
  8
250
 10
-197.77000000000001
 20
28.0
 30
0.0
 11
-2.2299999999999982
 21
28.0
 31
0.0
  0
LINE
  5
1A68
  8
250
 10
-1.0
 20
-7.0000000000000142
 30
0.0
 11
14.999999999999989
 21
-7.0000000000000169
 31
0.0
  0
LINE
  5
1A69
  8
250
 10
-1.0
 20
7.0000000000000142
 30
0.0
 11
15.0
 21
7.000000000000008
 31
0.0
  0
LINE
  5
1A6A
  8
250
 10
13.999999999999989
 20
-4.7700000000000173
 30
0.0
 11
13.999999999999989
 21
4.7700000000000111
 31
0.0
  0
LINE
  5
1A6E
  8
250
 10
-1.000000000000369
 20
-3.0000000000000839
 30
0.0
 11
7.999999999999992
 21
-3.000000000000087
 31
0.0
  0
LINE
  5
1A6F
  8
250
 10
-1.0000000000001421
 20
2.999999999999984
 30
0.0
 11
7.9999999999999929
 21
2.9999999999999831
 31
0.0
  0
LINE
  5
1A70
  8
250
 10
6.999999999999992
 20
-5.2300000000000866
 30
0.0
 11
6.999999999999992
 21
-7.460000000000087
 31
0.0
  0
LINE
  5
1A71
  8
250
 10
6.9999999999999929
 20
5.2299999999999809
 30
0.0
 11
7.0
 21
31.299470335505479
 31
0.0
  0
LINE
  5
1A72
  8
250
 10
6.999999999999992
 20
-3.000000000000087
 30
0.0
 11
6.9999999999999929
 21
2.9999999999999831
 31
0.0
  0
LINE
  5
1A7C
  8
250
 10
-200.09999999999991
 20
-7.0
 30
0.0
 11
-212.0
 21
-6.9999999999999947
 31
0.0
  0
LINE
  5
1A7D
  8
250
 10
-200.09999999999991
 20
6.999999999999984
 30
0.0
 11
-212.0
 21
6.9999999999999876
 31
0.0
  0
LINE
  5
1A7E
  8
250
 10
-211.0
 20
-4.769999999999996
 30
0.0
 11
-211.0
 21
4.769999999999988
 31
0.0
  0
TEXT
  5
1A82
  8
250
 10
-100.9779930529929
 20
29.0
 30
0.0
 40
3.0
  1
200
  0
LINE
  5
1A83
  8
250
 10
-2.2299999999999969
 20
28.371666666666659
 30
0.0
 11
0.0000000000000014
 21
28.0
 31
0.0
  0
LINE
  5
1A84
  8
250
 10
-2.2299999999999969
 20
27.62833333333333
 30
0.0
 11
0.0000000000000014
 21
28.0
 31
0.0
  0
LINE
  5
1A85
  8
250
 10
0.0000000000000014
 20
28.0
 30
0.0
 11
-2.2299999999999969
 21
28.0
 31
0.0
  0
LINE
  5
1A86
  8
250
 10
-197.77000000000001
 20
27.62833333333333
 30
0.0
 11
-200.0
 21
28.0
 31
0.0
  0
LINE
  5
1A87
  8
250
 10
-197.77000000000001
 20
28.371666666666659
 30
0.0
 11
-200.0
 21
28.0
 31
0.0
  0
LINE
  5
1A88
  8
250
 10
-200.0
 20
28.0
 30
0.0
 11
-197.77000000000001
 21
28.0
 31
0.0
  0
TEXT
  5
1A89
  8
250
 10
5.999999999999992
 20
7.8885714285714137
 30
0.0
 40
3.0
  1
MAX.
 50
90.0
  0
TEXT
  5
1A8A
  8
250
 10
5.999999999999992
 20
18.174285714285691
 30
0.0
 40
3.0
  1
\U+2205
 50
90.0
  0
TEXT
  5
1A8B
  8
250
 10
5.999999999999992
 20
20.888571428571421
 30
0.0
 40
3.0
  1
6.05
 50
90.0
  0
LINE
  5
1A8C
  8
250
 10
7.3716666666666599
 20
5.2299999999999818
 30
0.0
 11
6.9999999999999929
 21
2.9999999999999831
 31
0.0
  0
LINE
  5
1A8D
  8
250
 10
6.6283333333333267
 20
5.2299999999999818
 30
0.0
 11
6.9999999999999929
 21
2.9999999999999831
 31
0.0
  0
LINE
  5
1A8E
  8
250
 10
6.9999999999999929
 20
2.9999999999999831
 30
0.0
 11
6.9999999999999929
 21
5.2299999999999818
 31
0.0
  0
LINE
  5
1A8F
  8
250
 10
6.628333333333325
 20
-5.2300000000000848
 30
0.0
 11
6.999999999999992
 21
-3.000000000000087
 31
0.0
  0
LINE
  5
1A90
  8
250
 10
7.3716666666666582
 20
-5.2300000000000848
 30
0.0
 11
6.999999999999992
 21
-3.000000000000087
 31
0.0
  0
LINE
  5
1A91
  8
250
 10
6.999999999999992
 20
-3.000000000000087
 30
0.0
 11
6.999999999999992
 21
-5.2300000000000848
 31
0.0
  0
TEXT
  5
1A92
  8
250
 10
12.999999999999989
 20
-4.1428571428571441
 30
0.0
 40
3.0
  1
\U+2205
 50
90.0
  0
TEXT
  5
1A93
  8
250
 10
12.999999999999989
 20
-1.428571428571429
 30
0.0
 40
3.0
  1
14
 50
90.0
  0
LINE
  5
1A94
  8
250
 10
13.62833333333332
 20
4.7700000000000102
 30
0.0
 11
13.999999999999989
 21
7.0000000000000089
 31
0.0
  0
LINE
  5
1A95
  8
250
 10
14.37166666666665
 20
4.7700000000000102
 30
0.0
 11
13.999999999999989
 21
7.0000000000000089
 31
0.0
  0
LINE
  5
1A96
  8
250
 10
13.999999999999989
 20
7.0000000000000089
 30
0.0
 11
13.999999999999989
 21
4.7700000000000102
 31
0.0
  0
LINE
  5
1A97
  8
250
 10
14.37166666666665
 20
-4.7700000000000173
 30
0.0
 11
13.999999999999989
 21
-7.000000000000016
 31
0.0
  0
LINE
  5
1A98
  8
250
 10
13.62833333333332
 20
-4.7700000000000173
 30
0.0
 11
13.999999999999989
 21
-7.000000000000016
 31
0.0
  0
LINE
  5
1A99
  8
250
 10
13.999999999999989
 20
-7.000000000000016
 30
0.0
 11
13.999999999999989
 21
-4.7700000000000173
 31
0.0
  0
TEXT
  5
1A9A
  8
250
 10
-212.0
 20
-4.1428571428571717
 30
0.0
 40
3.0
  1
\U+2205
 50
90.0
  0
TEXT
  5
1A9B
  8
250
 10
-212.0
 20
-1.428571428571459
 30
0.0
 40
3.0
  1
14
 50
90.0
  0
LINE
  5
1A9C
  8
250
 10
-211.3716666666667
 20
4.769999999999988
 30
0.0
 11
-211.0
 21
6.9999999999999876
 31
0.0
  0
LINE
  5
1A9D
  8
250
 10
-210.6283333333333
 20
4.769999999999988
 30
0.0
 11
-211.0
 21
6.9999999999999876
 31
0.0
  0
LINE
  5
1A9E
  8
250
 10
-211.0
 20
6.9999999999999876
 30
0.0
 11
-211.0
 21
4.769999999999988
 31
0.0
  0
LINE
  5
1A9F
  8
250
 10
-210.6283333333333
 20
-4.769999999999996
 30
0.0
 11
-211.0
 21
-6.9999999999999947
 31
0.0
  0
LINE
  5
1AA0
  8
250
 10
-211.3716666666667
 20
-4.769999999999996
 30
0.0
 11
-211.0
 21
-6.9999999999999947
 31
0.0
  0
LINE
  5
1AA1
  8
250
 10
-211.0
 20
-6.9999999999999947
 30
0.0
 11
-211.0
 21
-4.769999999999996
 31
0.0
  0
INSERT
  5
1C0E
  8
240
  2
A$C3AF52770
 10
0.0
 20
0.0
 30
0.0
  0
VIEWPORT
  5
22
 67
     1
  8
0
 10
261.51769911504419
 20
148.5
 30
0.0
 40
523.0353982300885
 41
297.0
 68
     1
 69
     1
1001
ACAD
1000
MVIEW
1002
{
1070
    16
1010
0.0
1020
0.0
1030
0.0
1010
0.0
1020
0.0
1030
1.0
1040
0.0
1040
297.0
1040
261.51769911504419
1040
148.5
1040
50.0
1040
0.0
1040
0.0
1070
     0
1070
   100
1070
     1
1070
     1
1070
     0
1070
     0
1070
     0
1070
     0
1040
0.0
1040
0.0
1040
0.0
1040
1.0
1040
1.0
1040
10.0
1040
10.0
1070
     0
1002
{
1002
}
1002
}
1001
GENIUS_GENODEF_13
1002
{
1000
HIER
1070
     0
1002
}
1002
{
1000
MANEDIT
1070
     0
1002
}
1002
{
1000
NOSEL
1070
     0
1002
}
1002
{
1000
BEHIND
1070
     0
1002
}
1002
{
1000
OTHER
1070
     0
1002
}
1002
{
1000
REACTOR
1002
}
1001
GENIUS_GENOBJ-N-SDF_13
1002
{
1000
OWNER
1000
GEN
1002
}
1001
GENIUS_GENSCREG_15
1000
PF
1040
1.0
1000
DF
1040
1.0
1000
MIN
1011
0.0
1021
0.0
1031
0.0
1021
0.0
1031
0.0
1000
MAX
1011
523.0353982300885
1021
0.0
1031
0.0
1021
297.0
1031
0.0
1000
FLAGS
1070
     2
  0
ENDSEC
  0
EOF
