  0
SECTION
  2
HEADER
  9
$ACADVER
  1
AC1009
  9
$INSBASE
 10
0.0
 20
0.0
 30
0.0
  9
$EXTMIN
 10
-1.0
 20
-17.43424357
 30
0.0
  9
$EXTMAX
 10
178.0
 20
40.0
 30
0.0
  9
$LIMMIN
 10
0.0
 20
0.0
  9
$LIMMAX
 10
297.0
 20
210.0
  9
$ORTHOMODE
 70
     0
  9
$REGENMODE
 70
     1
  9
$FILLMODE
 70
     1
  9
$QTEXTMODE
 70
     0
  9
$MIRRTEXT
 70
     1
  9
$DRAGMODE
 70
     2
  9
$LTSCALE
 40
10.0
  9
$OSMODE
 70
    32
  9
$ATTMODE
 70
     1
  9
$TEXTSIZE
 40
3.0
  9
$TRACEWID
 40
1.0
  9
$TEXTSTYLE
  7
YOKO
  9
$CLAYER
  8
240
  9
$CELTYPE
  6
BYLAYER
  9
$CECOLOR
 62
   256
  9
$DIMSCALE
 40
1.0
  9
$DIMASZ
 40
2.2299999999999991
  9
$DIMEXO
 40
0.5
  9
$DIMDLI
 40
7.0
  9
$DIMRND
 40
0.0
  9
$DIMDLE
 40
0.0
  9
$DIMEXE
 40
1.0
  9
$DIMTP
 40
0.0
  9
$DIMTM
 40
0.01
  9
$DIMTXT
 40
2.7999999999999989
  9
$DIMCEN
 40
0.0
  9
$DIMTSZ
 40
0.0
  9
$DIMTOL
 70
     0
  9
$DIMLIM
 70
     0
  9
$DIMTIH
 70
     0
  9
$DIMTOH
 70
     0
  9
$DIMSE1
 70
     0
  9
$DIMSE2
 70
     0
  9
$DIMTAD
 70
     3
  9
$DIMZIN
 70
     9
  9
$DIMBLK
  1
OPEN
  9
$DIMASO
 70
     1
  9
$DIMSHO
 70
     1
  9
$DIMPOST
  1

  9
$DIMAPOST
  1

  9
$DIMALT
 70
     0
  9
$DIMALTD
 70
     2
  9
$DIMALTF
 40
25.399999999999999
  9
$DIMLFAC
 40
1.0
  9
$DIMTOFL
 70
     1
  9
$DIMTVP
 40
0.0
  9
$DIMTIX
 70
     1
  9
$DIMSOXD
 70
     0
  9
$DIMSAH
 70
     0
  9
$DIMBLK1
  1

  9
$DIMBLK2
  1

  9
$DIMSTYLE
  2
BIGT
  9
$DIMCLRD
 70
   256
  9
$DIMCLRE
 70
   256
  9
$DIMCLRT
 70
    40
  9
$DIMTFAC
 40
1.0
  9
$DIMGAP
 40
1.0
  9
$LUNITS
 70
     2
  9
$LUPREC
 70
     6
  9
$SKETCHINC
 40
1.0
  9
$FILLETRAD
 40
0.0
  9
$AUNITS
 70
     0
  9
$AUPREC
 70
     6
  9
$MENU
  1
.
  9
$ELEVATION
 40
0.0
  9
$PELEVATION
 40
0.0
  9
$THICKNESS
 40
0.0
  9
$LIMCHECK
 70
     0
  9
$BLIPMODE
 70
     0
  9
$CHAMFERA
 40
0.2
  9
$CHAMFERB
 40
0.2
  9
$SKPOLY
 70
     0
  9
$TDCREATE
 40
2457476.6045919331
  9
$TDUPDATE
 40
2457476.6428679172
  9
$TDINDWG
 40
0.0096462616
  9
$TDUSRTIMER
 40
0.0096462269
  9
$USRTIMER
 70
     1
  9
$ANGBASE
 50
0.0
  9
$ANGDIR
 70
     0
  9
$PDMODE
 70
     1
  9
$PDSIZE
 40
0.0
  9
$PLINEWID
 40
0.0
  9
$COORDS
 70
     1
  9
$SPLFRAME
 70
     0
  9
$SPLINETYPE
 70
     6
  9
$SPLINESEGS
 70
     4
  9
$ATTDIA
 70
     1
  9
$ATTREQ
 70
     1
  9
$HANDLING
 70
     1
  9
$HANDSEED
  5
456A
  9
$SURFTAB1
 70
     6
  9
$SURFTAB2
 70
     6
  9
$SURFTYPE
 70
     6
  9
$SURFU
 70
     6
  9
$SURFV
 70
     6
  9
$UCSNAME
  2

  9
$UCSORG
 10
0.0
 20
0.0
 30
0.0
  9
$UCSXDIR
 10
1.0
 20
0.0
 30
0.0
  9
$UCSYDIR
 10
0.0
 20
1.0
 30
0.0
  9
$PUCSNAME
  2

  9
$PUCSORG
 10
0.0
 20
0.0
 30
0.0
  9
$PUCSXDIR
 10
1.0
 20
0.0
 30
0.0
  9
$PUCSYDIR
 10
0.0
 20
1.0
 30
0.0
  9
$USERI1
 70
     1
  9
$USERI2
 70
     0
  9
$USERI3
 70
     0
  9
$USERI4
 70
     0
  9
$USERI5
 70
     0
  9
$USERR1
 40
0.0
  9
$USERR2
 40
0.0
  9
$USERR3
 40
0.0
  9
$USERR4
 40
0.0
  9
$USERR5
 40
0.0
  9
$WORLDVIEW
 70
     1
  9
$SHADEDGE
 70
     3
  9
$SHADEDIF
 70
    70
  9
$TILEMODE
 70
     1
  9
$MAXACTVP
 70
    16
  9
$PLIMCHECK
 70
     0
  9
$PEXTMIN
 10
1.0000000000000000E+020
 20
1.0000000000000000E+020
 30
1.0000000000000000E+020
  9
$PEXTMAX
 10
-1.0000000000000000E+020
 20
-1.0000000000000000E+020
 30
-1.0000000000000000E+020
  9
$PLIMMIN
 10
0.0
 20
0.0
  9
$PLIMMAX
 10
420.0
 20
297.0
  9
$UNITMODE
 70
     0
  9
$VISRETAIN
 70
     1
  9
$PLINEGEN
 70
     0
  9
$PSLTSCALE
 70
     1
  0
ENDSEC
  0
SECTION
  2
TABLES
  0
TABLE
  2
VPORT
 70
     1
  0
VPORT
  2
*ACTIVE
 70
     0
 10
0.0
 20
0.0
 11
1.0
 21
1.0
 12
80.374627563710746
 22
14.51697883477723
 13
0.0
 23
0.0
 14
7.0
 24
7.0
 15
7.0
 25
7.0
 16
0.0
 26
0.0
 36
1.0
 17
0.0
 27
0.0
 37
0.0
 40
183.19229518496849
 41
1.3673469387755099
 42
50.0
 43
0.0
 44
0.0
 50
0.0
 51
0.0
 71
     0
 72
  2000
 73
     1
 74
     0
 75
     0
 76
     1
 77
     0
 78
     0
  0
ENDTAB
  0
TABLE
  2
LTYPE
 70
    16
  0
LTYPE
  2
CONTINUOUS
 70
     0
  3
Solid line
 72
    65
 73
     0
 40
0.0
  0
LTYPE
  2
CENTER2
 70
     0
  3
___ _ ___ _ ___ _ ___ _ ___ _ ___ _ ___ _ ___ _
 72
    65
 73
     4
 40
1.125
 49
0.75
 49
-0.125
 49
0.125
 49
-0.125
  0
LTYPE
  2
HIDDEN2
 70
     0
  3
_ _ _ _ _ _ _ _ _ _ _ _ _ _ _ _ _ _ _ _ _ _ _ _
 72
    65
 73
     2
 40
0.1875
 49
0.125
 49
-0.0625
  0
LTYPE
  2
PHANTOM2
 70
     0
  3
___ _ _ ___ _ _ ___ _ _ ___ _ _ ___ _ _ ___ _ _
 72
    65
 73
     6
 40
1.25
 49
0.625
 49
-0.125
 49
0.125
 49
-0.125
 49
0.125
 49
-0.125
  0
LTYPE
  2
AM_ISO02W050
 70
     0
  3
__ __ __ __ __ __ __ __ __ __ __ __ __ __ __
 72
    65
 73
     2
 40
7.5
 49
6.0
 49
-1.5
  0
LTYPE
  2
AMCONSTR
 70
     0
  3
_______________________
 72
    65
 73
     2
 40
9999.0
 49
9999.0
 49
0.0
  0
LTYPE
  2
ACISOWELD
 70
     0
  3
_ _ _ _ _
 72
    65
 73
     2
 40
2.0
 49
2.0
 49
-1.0
  0
LTYPE
  2
ACISOTGB
 70
     0
  3
__ . . __ . .
 72
    65
 73
     6
 40
9.0
 49
4.0
 49
-1.0
 49
1.0
 49
-1.0
 49
1.0
 49
-1.0
  0
LTYPE
  2
ACISOTGL
 70
     0
  3
_ _ _ _ _
 72
    65
 73
     2
 40
3.0
 49
2.0
 49
-1.0
  0
LTYPE
  2
ACJISTGB
 70
     0
  3
__ . . __ . .
 72
    65
 73
     6
 40
9.0
 49
4.0
 49
-1.0
 49
1.0
 49
-1.0
 49
1.0
 49
-1.0
  0
LTYPE
  2
ACJISTGL
 70
     0
  3
_ _ _ _ _
 72
    65
 73
     2
 40
3.0
 49
2.0
 49
-1.0
  0
ENDTAB
  0
TABLE
  2
LAYER
 70
     8
  0
LAYER
  2
0
 70
     0
 62
     7
  6
CONTINUOUS
  0
LAYER
  2
DEFPOINTS
 70
     0
 62
     7
  6
CONTINUOUS
  0
LAYER
  2
245
 70
     0
 62
     2
  6
CENTER2
  0
LAYER
  2
240
 70
     0
 62
     4
  6
CONTINUOUS
  0
LAYER
  2
241
 70
     0
 62
   211
  6
CONTINUOUS
  0
LAYER
  2
243
 70
     0
 62
   211
  6
HIDDEN2
  0
LAYER
  2
247
 70
     0
 62
    60
  6
CONTINUOUS
  0
LAYER
  2
250
 70
     0
 62
     3
  6
CONTINUOUS
  0
ENDTAB
  0
TABLE
  2
STYLE
 70
     7
  0
STYLE
  2
STANDARD
 70
     0
 40
0.0
 41
1.0
 50
0.0
 71
     0
 42
3.0
  3
romans.shx
  4
extfont.shx
  0
STYLE
  2
ACISOTS
 70
     0
 40
1.0
 41
1.0
 50
0.0
 71
     0
 42
3.0
  3
amgdt.shx
  4
extfont.shx
  0
STYLE
  2
ACISOGDT
 70
     0
 40
0.0
 41
1.0
 50
0.0
 71
     0
 42
3.0
  3
amgdt.shx
  4
extfont.shx
  0
STYLE
  2
ACJISTS
 70
     0
 40
1.0
 41
1.0
 50
0.0
 71
     0
 42
3.0
  3
amgdt.shx
  4
extfont.shx
  0
STYLE
  2
ACJISGDT
 70
     0
 40
0.0
 41
1.0
 50
0.0
 71
     0
 42
3.0
  3
amgdt.shx
  4
extfont.shx
  0
STYLE
  2
YOKO
 70
     0
 40
0.0
 41
1.0
 50
0.0
 71
     0
 42
3.0
  3
romans.shx
  4
extfont.shx
  0
ENDTAB
  0
TABLE
  2
VIEW
 70
     0
  0
ENDTAB
  0
TABLE
  2
UCS
 70
     0
  0
ENDTAB
  0
TABLE
  2
APPID
 70
    34
  0
APPID
  2
ACAD
 70
     0
  0
APPID
  2
GLOBAL
 70
     0
  0
APPID
  2
DETAIL
 70
     0
  0
APPID
  2
GRPNAME
 70
     0
  0
APPID
  2
GPARA
 70
     0
  0
APPID
  2
MCAD_NO_VIS
 70
     0
  0
APPID
  2
ACAD_TEMP_GRAPHIC
 70
     0
  0
APPID
  2
ACATTRIBSERVICES
 70
     0
  0
APPID
  2
GENIUS_GENSCREG_15
 70
     0
  0
APPID
  2
GENIUS_GENODEF_13
 70
     0
  0
APPID
  2
GENIUS_GENOBJ-N-SDF_13
 70
     0
  0
APPID
  2
GENIUS_GENREC_14
 70
     0
  0
APPID
  2
GENIUS_GENOBJ-N-REC_13
 70
     0
  0
APPID
  2
GENIUS_GENDIMSH_14
 70
     0
  0
APPID
  2
GENIUS_GENOBJ-N-DIM_13
 70
     0
  0
APPID
  2
GENIUS_GENDIM_13
 70
     0
  0
APPID
  2
GENIUS_GENDTOL_13
 70
     0
  0
APPID
  2
GENIUS_GENOLIS_13
 70
     0
  0
APPID
  2
GENIUS_GENOENT_13
 70
     0
  0
APPID
  2
GENIUS_GENOBJ-F-FEM_13
 70
     0
  0
APPID
  2
GENIUS_GENOREF_13
 70
     0
  0
APPID
  2
GENIUS_GEFFEM_13
 70
     0
  0
APPID
  2
GENIUS_GEFFEMP_13
 70
     0
  0
APPID
  2
AD_DRAW
 70
     0
  0
APPID
  2
DESIGNERASSEMBLIES
 70
     0
  0
APPID
  2
ACADM_DIM_EDIT
 70
     0
  0
APPID
  2
AMDT_DM_ADJ
 70
     0
  0
APPID
  2
ITEMNAME
 70
     0
  0
APPID
  2
GENIUS_GENOBJ-N-FIL_13
 70
     0
  0
APPID
  2
GENIUS_GENFIL_13
 70
     0
  0
APPID
  2
GENIUS_GENOBJ-N-CHA_13
 70
     0
  0
APPID
  2
ACAD_NAV_VCDISPLAY
 70
     0
  0
APPID
  2
ACAECLAYERSTANDARD
 70
     0
  0
APPID
  2
ACAD_MLEADERVER
 70
     0
  0
ENDTAB
  0
TABLE
  2
DIMSTYLE
 70
    29
  0
DIMSTYLE
  2
BIGT
 70
     0
  3

  4

  5
OPEN
  6

  7

 40
1.0
 41
2.2299999999999991
 42
0.5
 43
7.0
 44
1.0
 45
0.0
 46
0.0
 47
0.0
 48
0.01
140
2.7999999999999989
141
0.0
142
0.0
143
25.399999999999999
144
1.0
145
0.0
146
1.0
147
1.0
 71
     0
 72
     0
 73
     0
 74
     0
 75
     0
 76
     0
 77
     3
 78
     9
170
     0
171
     2
172
     1
173
     0
174
     1
175
     0
176
   256
177
   256
178
    40
  0
DIMSTYLE
  2
AM_ISO
 70
     0
  3

  4
"
  5

  6

  7

 40
1.0
 41
2.5
 42
1.0
 43
10.0
 44
1.0
 45
0.0
 46
0.0
 47
0.1
 48
0.1
140
3.5
141
0.0
142
0.0
143
0.0393701
144
1.0
145
0.0
146
0.71
147
1.5
 71
     0
 72
     0
 73
     0
 74
     0
 75
     0
 76
     0
 77
     1
 78
     8
170
     0
171
     2
172
     1
173
     0
174
     0
175
     0
176
   256
177
   256
178
     2
  0
DIMSTYLE
  2
AM_ISO$3
 70
     0
  3

  4
"
  5

  6

  7

 40
1.0
 41
2.5
 42
1.0
 43
10.0
 44
1.0
 45
0.0
 46
0.0
 47
0.1
 48
0.1
140
3.5
141
0.0
142
0.0
143
0.0393701
144
1.0
145
0.0
146
0.71
147
1.5
 71
     0
 72
     0
 73
     0
 74
     1
 75
     0
 76
     0
 77
     1
 78
     8
170
     0
171
     2
172
     0
173
     0
174
     0
175
     0
176
   256
177
   256
178
     2
  0
DIMSTYLE
  2
AM_ISO$4
 70
     0
  3

  4
"
  5

  6

  7

 40
1.0
 41
2.5
 42
1.0
 43
10.0
 44
1.0
 45
0.0
 46
0.0
 47
0.1
 48
0.1
140
3.5
141
0.0
142
0.0
143
0.0393701
144
1.0
145
0.0
146
0.71
147
1.5
 71
     0
 72
     0
 73
     0
 74
     1
 75
     0
 76
     0
 77
     1
 78
     8
170
     0
171
     2
172
     0
173
     0
174
     0
175
     0
176
   256
177
   256
178
     2
  0
DIMSTYLE
  2
AM_ISO$6
 70
     0
  3

  4
"
  5

  6

  7

 40
1.0
 41
2.5
 42
1.0
 43
10.0
 44
1.0
 45
0.0
 46
0.0
 47
0.1
 48
0.1
140
3.5
141
0.0
142
0.0
143
0.0393701
144
1.0
145
0.0
146
0.71
147
1.5
 71
     0
 72
     0
 73
     0
 74
     0
 75
     0
 76
     0
 77
     0
 78
     8
170
     0
171
     2
172
     1
173
     0
174
     0
175
     0
176
   256
177
   256
178
     2
  0
DIMSTYLE
  2
AM_ISO$7
 70
     0
  3

  4
"
  5

  6

  7

 40
1.0
 41
2.5
 42
1.0
 43
10.0
 44
1.0
 45
0.0
 46
0.0
 47
0.1
 48
0.1
140
5.0
141
0.0
142
0.0
143
0.0393701
144
1.0
145
0.0
146
0.71
147
1.5
 71
     0
 72
     0
 73
     0
 74
     0
 75
     0
 76
     0
 77
     1
 78
     8
170
     0
171
     2
172
     1
173
     0
174
     0
175
     0
176
   256
177
   256
178
     2
  0
DIMSTYLE
  2
AM_ISO$SF
 70
     0
  3

  4
"
  5

  6

  7

 40
1.0
 41
2.5
 42
1.0
 43
10.0
 44
1.0
 45
0.0
 46
0.0
 47
0.1
 48
0.1
140
3.5
141
0.0
142
0.0
143
0.0393701
144
1.0
145
0.0
146
0.71
147
1.5
 71
     0
 72
     0
 73
     0
 74
     0
 75
     1
 76
     1
 77
     1
 78
     8
170
     0
171
     2
172
     1
173
     0
174
     0
175
     0
176
   256
177
   256
178
     2
  0
DIMSTYLE
  2
AM_ISO$SH
 70
     0
  3

  4
"
  5

  6
GENAXEH
  7

 40
1.0
 41
2.5
 42
1.0
 43
10.0
 44
1.0
 45
0.0
 46
0.0
 47
0.1
 48
0.1
140
3.5
141
0.0
142
0.0
143
0.0393701
144
2.0
145
0.0
146
0.71
147
1.5
 71
     0
 72
     0
 73
     0
 74
     0
 75
     1
 76
     1
 77
     1
 78
     8
170
     0
171
     2
172
     1
173
     1
174
     0
175
     0
176
   256
177
   256
178
     2
  0
DIMSTYLE
  2
BIGT$2
 70
     0
  3

  4

  5
OPEN
  6

  7

 40
1.0
 41
2.2299999999999991
 42
0.5
 43
7.0
 44
1.0
 45
0.0
 46
0.0
 47
0.0
 48
0.01
140
2.7999999999999989
141
0.0
142
0.0
143
25.399999999999999
144
1.0
145
0.0
146
1.0
147
1.0
 71
     0
 72
     0
 73
     0
 74
     0
 75
     0
 76
     0
 77
     3
 78
     9
170
     0
171
     2
172
     1
173
     0
174
     0
175
     0
176
   256
177
   256
178
    40
  0
DIMSTYLE
  2
BIGT$3
 70
     0
  3

  4

  5
OPEN
  6

  7

 40
1.0
 41
2.2299999999999991
 42
0.5
 43
2.5
 44
1.0
 45
0.0
 46
0.0
 47
0.0
 48
0.01
140
2.7999999999999989
141
0.0
142
0.0
143
25.399999999999999
144
1.0
145
0.0
146
1.0
147
1.0
 71
     0
 72
     0
 73
     0
 74
     0
 75
     0
 76
     0
 77
     3
 78
     9
170
     0
171
     2
172
     1
173
     0
174
     0
175
     0
176
   256
177
   256
178
    40
  0
DIMSTYLE
  2
BIGT$7
 70
     0
  3

  4

  5
OPEN
  6

  7

 40
0.0
 41
2.2299999999999991
 42
0.5
 43
7.0
 44
1.0
 45
0.0
 46
0.0
 47
0.0
 48
0.01
140
2.7999999999999989
141
0.0
142
0.0
143
25.399999999999999
144
1.0
145
0.0
146
1.0
147
1.0
 71
     0
 72
     0
 73
     0
 74
     0
 75
     0
 76
     0
 77
     3
 78
     9
170
     0
171
     2
172
     0
173
     0
174
     0
175
     0
176
   256
177
   256
178
    40
  0
DIMSTYLE
  2
BIGT$6
 70
     0
  3

  4

  5
OPEN
  6

  7

 40
1.0
 41
2.2299999999999991
 42
0.5
 43
2.5
 44
1.0
 45
0.0
 46
0.0
 47
0.0
 48
0.01
140
2.7999999999999989
141
0.0
142
0.0
143
25.399999999999999
144
1.0
145
0.0
146
1.0
147
1.0
 71
     0
 72
     0
 73
     0
 74
     0
 75
     0
 76
     0
 77
     3
 78
     9
170
     0
171
     2
172
     1
173
     0
174
     0
175
     0
176
   256
177
   256
178
    40
  0
DIMSTYLE
  2
BIGT$0
 70
     0
  3

  4

  5
OPEN
  6

  7

 40
1.0
 41
2.2299999999999991
 42
0.5
 43
7.0
 44
1.0
 45
0.0
 46
0.0
 47
0.0
 48
0.01
140
2.7999999999999989
141
0.0
142
0.0
143
25.399999999999999
144
1.0
145
0.0
146
1.0
147
1.0
 71
     0
 72
     0
 73
     0
 74
     0
 75
     0
 76
     0
 77
     3
 78
     9
170
     0
171
     2
172
     1
173
     0
174
     1
175
     0
176
   256
177
   256
178
    40
  0
DIMSTYLE
  2
BIGT$4
 70
     0
  3

  4

  5
OPEN
  6

  7

 40
1.0
 41
2.2299999999999991
 42
0.5
 43
2.5
 44
1.0
 45
0.0
 46
0.0
 47
0.0
 48
0.01
140
2.7999999999999989
141
0.0
142
0.0
143
25.399999999999999
144
1.0
145
0.0
146
1.0
147
1.0
 71
     0
 72
     0
 73
     0
 74
     0
 75
     0
 76
     0
 77
     3
 78
     9
170
     0
171
     2
172
     1
173
     0
174
     0
175
     0
176
   256
177
   256
178
    40
  0
DIMSTYLE
  2
BIGT$SH
 70
     0
  3

  4

  5
OPEN
  6

  7

 40
1.0
 41
2.2299999999999991
 42
0.5
 43
7.0
 44
1.0
 45
0.0
 46
0.0
 47
0.0
 48
0.0
140
2.7999999999999989
141
0.0
142
0.0
143
25.399999999999999
144
1.0
145
0.0
146
1.0
147
1.0
 71
     0
 72
     0
 73
     0
 74
     0
 75
     0
 76
     0
 77
     3
 78
     9
170
     0
171
     2
172
     1
173
     0
174
     0
175
     0
176
   256
177
   256
178
    40
  0
DIMSTYLE
  2
BIGT$SF
 70
     0
  3

  4

  5
OPEN
  6

  7

 40
1.0
 41
2.2299999999999991
 42
0.5
 43
7.0
 44
1.0
 45
0.0
 46
0.0
 47
0.0
 48
0.0
140
2.7999999999999989
141
0.0
142
0.0
143
25.399999999999999
144
1.0
145
0.0
146
1.0
147
1.0
 71
     0
 72
     0
 73
     0
 74
     0
 75
     0
 76
     0
 77
     3
 78
     9
170
     0
171
     2
172
     1
173
     0
174
     0
175
     0
176
   256
177
   256
178
    40
  0
DIMSTYLE
  2
TECHNICAL_OSAKA
 70
     0
  3

  4
"
  5
OPEN30
  6

  7

 40
1.0
 41
2.5
 42
1.0
 43
10.0
 44
1.0
 45
0.0
 46
0.0
 47
0.1
 48
0.1
140
2.7999999999999989
141
0.0
142
0.0
143
0.0393701
144
1.0
145
0.0
146
0.71
147
1.5
 71
     0
 72
     0
 73
     0
 74
     0
 75
     0
 76
     0
 77
     3
 78
     8
170
     0
171
     2
172
     1
173
     0
174
     0
175
     0
176
   256
177
   256
178
    40
  0
DIMSTYLE
  2
TECHNICAL_OSAKA$3
 70
     0
  3

  4
"
  5
OPEN30
  6

  7

 40
1.0
 41
2.5
 42
1.0
 43
10.0
 44
1.0
 45
0.0
 46
0.0
 47
0.1
 48
0.1
140
2.7999999999999989
141
0.0
142
0.0
143
0.0393701
144
1.0
145
0.0
146
0.71
147
1.5
 71
     0
 72
     0
 73
     0
 74
     1
 75
     0
 76
     0
 77
     3
 78
     8
170
     0
171
     2
172
     0
173
     0
174
     0
175
     0
176
   256
177
   256
178
    40
  0
DIMSTYLE
  2
TECHNICAL_OSAKA$4
 70
     0
  3

  4
"
  5
OPEN30
  6

  7

 40
1.0
 41
2.5
 42
1.0
 43
10.0
 44
1.0
 45
0.0
 46
0.0
 47
0.1
 48
0.1
140
2.7999999999999989
141
0.0
142
0.0
143
0.0393701
144
1.0
145
0.0
146
0.71
147
1.5
 71
     0
 72
     0
 73
     0
 74
     1
 75
     0
 76
     0
 77
     3
 78
     8
170
     0
171
     2
172
     0
173
     0
174
     0
175
     0
176
   256
177
   256
178
    40
  0
DIMSTYLE
  2
TECHNICAL_OSAKA$6
 70
     0
  3

  4
"
  5
OPEN30
  6

  7

 40
1.0
 41
2.5
 42
1.0
 43
10.0
 44
1.0
 45
0.0
 46
0.0
 47
0.1
 48
0.1
140
2.7999999999999989
141
0.0
142
0.0
143
0.0393701
144
1.0
145
0.0
146
0.71
147
1.5
 71
     0
 72
     0
 73
     0
 74
     0
 75
     0
 76
     0
 77
     0
 78
     8
170
     0
171
     2
172
     1
173
     0
174
     0
175
     0
176
   256
177
   256
178
    40
  0
DIMSTYLE
  2
TECHNICAL_OSAKA$7
 70
     0
  3

  4
"
  5
OPEN30
  6

  7

 40
1.0
 41
2.5
 42
1.0
 43
10.0
 44
1.0
 45
0.0
 46
0.0
 47
0.1
 48
0.1
140
2.7999999999999989
141
0.0
142
0.0
143
0.0393701
144
1.0
145
0.0
146
0.71
147
1.5
 71
     0
 72
     0
 73
     0
 74
     0
 75
     0
 76
     0
 77
     3
 78
     8
170
     0
171
     2
172
     1
173
     0
174
     0
175
     0
176
   256
177
   256
178
    40
  0
DIMSTYLE
  2
TECHNICAL_OSAKA$SF
 70
     0
  3

  4
"
  5
OPEN30
  6
OPEN30
  7
OPEN30
 40
1.0
 41
2.5
 42
1.0
 43
10.0
 44
1.0
 45
0.0
 46
0.0
 47
0.1
 48
0.1
140
3.5
141
0.0
142
0.0
143
0.0393701
144
1.0
145
0.0
146
0.71
147
1.5
 71
     0
 72
     0
 73
     0
 74
     0
 75
     1
 76
     1
 77
     3
 78
     8
170
     0
171
     2
172
     1
173
     0
174
     0
175
     0
176
   256
177
   256
178
    40
  0
DIMSTYLE
  2
TECHNICAL_OSAKA$SH
 70
     0
  3

  4
"
  5
OPEN30
  6
GENAXEH
  7
OPEN30
 40
1.0
 41
2.5
 42
1.0
 43
10.0
 44
1.0
 45
0.0
 46
0.0
 47
0.1
 48
0.1
140
3.5
141
0.0
142
0.0
143
0.0393701
144
2.0
145
0.0
146
0.71
147
1.5
 71
     0
 72
     0
 73
     0
 74
     0
 75
     1
 76
     1
 77
     3
 78
     8
170
     0
171
     2
172
     1
173
     1
174
     0
175
     0
176
   256
177
   256
178
    40
  0
ENDTAB
  0
ENDSEC
  0
SECTION
  2
BLOCKS
  0
BLOCK
  8
0
  2
$MODEL_SPACE
 70
     0
 10
0.0
 20
0.0
 30
0.0
  3
$MODEL_SPACE
  1

  0
ENDBLK
  5
1C
  8
0
  0
BLOCK
 67
     1
  8
0
  2
$PAPER_SPACE
 70
     0
 10
0.0
 20
0.0
 30
0.0
  3
$PAPER_SPACE
  1

  0
ENDBLK
  5
19
 67
     1
  8
0
  0
BLOCK
  8
0
  2
_OPEN
 70
     0
 10
0.0
 20
0.0
 30
0.0
  3
_OPEN
  1

  0
LINE
  5
4471
  8
0
  6
BYBLOCK
 62
     0
 10
-1.0
 20
0.1666666666666666
 30
0.0
 11
0.0
 21
0.0
 31
0.0
  0
LINE
  5
4472
  8
0
  6
BYBLOCK
 62
     0
 10
-1.0
 20
-0.1666666666666666
 30
0.0
 11
0.0
 21
0.0
 31
0.0
  0
LINE
  5
4473
  8
0
  6
BYBLOCK
 62
     0
 10
0.0
 20
0.0
 30
0.0
 11
-1.0
 21
0.0
 31
0.0
  0
ENDBLK
  5
4474
  8
0
  0
BLOCK
  8
0
  2
GENAXEH
 70
     0
 10
0.0
 20
0.0
 30
0.0
  3
GENAXEH
  1

  0
LINE
  5
44AC
  8
0
 10
-1.0
 20
0.0
 30
0.0
 11
1.0
 21
0.0
 31
0.0
  0
ENDBLK
  5
44AD
  8
0
  0
BLOCK
  8
0
  2
_OPEN30
 70
     0
 10
0.0
 20
0.0
 30
0.0
  3
_OPEN30
  1

  0
LINE
  5
44E8
  8
0
  6
BYBLOCK
 62
     0
 10
-1.0
 20
0.26794919
 30
0.0
 11
0.0
 21
0.0
 31
0.0
  0
LINE
  5
44E9
  8
0
  6
BYBLOCK
 62
     0
 10
0.0
 20
0.0
 30
0.0
 11
-1.0
 21
-0.26794919
 31
0.0
  0
LINE
  5
44EA
  8
0
  6
BYBLOCK
 62
     0
 10
0.0
 20
0.0
 30
0.0
 11
-1.0
 21
0.0
 31
0.0
  0
ENDBLK
  5
44EB
  8
0
  0
BLOCK
  8
0
  2
*U4
 70
     1
 10
0.0
 20
0.0
 30
0.0
  3
*U4
  1

  0
TEXT
  5
42D0
  8
250
 10
16.0
 20
-4.2857141857142782
 30
0.0
 40
3.0
  1
\U+220514
 50
90.0
  0
ENDBLK
  5
42D1
  8
0
  0
BLOCK
  8
0
  2
*U5
 70
     1
 10
0.0
 20
0.0
 30
0.0
  3
*U5
  1

  0
TEXT
  5
43BE
  8
250
 10
9.0
 20
-12.29999999999999
 30
0.0
 40
3.0
  1
max.\U+03C66.05
 50
90.0
  0
ENDBLK
  5
43BF
  8
0
  0
ENDSEC
  0
SECTION
  2
ENTITIES
  0
TEXT
  5
4261
  8
241
  6
CONTINUOUS
 10
0.0000000000000002
 20
35.0
 30
0.0
 40
5.0
  1
ST14-MEGA6S-160
  7
YOKO
 11
0.0000000000000002
 21
35.0
 31
0.0
 73
     1
  0
LINE
  5
426B
  8
240
  6
CONTINUOUS
 10
142.3200000000019
 20
-7.0
 30
0.0
 11
0.0
 21
-7.0
 31
0.0
  0
LINE
  5
426C
  8
240
  6
CONTINUOUS
 10
142.3200000000019
 20
7.0
 30
0.0
 11
0.0
 21
7.0
 31
0.0
  0
LINE
  5
426D
  8
245
  6
CENTER2
 10
161.0
 20
0.0
 30
0.0
 11
-1.0
 21
0.0
 31
0.0
  0
LINE
  5
426F
  8
240
  6
CONTINUOUS
 10
0.0
 20
-7.0
 30
0.0
 11
0.0
 21
7.0
 31
0.0
  0
LINE
  5
42AC
  8
250
  6
CONTINUOUS
 10
0.0
 20
7.5
 30
0.0
 11
0.0000000000000002
 21
22.0
 31
0.0
  0
LINE
  5
42AD
  8
250
  6
CONTINUOUS
 10
160.0
 20
7.5000000999999967
 30
0.0
 11
160.0
 21
22.0
 31
0.0
  0
LINE
  5
42AE
  8
250
  6
CONTINUOUS
 10
2.2299999999999991
 20
21.0
 30
0.0
 11
157.77000000000001
 21
21.0
 31
0.0
  0
TEXT
  5
42BE
  8
250
  6
CONTINUOUS
 10
75.5
 20
22.0
 30
0.0
 40
3.0
  1
160
  0
LINE
  5
42BF
  8
250
  6
CONTINUOUS
 10
157.77000000000001
 20
21.371666666666659
 30
0.0
 11
160.0
 21
21.0
 31
0.0
  0
LINE
  5
42C0
  8
250
  6
CONTINUOUS
 10
157.77000000000001
 20
20.62833333333333
 30
0.0
 11
160.0
 21
21.0
 31
0.0
  0
LINE
  5
42C1
  8
250
  6
CONTINUOUS
 10
160.0
 20
21.0
 30
0.0
 11
157.77000000000001
 21
21.0
 31
0.0
  0
LINE
  5
42C2
  8
250
  6
CONTINUOUS
 10
2.2299999999999991
 20
20.62833333333333
 30
0.0
 11
0.0000000000000002
 21
21.0
 31
0.0
  0
LINE
  5
42C3
  8
250
  6
CONTINUOUS
 10
2.2299999999999991
 20
21.371666666666659
 30
0.0
 11
0.0000000000000002
 21
21.0
 31
0.0
  0
LINE
  5
42C4
  8
250
  6
CONTINUOUS
 10
0.0000000000000002
 20
21.0
 30
0.0
 11
2.2299999999999991
 21
21.0
 31
0.0
  0
LINE
  5
4305
  8
240
  6
CONTINUOUS
 10
160.0
 20
-6.9999998999999962
 30
0.0
 11
145.25980762
 21
-6.9999998999999979
 31
0.0
1001
GRPNAME
1000
PASTMD08
  0
LINE
  5
4306
  8
240
  6
CONTINUOUS
 10
160.0
 20
7.0000000999999958
 30
0.0
 11
145.25980727999999
 21
7.0000000999999958
 31
0.0
1001
GRPNAME
1000
PASTMD08
  0
LINE
  5
4307
  8
241
  6
CONTINUOUS
 10
145.0
 20
-7.1499998999999992
 30
0.0
 11
145.0
 21
7.1499998999999832
 31
0.0
1001
GRPNAME
1000
PASTMD0B
  0
LINE
  5
4308
  8
240
  6
CONTINUOUS
 10
145.0
 20
-7.1499998999999992
 30
0.0
 11
142.99999999999989
 21
-7.1499998999999992
 31
0.0
1001
GRPNAME
1000
PASTMD0B
  0
LINE
  5
4309
  8
240
  6
CONTINUOUS
 10
145.25980762
 20
-6.9999998999999979
 30
0.0
 11
145.0
 21
-7.1499998999999992
 31
0.0
  0
LINE
  5
430A
  8
240
  6
CONTINUOUS
 10
143.0
 20
-6.2499999999999618
 30
0.0
 11
142.99999999999989
 21
-7.1499998999999992
 31
0.0
1001
GRPNAME
1000
PASTMD08
  0
LINE
  5
430B
  8
240
  6
CONTINUOUS
 10
145.25980727999999
 20
7.0000000999999958
 30
0.0
 11
145.0
 21
7.1499999000000001
 31
0.0
  0
LINE
  5
430C
  8
240
  6
CONTINUOUS
 10
145.0
 20
7.1499999000000001
 30
0.0
 11
143.00000000000091
 21
7.149999900000001
 31
0.0
1001
GRPNAME
1000
PASTMD0B
  0
LINE
  5
430D
  8
240
  6
CONTINUOUS
 10
160.0
 20
7.0000000999999958
 30
0.0
 11
160.0
 21
-6.9999998999999962
 31
0.0
1001
GRPNAME
1000
PASTMD08
  0
LINE
  5
430E
  8
241
  6
CONTINUOUS
 10
143.0000002154944
 20
-6.2499999858549762
 30
0.0
 11
143.0000002154944
 21
6.249999999999992
 31
0.0
  0
LINE
  5
430F
  8
240
  6
CONTINUOUS
 10
143.0
 20
6.249999999999976
 30
0.0
 11
142.99999999999989
 21
7.1499999000000001
 31
0.0
1001
GRPNAME
1000
PASTMD08
  0
LINE
  5
4310
  8
243
  6
HIDDEN2
 10
133.9999985694885
 20
3.000000000000012
 30
0.0
 11
158.5
 21
2.999999999999996
 31
0.0
1001
GRPNAME
1000
PASTMD01
  0
LINE
  5
4311
  8
243
  6
HIDDEN2
 10
133.9999985694885
 20
3.6999986171722332
 30
0.0
 11
133.9999985694885
 21
-3.6999986171722341
 31
0.0
1001
GRPNAME
1000
PASTMD01
  0
LINE
  5
4312
  8
243
  6
HIDDEN2
 10
158.5
 20
4.300001144409177
 30
0.0
 11
158.5
 21
-4.3000011444093422
 31
0.0
1001
GRPNAME
1000
PASTMD01
  0
LINE
  5
4313
  8
243
  6
HIDDEN2
 10
157.69999694824219
 20
4.7000007629394469
 30
0.0
 11
157.29999923706049
 21
4.300001144409177
 31
0.0
1001
GRPNAME
1000
PASTMD01
  0
LINE
  5
4314
  8
243
  6
HIDDEN2
 10
156.69999694824219
 20
4.300001144409177
 30
0.0
 11
157.29999923706049
 21
4.300001144409177
 31
0.0
1001
GRPNAME
1000
PASTMD01
  0
LINE
  5
4315
  8
243
  6
HIDDEN2
 10
156.69999694824219
 20
4.300001144409177
 30
0.0
 11
156.5573839283434
 21
4.547015001692797
 31
0.0
1001
GRPNAME
1000
PASTMD01
  0
LINE
  5
4316
  8
243
  6
HIDDEN2
 10
158.09999847412109
 20
4.7000007629394469
 30
0.0
 11
158.5
 21
4.300001144409177
 31
0.0
1001
GRPNAME
1000
PASTMD01
  0
LINE
  5
4317
  8
243
  6
HIDDEN2
 10
157.69999694824219
 20
4.7000007629394469
 30
0.0
 11
158.09999847412109
 21
4.7000007629394469
 31
0.0
1001
GRPNAME
1000
PASTMD01
  0
LINE
  5
4318
  8
243
  6
HIDDEN2
 10
156.5573839283434
 20
4.547015001692805
 30
0.0
 11
146.8759423523145
 21
3.6999986171722332
 31
0.0
  0
LINE
  5
4319
  8
243
  6
HIDDEN2
 10
133.9999985694885
 20
3.6999986171722332
 30
0.0
 11
146.8759423523145
 21
3.6999986171722332
 31
0.0
1001
GRPNAME
1000
PASTMD01
  0
LINE
  5
431A
  8
243
  6
HIDDEN2
 10
157.69999694824219
 20
-4.7000007629394531
 30
0.0
 11
157.29999923706049
 21
-4.3000011444091824
 31
0.0
1001
GRPNAME
1000
PASTMD01
  0
LINE
  5
431B
  8
243
  6
HIDDEN2
 10
156.69999694824219
 20
-4.3000011444091824
 30
0.0
 11
157.29999923706049
 21
-4.3000011444091824
 31
0.0
1001
GRPNAME
1000
PASTMD01
  0
LINE
  5
431C
  8
243
  6
HIDDEN2
 10
156.69999694824219
 20
-4.3000011444091824
 30
0.0
 11
156.5573839283434
 21
-4.5470150016928041
 31
0.0
1001
GRPNAME
1000
PASTMD01
  0
LINE
  5
431D
  8
243
  6
HIDDEN2
 10
158.09999847412109
 20
-4.7000007629394531
 30
0.0
 11
158.5
 21
-4.3000011444093422
 31
0.0
1001
GRPNAME
1000
PASTMD01
  0
LINE
  5
431E
  8
243
  6
HIDDEN2
 10
157.69999694824219
 20
-4.7000007629394531
 30
0.0
 11
158.09999847412109
 21
-4.7000007629394531
 31
0.0
1001
GRPNAME
1000
PASTMD01
  0
LINE
  5
431F
  8
243
  6
HIDDEN2
 10
156.5573839283434
 20
-4.547015001692813
 30
0.0
 11
146.8759423523145
 21
-3.6999986171722381
 31
0.0
  0
LINE
  5
4320
  8
243
  6
HIDDEN2
 10
133.9999985694885
 20
-3.6999986171722341
 30
0.0
 11
146.8759423523145
 21
-3.6999986171722381
 31
0.0
1001
GRPNAME
1000
PASTMD01
  0
LINE
  5
4321
  8
243
  6
HIDDEN2
 10
133.9999985694885
 20
-3.0000000000000222
 30
0.0
 11
158.5
 21
-2.9999999999999991
 31
0.0
1001
GRPNAME
1000
PASTMD01
  0
LINE
  5
4322
  8
250
  6
CONTINUOUS
 10
159.0
 20
-2.9999999999999991
 30
0.0
 11
171.0
 21
-3.0000000000000022
 31
0.0
  0
LINE
  5
4323
  8
250
  6
CONTINUOUS
 10
159.0
 20
2.999999999999996
 30
0.0
 11
171.0
 21
2.999999999999992
 31
0.0
  0
LINE
  5
4324
  8
250
  6
CONTINUOUS
 10
170.0
 20
-5.2299999999999986
 30
0.0
 11
170.0
 21
-7.46
 31
0.0
  0
LINE
  5
4325
  8
250
  6
CONTINUOUS
 10
170.0
 20
5.2299999999999889
 30
0.0
 11
170.0
 21
7.4599999999999911
 31
0.0
  0
LINE
  5
4326
  8
250
  6
CONTINUOUS
 10
170.0
 20
-3.0000000000000022
 30
0.0
 11
170.0
 21
2.999999999999992
 31
0.0
  0
INSERT
  5
4327
  8
250
  6
CONTINUOUS
  2
_OPEN
 10
170.0
 20
-3.0000000000000022
 30
0.0
 41
2.2299999999999991
 42
2.2299999999999991
 43
2.2299999999999991
 50
90.0
  0
INSERT
  5
4328
  8
250
  6
CONTINUOUS
  2
_OPEN
 10
170.0
 20
2.999999999999992
 30
0.0
 41
2.2299999999999991
 42
2.2299999999999991
 43
2.2299999999999991
 50
270.0
  0
LINE
  5
4329
  8
250
  6
CONTINUOUS
 10
160.5
 20
-6.9999998999999979
 30
0.0
 11
178.0
 21
-6.9999999000000042
 31
0.0
  0
LINE
  5
432A
  8
250
  6
CONTINUOUS
 10
160.5
 20
7.0000000999999958
 30
0.0
 11
178.0
 21
7.0000000999999941
 31
0.0
  0
LINE
  5
432B
  8
250
  6
CONTINUOUS
 10
177.0
 20
-4.7699999000000046
 30
0.0
 11
177.0
 21
4.7700000999999963
 31
0.0
  0
INSERT
  5
432C
  8
250
  6
CONTINUOUS
  2
_OPEN
 10
177.0
 20
-6.9999999000000042
 30
0.0
 41
2.2299999999999991
 42
2.2299999999999991
 43
2.2299999999999991
 50
270.0
  0
INSERT
  5
432D
  8
250
  6
CONTINUOUS
  2
_OPEN
 10
177.0
 20
7.0000000999999941
 30
0.0
 41
2.2299999999999991
 42
2.2299999999999991
 43
2.2299999999999991
 50
90.0
  0
INSERT
  5
432E
  8
250
  6
CONTINUOUS
  2
*U4
 10
160.0
 20
0.0000000000000009
 30
0.0
  0
LINE
  5
432F
  8
240
  6
CONTINUOUS
 10
143.0
 20
-6.2499999999999618
 30
0.0
 11
142.3200000000019
 21
-6.2499999999999512
 31
0.0
  0
LINE
  5
4330
  8
241
  6
CONTINUOUS
 10
142.3200000000019
 20
-6.2499999999999512
 30
0.0
 11
142.3200000000019
 21
6.2499999999999361
 31
0.0
  0
LINE
  5
4331
  8
240
  6
CONTINUOUS
 10
142.3200000000019
 20
-6.2499999999999742
 30
0.0
 11
142.3200000000019
 21
-7.0
 31
0.0
  0
LINE
  5
4332
  8
240
  6
CONTINUOUS
 10
143.0
 20
6.2499999999999636
 30
0.0
 11
142.3200000000019
 21
6.249999999999952
 31
0.0
  0
LINE
  5
4333
  8
240
  6
CONTINUOUS
 10
142.3200000000019
 20
6.249999999999976
 30
0.0
 11
142.3200000000019
 21
7.0
 31
0.0
  0
LINE
  5
4396
  8
247
  6
CONTINUOUS
 10
6.749999999929968
 20
-5.0
 30
0.0
 11
13.442307691969971
 21
-5.0
 31
0.0
  0
ARC
  5
4397
  8
247
  6
CONTINUOUS
 10
6.749999999929968
 20
-3.2500000000700311
 30
0.0
 40
1.7499999999299991
 50
90.0
 51
270.0
  0
ARC
  5
4398
  8
247
  6
CONTINUOUS
 10
13.442307691969971
 20
-3.2500000000700311
 30
0.0
 40
1.7499999999299991
 50
270.0
 51
90.0
  0
LINE
  5
4399
  8
247
  6
CONTINUOUS
 10
7.615384615279992
 20
-1.500000000140062
 30
0.0
 11
6.7551484580379793
 21
-4.500000000020008
 31
0.0
  0
LINE
  5
439A
  8
247
  6
CONTINUOUS
 10
8.5150161816641798
 20
-2.9230769231598961
 30
0.0
 11
7.2073238740241541
 21
-2.9230769231598961
 31
0.0
  0
ARC
  5
439B
  8
247
  6
CONTINUOUS
 10
8.8548561839102131
 20
-2.0495986677028659
 30
0.0
 40
0.5538165441895349
 50
342.99788967529531
 51
82.924166218513506
  0
ARC
  5
439C
  8
247
  6
CONTINUOUS
 10
8.4331216769712114
 20
-1.93603304446583
 30
0.0
 40
0.9904354236226808
 50
274.74293685219902
 51
343.84922627326682
1001
GENIUS_GENOBJ-N-FIL_13
1002
{
1000
OWNER
1000
GEN
1002
}
1001
GENIUS_GENODEF_13
1002
{
1000
HIER
1070
     0
1002
}
1002
{
1000
MANEDIT
1070
     0
1002
}
1002
{
1000
NOSEL
1070
     0
1002
}
1002
{
1000
BEHIND
1070
     0
1002
}
1002
{
1000
OTHER
1070
     0
1002
}
1002
{
1000
REACTOR
1002
}
  0
LINE
  5
439D
  8
247
  6
CONTINUOUS
 10
8.0628407656780041
 20
-4.500000000020008
 30
0.0
 11
6.7551484580379793
 21
-4.500000000020008
 31
0.0
  0
LINE
  5
439E
  8
247
  6
CONTINUOUS
 10
7.615384615279992
 20
-1.500000000140062
 30
0.0
 11
8.9230769229200178
 21
-1.500000000140062
 31
0.0
  0
ARC
  5
439F
  8
247
  6
CONTINUOUS
 10
8.4390803634530585
 20
-3.4820242326654798
 30
0.0
 40
0.5640818586791229
 50
335.9909416525216
 51
82.263443459069109
  0
ARC
  5
43A0
  8
247
  6
CONTINUOUS
 10
7.9617373146529644
 20
-3.4874290391865079
 30
0.0
 40
1.0176059446230981
 50
275.70198516425648
 51
347.27733843682199
1001
GENIUS_GENOBJ-N-FIL_13
1002
{
1000
OWNER
1000
GEN
1002
}
1001
GENIUS_GENODEF_13
1002
{
1000
HIER
1070
     0
1002
}
1002
{
1000
MANEDIT
1070
     0
1002
}
1002
{
1000
NOSEL
1070
     0
1002
}
1002
{
1000
BEHIND
1070
     0
1002
}
1002
{
1000
OTHER
1070
     0
1002
}
1002
{
1000
REACTOR
1002
}
  0
LINE
  5
43A1
  8
247
  6
CONTINUOUS
 10
9.7166869194579704
 20
-4.500000000020008
 30
0.0
 11
10.57692307669998
 21
-1.500000000140062
 31
0.0
  0
LINE
  5
43A2
  8
247
  6
CONTINUOUS
 10
12.99999999967997
 20
-1.500000000140062
 30
0.0
 11
12.434263380543371
 21
-1.500000000140062
 31
0.0
  0
LINE
  5
43A3
  8
247
  6
CONTINUOUS
 10
11.538461538200011
 20
-4.500000000020008
 30
0.0
 11
12.15384615355998
 21
-4.500000000020008
 31
0.0
  0
ARC
  5
43A4
  8
247
  6
CONTINUOUS
 10
13.29120879087713
 20
-3.5832851359733691
 30
0.0
 40
2.2526500823422122
 50
112.3594881415295
 51
164.99324854284649
  0
ARC
  5
43A5
  8
247
  6
CONTINUOUS
 10
12.62593052078677
 20
-2.3083126551946398
 30
0.0
 40
0.8906723995727782
 50
4.9945893190753123
 51
65.166328957300664
1001
GENIUS_GENOBJ-N-FIL_13
1002
{
1000
OWNER
1000
GEN
1002
}
1001
GENIUS_GENODEF_13
1002
{
1000
HIER
1070
     0
1002
}
1002
{
1000
MANEDIT
1070
     0
1002
}
1002
{
1000
NOSEL
1070
     0
1002
}
1002
{
1000
BEHIND
1070
     0
1002
}
1002
{
1000
OTHER
1070
     0
1002
}
1002
{
1000
REACTOR
1002
}
  0
ARC
  5
43A6
  8
247
  6
CONTINUOUS
 10
11.77354111378742
 20
-3.1601458886677838
 30
0.0
 40
1.392781735586712
 50
285.84609655578078
 51
352.3251370041624
  0
ARC
  5
43A7
  8
247
  6
CONTINUOUS
 10
12.35778727415965
 20
-3.4592434315272831
 30
0.0
 40
1.324563662670287
 50
159.71360167048971
 51
231.78874565641459
1001
GENIUS_GENOBJ-N-FIL_13
1002
{
1000
OWNER
1000
GEN
1002
}
1001
GENIUS_GENODEF_13
1002
{
1000
HIER
1070
     0
1002
}
1002
{
1000
MANEDIT
1070
     0
1002
}
1002
{
1000
NOSEL
1070
     0
1002
}
1002
{
1000
BEHIND
1070
     0
1002
}
1002
{
1000
OTHER
1070
     0
1002
}
1002
{
1000
REACTOR
1002
}
  0
LINE
  5
43A8
  8
247
  6
CONTINUOUS
 10
12.46153846124002
 20
-3.346153846219976
 30
0.0
 11
13.15384615352002
 21
-3.346153846219976
 31
0.0
  0
LINE
  5
43A9
  8
247
  6
CONTINUOUS
 10
6.749999999929968
 20
-1.500000000140062
 30
0.0
 11
7.4230769229799298
 21
-1.500000000140062
 31
0.0
  0
LINE
  5
43B5
  8
250
  6
CONTINUOUS
 10
15.38475566
 20
-17.43424357
 30
0.0
 11
0.318089
 21
-17.43424357
 31
0.0
1001
ITEMNAME
1000
LNSP2
  0
TEXT
  5
43B6
  8
250
  6
CONTINUOUS
 10
2.7180889999999991
 20
-16.43424357
 30
0.0
 40
2.799999999999998
  1
ST14
  7
YOKO
  0
LINE
  5
43B7
  8
250
  6
CONTINUOUS
 10
20.29396899915734
 20
-8.9312366499527869
 30
0.0
 11
15.38475566
 21
-17.43424357
 31
0.0
  0
LINE
  5
43B8
  8
250
  6
CONTINUOUS
 10
19.97209622416521
 20
-8.7454033164790115
 30
0.0
 11
21.408968999999999
 21
-7.0
 31
0.0
  0
LINE
  5
43B9
  8
250
  6
CONTINUOUS
 10
20.61584177414947
 20
-9.1170699834265641
 30
0.0
 11
21.408968999999999
 21
-7.0
 31
0.0
  0
LINE
  5
43BA
  8
250
  6
CONTINUOUS
 10
21.408968999999999
 20
-7.0
 30
0.0
 11
20.29396899915735
 21
-8.9312366499527869
 31
0.0
  0
INSERT
  5
43C5
  8
250
  6
CONTINUOUS
  2
*U5
 10
160.0
 20
0.0
 30
0.0
  0
VIEWPORT
  5
22
 67
     1
  8
0
 10
261.51769911504419
 20
148.5
 30
0.0
 40
523.0353982300885
 41
297.0
 68
     1
 69
     1
1001
ACAD
1000
MVIEW
1002
{
1070
    16
1010
0.0
1020
0.0
1030
0.0
1010
0.0
1020
0.0
1030
1.0
1040
0.0
1040
297.0
1040
261.51769911504419
1040
148.5
1040
50.0
1040
0.0
1040
0.0
1070
     0
1070
   100
1070
     1
1070
     1
1070
     0
1070
     0
1070
     0
1070
     0
1040
0.0
1040
0.0
1040
0.0
1040
1.0
1040
1.0
1040
10.0
1040
10.0
1070
     0
1002
{
1002
}
1002
}
1001
GENIUS_GENODEF_13
1002
{
1000
HIER
1070
     0
1002
}
1002
{
1000
MANEDIT
1070
     0
1002
}
1002
{
1000
NOSEL
1070
     0
1002
}
1002
{
1000
BEHIND
1070
     0
1002
}
1002
{
1000
OTHER
1070
     0
1002
}
1002
{
1000
REACTOR
1002
}
1001
GENIUS_GENOBJ-N-SDF_13
1002
{
1000
OWNER
1000
GEN
1002
}
1001
GENIUS_GENSCREG_15
1000
PF
1040
1.0
1000
DF
1040
1.0
1000
MIN
1011
0.0
1021
0.0
1031
0.0
1021
0.0
1031
0.0
1000
MAX
1011
523.0353982300885
1021
0.0
1031
0.0
1021
297.0
1031
0.0
1000
FLAGS
1070
     4
  0
ENDSEC
  0
EOF
