  0
SECTION
  2
HEADER
  9
$ACADVER
  1
AC1009
  9
$INSBASE
 10
0.0
 20
0.0
 30
0.0
  9
$EXTMIN
 10
-61.79999999999999
 20
-17.013929205907409
 30
0.0
  9
$EXTMAX
 10
61.999999999999993
 20
54.0
 30
0.0
  9
$LIMMIN
 10
0.0
 20
0.0
  9
$LIMMAX
 10
297.0
 20
210.0
  9
$ORTHOMODE
 70
     0
  9
$REGENMODE
 70
     1
  9
$FILLMODE
 70
     1
  9
$QTEXTMODE
 70
     0
  9
$MIRRTEXT
 70
     1
  9
$DRAGMODE
 70
     2
  9
$LTSCALE
 40
10.0
  9
$OSMODE
 70
  2799
  9
$ATTMODE
 70
     1
  9
$TEXTSIZE
 40
3.0
  9
$TRACEWID
 40
1.0
  9
$TEXTSTYLE
  7
YOKO
  9
$CLAYER
  8
240
  9
$CELTYPE
  6
BYLAYER
  9
$CECOLOR
 62
   256
  9
$DIMSCALE
 40
1.0
  9
$DIMASZ
 40
2.2299999999999991
  9
$DIMEXO
 40
0.5
  9
$DIMDLI
 40
7.0
  9
$DIMRND
 40
0.0
  9
$DIMDLE
 40
0.0
  9
$DIMEXE
 40
1.0
  9
$DIMTP
 40
0.0
  9
$DIMTM
 40
0.0
  9
$DIMTXT
 40
2.799999999999998
  9
$DIMCEN
 40
0.0
  9
$DIMTSZ
 40
0.0
  9
$DIMTOL
 70
     0
  9
$DIMLIM
 70
     0
  9
$DIMTIH
 70
     0
  9
$DIMTOH
 70
     0
  9
$DIMSE1
 70
     0
  9
$DIMSE2
 70
     0
  9
$DIMTAD
 70
     3
  9
$DIMZIN
 70
     9
  9
$DIMBLK
  1
OPEN
  9
$DIMASO
 70
     1
  9
$DIMSHO
 70
     1
  9
$DIMPOST
  1

  9
$DIMAPOST
  1

  9
$DIMALT
 70
     0
  9
$DIMALTD
 70
     2
  9
$DIMALTF
 40
25.399999999999999
  9
$DIMLFAC
 40
1.0
  9
$DIMTOFL
 70
     1
  9
$DIMTVP
 40
0.0
  9
$DIMTIX
 70
     1
  9
$DIMSOXD
 70
     0
  9
$DIMSAH
 70
     0
  9
$DIMBLK1
  1

  9
$DIMBLK2
  1

  9
$DIMSTYLE
  2
BIGT
  9
$DIMCLRD
 70
   256
  9
$DIMCLRE
 70
   256
  9
$DIMCLRT
 70
    40
  9
$DIMTFAC
 40
1.0
  9
$DIMGAP
 40
1.0
  9
$LUNITS
 70
     2
  9
$LUPREC
 70
     3
  9
$SKETCHINC
 40
1.0
  9
$FILLETRAD
 40
0.0
  9
$AUNITS
 70
     0
  9
$AUPREC
 70
     3
  9
$MENU
  1
.
  9
$ELEVATION
 40
0.0
  9
$PELEVATION
 40
0.0
  9
$THICKNESS
 40
0.0
  9
$LIMCHECK
 70
     0
  9
$BLIPMODE
 70
     0
  9
$CHAMFERA
 40
0.25
  9
$CHAMFERB
 40
0.25
  9
$SKPOLY
 70
     0
  9
$TDCREATE
 40
2452787.4294370259
  9
$TDUPDATE
 40
2454049.639270463
  9
$TDINDWG
 40
0.0185009491
  9
$TDUSRTIMER
 40
0.0185007639
  9
$USRTIMER
 70
     1
  9
$ANGBASE
 50
0.0
  9
$ANGDIR
 70
     0
  9
$PDMODE
 70
    35
  9
$PDSIZE
 40
-5.0
  9
$PLINEWID
 40
0.0
  9
$COORDS
 70
     0
  9
$SPLFRAME
 70
     0
  9
$SPLINETYPE
 70
     6
  9
$SPLINESEGS
 70
     4
  9
$ATTDIA
 70
     1
  9
$ATTREQ
 70
     1
  9
$HANDLING
 70
     1
  9
$HANDSEED
  5
1934
  9
$SURFTAB1
 70
     6
  9
$SURFTAB2
 70
     6
  9
$SURFTYPE
 70
     6
  9
$SURFU
 70
     6
  9
$SURFV
 70
     6
  9
$UCSNAME
  2

  9
$UCSORG
 10
0.0
 20
0.0
 30
0.0
  9
$UCSXDIR
 10
1.0
 20
0.0
 30
0.0
  9
$UCSYDIR
 10
0.0
 20
1.0
 30
0.0
  9
$PUCSNAME
  2

  9
$PUCSORG
 10
0.0
 20
0.0
 30
0.0
  9
$PUCSXDIR
 10
1.0
 20
0.0
 30
0.0
  9
$PUCSYDIR
 10
0.0
 20
1.0
 30
0.0
  9
$USERI1
 70
     1
  9
$USERI2
 70
     0
  9
$USERI3
 70
     0
  9
$USERI4
 70
     0
  9
$USERI5
 70
     0
  9
$USERR1
 40
0.0
  9
$USERR2
 40
0.0
  9
$USERR3
 40
0.0
  9
$USERR4
 40
0.0
  9
$USERR5
 40
0.0
  9
$WORLDVIEW
 70
     1
  9
$SHADEDGE
 70
     3
  9
$SHADEDIF
 70
    70
  9
$TILEMODE
 70
     1
  9
$MAXACTVP
 70
    16
  9
$PLIMCHECK
 70
     0
  9
$PEXTMIN
 10
1.0000000000000000E+020
 20
1.0000000000000000E+020
 30
1.0000000000000000E+020
  9
$PEXTMAX
 10
-1.0000000000000000E+020
 20
-1.0000000000000000E+020
 30
-1.0000000000000000E+020
  9
$PLIMMIN
 10
0.0
 20
0.0
  9
$PLIMMAX
 10
420.0
 20
297.0
  9
$UNITMODE
 70
     0
  9
$VISRETAIN
 70
     1
  9
$PLINEGEN
 70
     0
  9
$PSLTSCALE
 70
     1
  0
ENDSEC
  0
SECTION
  2
TABLES
  0
TABLE
  2
VPORT
 70
     3
  0
VPORT
  2
*ACTIVE
 70
     0
 10
0.0
 20
0.0
 11
1.0
 21
1.0
 12
0.0959571195020885
 22
18.493369225700011
 13
0.0
 23
0.0
 14
7.0
 24
7.0
 15
7.0
 25
7.0
 16
0.0
 26
0.0
 36
1.0
 17
0.0
 27
0.0
 37
0.0
 40
82.839615611199335
 41
1.500491642084562
 42
50.0
 43
0.0
 44
0.0
 50
0.0
 51
0.0
 71
     0
 72
   500
 73
     1
 74
     0
 75
     0
 76
     0
 77
     0
 78
     0
  0
ENDTAB
  0
TABLE
  2
LTYPE
 70
    13
  0
LTYPE
  2
CONTINUOUS
 70
     0
  3
Solid line
 72
    65
 73
     0
 40
0.0
  0
LTYPE
  2
CENTER2
 70
     0
  3
___ _ ___ _ ___ _ ___ _ ___ _ ___ _ ___ _ ___ _
 72
    65
 73
     4
 40
1.125
 49
0.75
 49
-0.125
 49
0.125
 49
-0.125
  0
LTYPE
  2
PHANTOM2
 70
     0
  3
___ _ _ ___ _ _ ___ _ _ ___ _ _ ___ _ _ ___ _ _
 72
    65
 73
     6
 40
1.25
 49
0.625
 49
-0.125
 49
0.125
 49
-0.125
 49
0.125
 49
-0.125
  0
LTYPE
  2
CENTER
 70
     0
  3
____ _ ____ _ ____ _ ____ _ ____ _ ____ _ ____ 
 72
    65
 73
     4
 40
2.0
 49
1.25
 49
-0.25
 49
0.25
 49
-0.25
  0
LTYPE
  2
AM_ISO02W050
 70
     0
  3
__ __ __ __ __ __ __ __ __ __ __ __ __ __ __
 72
    65
 73
     2
 40
7.5
 49
6.0
 49
-1.5
  0
LTYPE
  2
AMCONSTR
 70
     0
  3
_______________________
 72
    65
 73
     2
 40
9999.0
 49
9999.0
 49
0.0
  0
LTYPE
  2
ACISOWELD
 70
     0
  3
_ _ _ _ _
 72
    65
 73
     2
 40
2.0
 49
2.0
 49
-1.0
  0
LTYPE
  2
ACISOTGB
 70
     0
  3
__ . . __ . .
 72
    65
 73
     6
 40
9.0
 49
4.0
 49
-1.0
 49
1.0
 49
-1.0
 49
1.0
 49
-1.0
  0
LTYPE
  2
ACISOTGL
 70
     0
  3
_ _ _ _ _
 72
    65
 73
     2
 40
3.0
 49
2.0
 49
-1.0
  0
LTYPE
  2
HIDDEN2
 70
     0
  3
_ _ _ _ _ _ _ _ _ _ _ _ _ _ _ _ _ _ _ _ _ _ _ _
 72
    65
 73
     2
 40
0.1875
 49
0.125
 49
-0.0625
  0
LTYPE
  2
HIDDEN
 70
     0
  3
Hidden __ __ __ __ __ __ __ __ __ __ __ __ __ _
 72
    65
 73
     2
 40
9.5249999999999986
 49
6.3499999999999988
 49
-3.1749999999999989
  0
LTYPE
  2
ACJISTGB
 70
     0
  3
__ . . __ . .
 72
    65
 73
     6
 40
9.0
 49
4.0
 49
-1.0
 49
1.0
 49
-1.0
 49
1.0
 49
-1.0
  0
LTYPE
  2
ACJISTGL
 70
     0
  3
_ _ _ _ _
 72
    65
 73
     2
 40
3.0
 49
2.0
 49
-1.0
  0
ENDTAB
  0
TABLE
  2
LAYER
 70
     8
  0
LAYER
  2
0
 70
     0
 62
     7
  6
CONTINUOUS
  0
LAYER
  2
DEFPOINTS
 70
     0
 62
     7
  6
CONTINUOUS
  0
LAYER
  2
245
 70
     0
 62
     2
  6
CENTER2
  0
LAYER
  2
240
 70
     0
 62
     4
  6
CONTINUOUS
  0
LAYER
  2
241
 70
     0
 62
   211
  6
CONTINUOUS
  0
LAYER
  2
246
 70
     0
 62
     3
  6
PHANTOM2
  0
LAYER
  2
AM_CL
 70
     0
 62
   254
  6
AMCONSTR
  0
LAYER
  2
250
 70
     0
 62
     7
  6
CONTINUOUS
  0
ENDTAB
  0
TABLE
  2
STYLE
 70
     6
  0
STYLE
  2
STANDARD
 70
     0
 40
0.0
 41
1.0
 50
0.0
 71
     0
 42
3.0
  3
romans.shx
  4
extfont.shx
  0
STYLE
  2
ACISOTS
 70
     0
 40
1.0
 41
1.0
 50
0.0
 71
     0
 42
3.0
  3
amgdt.shx
  4
extfont.shx
  0
STYLE
  2
ACISOGDT
 70
     0
 40
0.0
 41
1.0
 50
0.0
 71
     0
 42
3.0
  3
amgdt.shx
  4
extfont.shx
  0
STYLE
  2
YOKO
 70
     0
 40
0.0
 41
1.0
 50
0.0
 71
     0
 42
3.0
  3
romans.shx
  4
extfont.shx
  0
STYLE
  2
ACJISGDT
 70
     0
 40
0.0
 41
1.0
 50
0.0
 71
     0
 42
3.0
  3
amgdt.shx
  4
extfont.shx
  0
STYLE
  2
ACJISTS
 70
     0
 40
1.0
 41
1.0
 50
0.0
 71
     0
 42
3.0
  3
amgdt.shx
  4
extfont.shx
  0
ENDTAB
  0
TABLE
  2
VIEW
 70
     0
  0
ENDTAB
  0
TABLE
  2
UCS
 70
     0
  0
ENDTAB
  0
TABLE
  2
APPID
 70
    28
  0
APPID
  2
ACAD
 70
     0
  0
APPID
  2
GLOBAL
 70
     0
  0
APPID
  2
DETAIL
 70
     0
  0
APPID
  2
GRPNAME
 70
     0
  0
APPID
  2
GPARA
 70
     0
  0
APPID
  2
MCAD_NO_VIS
 70
     0
  0
APPID
  2
ACAD_TEMP_GRAPHIC
 70
     0
  0
APPID
  2
ACATTRIBSERVICES
 70
     0
  0
APPID
  2
GENIUS_GENSCREG_15
 70
     0
  0
APPID
  2
GENIUS_GENODEF_13
 70
     0
  0
APPID
  2
GENIUS_GENOBJ-N-SDF_13
 70
     0
  0
APPID
  2
GENIUS_GENREC_14
 70
     0
  0
APPID
  2
GENIUS_GENOBJ-N-REC_13
 70
     0
  0
APPID
  2
GENIUS_GENDIMSH_14
 70
     0
  0
APPID
  2
GENIUS_GENOBJ-N-DIM_13
 70
     0
  0
APPID
  2
GENIUS_GENDIM_13
 70
     0
  0
APPID
  2
GENIUS_GENDTOL_13
 70
     0
  0
APPID
  2
GENIUS_GENOLIS_13
 70
     0
  0
APPID
  2
GENIUS_GENOENT_13
 70
     0
  0
APPID
  2
GENIUS_GENOBJ-F-FEM_13
 70
     0
  0
APPID
  2
GENIUS_GENOREF_13
 70
     0
  0
APPID
  2
GENIUS_GEFFEM_13
 70
     0
  0
APPID
  2
GENIUS_GEFFEMP_13
 70
     0
  0
APPID
  2
GENIUS_GENOBJ-N-FIL_13
 70
     0
  0
APPID
  2
AD_DRAW
 70
     0
  0
APPID
  2
DESIGNERASSEMBLIES
 70
     0
  0
APPID
  2
ACADM_DIM_EDIT
 70
     0
  0
APPID
  2
AMDT_DM_ADJ
 70
     0
  0
ENDTAB
  0
TABLE
  2
DIMSTYLE
 70
    23
  0
DIMSTYLE
  2
BIGT
 70
     0
  3

  4

  5
OPEN
  6

  7

 40
1.0
 41
2.2299999999999991
 42
0.5
 43
7.0
 44
1.0
 45
0.0
 46
0.0
 47
0.0
 48
0.01
140
2.7999999999999989
141
0.0
142
0.0
143
25.399999999999999
144
1.0
145
0.0
146
1.0
147
1.0
 71
     0
 72
     0
 73
     0
 74
     0
 75
     0
 76
     0
 77
     3
 78
     9
170
     0
171
     2
172
     1
173
     0
174
     1
175
     0
176
   256
177
   256
178
    40
  0
DIMSTYLE
  2
AM_ISO
 70
     0
  3

  4
"
  5

  6

  7

 40
1.0
 41
2.5
 42
1.0
 43
10.0
 44
1.0
 45
0.0
 46
0.0
 47
0.1
 48
0.1
140
3.5
141
0.0
142
0.0
143
0.0393701
144
1.0
145
0.0
146
0.71
147
1.5
 71
     0
 72
     0
 73
     0
 74
     0
 75
     0
 76
     0
 77
     1
 78
     8
170
     0
171
     2
172
     1
173
     0
174
     0
175
     0
176
   256
177
   256
178
     2
  0
DIMSTYLE
  2
AM_ISO$3
 70
     0
  3

  4
"
  5

  6

  7

 40
1.0
 41
2.5
 42
1.0
 43
10.0
 44
1.0
 45
0.0
 46
0.0
 47
0.1
 48
0.1
140
3.5
141
0.0
142
0.0
143
0.0393701
144
1.0
145
0.0
146
0.71
147
1.5
 71
     0
 72
     0
 73
     0
 74
     1
 75
     0
 76
     0
 77
     1
 78
     8
170
     0
171
     2
172
     0
173
     0
174
     0
175
     0
176
   256
177
   256
178
     2
  0
DIMSTYLE
  2
AM_ISO$4
 70
     0
  3

  4
"
  5

  6

  7

 40
1.0
 41
2.5
 42
1.0
 43
10.0
 44
1.0
 45
0.0
 46
0.0
 47
0.1
 48
0.1
140
3.5
141
0.0
142
0.0
143
0.0393701
144
1.0
145
0.0
146
0.71
147
1.5
 71
     0
 72
     0
 73
     0
 74
     1
 75
     0
 76
     0
 77
     1
 78
     8
170
     0
171
     2
172
     0
173
     0
174
     0
175
     0
176
   256
177
   256
178
     2
  0
DIMSTYLE
  2
AM_ISO$6
 70
     0
  3

  4
"
  5

  6

  7

 40
1.0
 41
2.5
 42
1.0
 43
10.0
 44
1.0
 45
0.0
 46
0.0
 47
0.1
 48
0.1
140
3.5
141
0.0
142
0.0
143
0.0393701
144
1.0
145
0.0
146
0.71
147
1.5
 71
     0
 72
     0
 73
     0
 74
     0
 75
     0
 76
     0
 77
     0
 78
     8
170
     0
171
     2
172
     1
173
     0
174
     0
175
     0
176
   256
177
   256
178
     2
  0
DIMSTYLE
  2
AM_ISO$7
 70
     0
  3

  4
"
  5

  6

  7

 40
1.0
 41
2.5
 42
1.0
 43
10.0
 44
1.0
 45
0.0
 46
0.0
 47
0.1
 48
0.1
140
5.0
141
0.0
142
0.0
143
0.0393701
144
1.0
145
0.0
146
0.71
147
1.5
 71
     0
 72
     0
 73
     0
 74
     0
 75
     0
 76
     0
 77
     1
 78
     8
170
     0
171
     2
172
     1
173
     0
174
     0
175
     0
176
   256
177
   256
178
     2
  0
DIMSTYLE
  2
AM_ISO$SF
 70
     0
  3

  4
"
  5

  6

  7

 40
1.0
 41
2.5
 42
1.0
 43
10.0
 44
1.0
 45
0.0
 46
0.0
 47
0.1
 48
0.1
140
3.5
141
0.0
142
0.0
143
0.0393701
144
1.0
145
0.0
146
0.71
147
1.5
 71
     0
 72
     0
 73
     0
 74
     0
 75
     1
 76
     1
 77
     1
 78
     8
170
     0
171
     2
172
     1
173
     0
174
     0
175
     0
176
   256
177
   256
178
     2
  0
DIMSTYLE
  2
AM_ISO$SH
 70
     0
  3

  4
"
  5

  6
GENAXEH
  7

 40
1.0
 41
2.5
 42
1.0
 43
10.0
 44
1.0
 45
0.0
 46
0.0
 47
0.1
 48
0.1
140
3.5
141
0.0
142
0.0
143
0.0393701
144
2.0
145
0.0
146
0.71
147
1.5
 71
     0
 72
     0
 73
     0
 74
     0
 75
     1
 76
     1
 77
     1
 78
     8
170
     0
171
     2
172
     1
173
     1
174
     0
175
     0
176
   256
177
   256
178
     2
  0
DIMSTYLE
  2
BIGT$0
 70
     0
  3

  4

  5
OPEN
  6

  7

 40
1.0
 41
2.2299999999999991
 42
0.5
 43
7.0
 44
1.0
 45
0.0
 46
0.0
 47
0.0
 48
0.01
140
2.7999999999999989
141
0.0
142
0.0
143
25.399999999999999
144
1.0
145
0.0
146
1.0
147
1.0
 71
     0
 72
     0
 73
     0
 74
     0
 75
     0
 76
     0
 77
     3
 78
     9
170
     0
171
     2
172
     1
173
     0
174
     0
175
     0
176
   256
177
   256
178
    40
  0
DIMSTYLE
  2
BIGT$2
 70
     0
  3

  4

  5
OPEN
  6

  7

 40
1.0
 41
2.2299999999999991
 42
0.5
 43
7.0
 44
1.0
 45
0.0
 46
0.0
 47
0.0
 48
0.01
140
2.7999999999999989
141
0.0
142
0.0
143
25.399999999999999
144
1.0
145
0.0
146
1.0
147
1.0
 71
     0
 72
     0
 73
     0
 74
     0
 75
     0
 76
     0
 77
     3
 78
     9
170
     0
171
     2
172
     1
173
     0
174
     0
175
     0
176
   256
177
   256
178
    40
  0
DIMSTYLE
  2
BIGT$3
 70
     0
  3

  4

  5
OPEN
  6

  7

 40
1.0
 41
2.2299999999999991
 42
0.5
 43
2.5
 44
1.0
 45
0.0
 46
0.0
 47
0.0
 48
0.01
140
2.7999999999999989
141
0.0
142
0.0
143
25.399999999999999
144
1.0
145
0.0
146
1.0
147
1.0
 71
     0
 72
     0
 73
     0
 74
     0
 75
     0
 76
     0
 77
     3
 78
     9
170
     0
171
     2
172
     1
173
     0
174
     0
175
     0
176
   256
177
   256
178
    40
  0
DIMSTYLE
  2
BIGT$4
 70
     0
  3

  4

  5
OPEN
  6

  7

 40
1.0
 41
2.2299999999999991
 42
0.5
 43
2.5
 44
1.0
 45
0.0
 46
0.0
 47
0.0
 48
0.01
140
2.7999999999999989
141
0.0
142
0.0
143
25.399999999999999
144
1.0
145
0.0
146
1.0
147
1.0
 71
     0
 72
     0
 73
     0
 74
     0
 75
     0
 76
     0
 77
     3
 78
     9
170
     0
171
     2
172
     1
173
     0
174
     0
175
     0
176
   256
177
   256
178
    40
  0
DIMSTYLE
  2
BIGT$6
 70
     0
  3

  4

  5
OPEN
  6

  7

 40
1.0
 41
2.2299999999999991
 42
0.5
 43
2.5
 44
1.0
 45
0.0
 46
0.0
 47
0.0
 48
0.01
140
2.7999999999999989
141
0.0
142
0.0
143
25.399999999999999
144
1.0
145
0.0
146
1.0
147
1.0
 71
     0
 72
     0
 73
     0
 74
     0
 75
     0
 76
     0
 77
     3
 78
     9
170
     0
171
     2
172
     1
173
     0
174
     0
175
     0
176
   256
177
   256
178
    40
  0
DIMSTYLE
  2
BIGT$7
 70
     0
  3

  4

  5
OPEN
  6

  7

 40
0.0
 41
2.2299999999999991
 42
0.5
 43
7.0
 44
1.0
 45
0.0
 46
0.0
 47
0.0
 48
0.01
140
2.7999999999999989
141
0.0
142
0.0
143
25.399999999999999
144
1.0
145
0.0
146
1.0
147
1.0
 71
     0
 72
     0
 73
     0
 74
     0
 75
     0
 76
     0
 77
     3
 78
     9
170
     0
171
     2
172
     0
173
     0
174
     0
175
     0
176
   256
177
   256
178
    40
  0
DIMSTYLE
  2
BIGT$SF
 70
     0
  3

  4

  5
OPEN
  6

  7

 40
1.0
 41
2.2299999999999991
 42
0.5
 43
7.0
 44
1.0
 45
0.0
 46
0.0
 47
0.0
 48
0.0
140
2.7999999999999989
141
0.0
142
0.0
143
25.399999999999999
144
1.0
145
0.0
146
1.0
147
1.0
 71
     0
 72
     0
 73
     0
 74
     0
 75
     0
 76
     0
 77
     3
 78
     9
170
     0
171
     2
172
     1
173
     0
174
     0
175
     0
176
   256
177
   256
178
    40
  0
DIMSTYLE
  2
BIGT$SH
 70
     0
  3

  4

  5
OPEN
  6

  7

 40
1.0
 41
2.2299999999999991
 42
0.5
 43
7.0
 44
1.0
 45
0.0
 46
0.0
 47
0.0
 48
0.0
140
2.7999999999999989
141
0.0
142
0.0
143
25.399999999999999
144
1.0
145
0.0
146
1.0
147
1.0
 71
     0
 72
     0
 73
     0
 74
     0
 75
     0
 76
     0
 77
     3
 78
     9
170
     0
171
     2
172
     1
173
     0
174
     0
175
     0
176
   256
177
   256
178
    40
  0
DIMSTYLE
  2
TECHNICAL_OSAKA
 70
     0
  3

  4
"
  5
OPEN30
  6

  7

 40
1.0
 41
2.5
 42
1.0
 43
10.0
 44
1.0
 45
0.0
 46
0.0
 47
0.1
 48
0.1
140
2.7999999999999989
141
0.0
142
0.0
143
0.0393701
144
1.0
145
0.0
146
0.71
147
1.5
 71
     0
 72
     0
 73
     0
 74
     0
 75
     0
 76
     0
 77
     3
 78
     8
170
     0
171
     2
172
     1
173
     0
174
     0
175
     0
176
   256
177
   256
178
    40
  0
DIMSTYLE
  2
TECHNICAL_OSAKA$3
 70
     0
  3

  4
"
  5
OPEN30
  6

  7

 40
1.0
 41
2.5
 42
1.0
 43
10.0
 44
1.0
 45
0.0
 46
0.0
 47
0.1
 48
0.1
140
2.7999999999999989
141
0.0
142
0.0
143
0.0393701
144
1.0
145
0.0
146
0.71
147
1.5
 71
     0
 72
     0
 73
     0
 74
     1
 75
     0
 76
     0
 77
     3
 78
     8
170
     0
171
     2
172
     0
173
     0
174
     0
175
     0
176
   256
177
   256
178
    40
  0
DIMSTYLE
  2
TECHNICAL_OSAKA$4
 70
     0
  3

  4
"
  5
OPEN30
  6

  7

 40
1.0
 41
2.5
 42
1.0
 43
10.0
 44
1.0
 45
0.0
 46
0.0
 47
0.1
 48
0.1
140
2.7999999999999989
141
0.0
142
0.0
143
0.0393701
144
1.0
145
0.0
146
0.71
147
1.5
 71
     0
 72
     0
 73
     0
 74
     1
 75
     0
 76
     0
 77
     3
 78
     8
170
     0
171
     2
172
     0
173
     0
174
     0
175
     0
176
   256
177
   256
178
    40
  0
DIMSTYLE
  2
TECHNICAL_OSAKA$6
 70
     0
  3

  4
"
  5
OPEN30
  6

  7

 40
1.0
 41
2.5
 42
1.0
 43
10.0
 44
1.0
 45
0.0
 46
0.0
 47
0.1
 48
0.1
140
2.7999999999999989
141
0.0
142
0.0
143
0.0393701
144
1.0
145
0.0
146
0.71
147
1.5
 71
     0
 72
     0
 73
     0
 74
     0
 75
     0
 76
     0
 77
     0
 78
     8
170
     0
171
     2
172
     1
173
     0
174
     0
175
     0
176
   256
177
   256
178
    40
  0
DIMSTYLE
  2
TECHNICAL_OSAKA$7
 70
     0
  3

  4
"
  5
OPEN30
  6

  7

 40
1.0
 41
2.5
 42
1.0
 43
10.0
 44
1.0
 45
0.0
 46
0.0
 47
0.1
 48
0.1
140
2.7999999999999989
141
0.0
142
0.0
143
0.0393701
144
1.0
145
0.0
146
0.71
147
1.5
 71
     0
 72
     0
 73
     0
 74
     0
 75
     0
 76
     0
 77
     3
 78
     8
170
     0
171
     2
172
     1
173
     0
174
     0
175
     0
176
   256
177
   256
178
    40
  0
DIMSTYLE
  2
TECHNICAL_OSAKA$SF
 70
     0
  3

  4
"
  5
OPEN30
  6
OPEN30
  7
OPEN30
 40
1.0
 41
2.5
 42
1.0
 43
10.0
 44
1.0
 45
0.0
 46
0.0
 47
0.1
 48
0.1
140
3.5
141
0.0
142
0.0
143
0.0393701
144
1.0
145
0.0
146
0.71
147
1.5
 71
     0
 72
     0
 73
     0
 74
     0
 75
     1
 76
     1
 77
     3
 78
     8
170
     0
171
     2
172
     1
173
     0
174
     0
175
     0
176
   256
177
   256
178
    40
  0
DIMSTYLE
  2
TECHNICAL_OSAKA$SH
 70
     0
  3

  4
"
  5
OPEN30
  6
GENAXEH
  7
OPEN30
 40
1.0
 41
2.5
 42
1.0
 43
10.0
 44
1.0
 45
0.0
 46
0.0
 47
0.1
 48
0.1
140
3.5
141
0.0
142
0.0
143
0.0393701
144
2.0
145
0.0
146
0.71
147
1.5
 71
     0
 72
     0
 73
     0
 74
     0
 75
     1
 76
     1
 77
     3
 78
     8
170
     0
171
     2
172
     1
173
     1
174
     0
175
     0
176
   256
177
   256
178
    40
  0
ENDTAB
  0
ENDSEC
  0
SECTION
  2
BLOCKS
  0
BLOCK
  8
0
  2
$MODEL_SPACE
 70
     0
 10
0.0
 20
0.0
 30
0.0
  3
$MODEL_SPACE
  1

  0
ENDBLK
  5
1C
  8
0
  0
BLOCK
 67
     1
  8
0
  2
$PAPER_SPACE
 70
     0
 10
0.0
 20
0.0
 30
0.0
  3
$PAPER_SPACE
  1

  0
ENDBLK
  5
19
 67
     1
  8
0
  0
BLOCK
  8
0
  2
_OPEN
 70
     0
 10
0.0
 20
0.0
 30
0.0
  3
_OPEN
  1

  0
LINE
  5
18CB
  8
0
  6
BYBLOCK
 62
     0
 10
-1.0
 20
0.1666666666666666
 30
0.0
 11
0.0
 21
0.0
 31
0.0
  0
LINE
  5
18CC
  8
0
  6
BYBLOCK
 62
     0
 10
-1.0
 20
-0.1666666666666666
 30
0.0
 11
0.0
 21
0.0
 31
0.0
  0
LINE
  5
18CD
  8
0
  6
BYBLOCK
 62
     0
 10
0.0
 20
0.0
 30
0.0
 11
-1.0
 21
0.0
 31
0.0
  0
ENDBLK
  5
18CE
  8
0
  0
BLOCK
  8
0
  2
GENAXEH
 70
     0
 10
0.0
 20
0.0
 30
0.0
  3
GENAXEH
  1

  0
LINE
  5
18F6
  8
0
 10
-1.0
 20
0.0
 30
0.0
 11
1.0
 21
0.0
 31
0.0
  0
ENDBLK
  5
18F7
  8
0
  0
BLOCK
  8
0
  2
_OPEN30
 70
     0
 10
0.0
 20
0.0
 30
0.0
  3
_OPEN30
  1

  0
LINE
  5
191B
  8
0
  6
BYBLOCK
 62
     0
 10
-1.0
 20
0.26794919
 30
0.0
 11
0.0
 21
0.0
 31
0.0
  0
LINE
  5
191C
  8
0
  6
BYBLOCK
 62
     0
 10
0.0
 20
0.0
 30
0.0
 11
-1.0
 21
-0.26794919
 31
0.0
  0
LINE
  5
191D
  8
0
  6
BYBLOCK
 62
     0
 10
0.0
 20
0.0
 30
0.0
 11
-1.0
 21
0.0
 31
0.0
  0
ENDBLK
  5
191E
  8
0
  0
BLOCK
  8
0
  2
A$C3624374E
 70
     0
 10
0.0
 20
0.0
 30
0.0
  3
A$C3624374E
  1

  0
ARC
  5
1807
  8
240
 10
25.818629150101529
 20
-12.70000000000001
 30
0.0
 40
0.8
 50
270.0
 51
315.0
1001
GENIUS_GENOBJ-N-FIL_13
1002
{
1000
OWNER
1000
GEN
1002
}
1001
GENIUS_GENODEF_13
1002
{
1000
HIER
1070
     0
1002
}
1002
{
1000
MANEDIT
1070
     0
1002
}
1002
{
1000
NOSEL
1070
     0
1002
}
1002
{
1000
BEHIND
1070
     0
1002
}
1002
{
1000
OTHER
1070
     0
1002
}
1002
{
1000
REACTOR
1002
}
  0
ARC
  5
1808
  8
240
 10
19.645151910216541
 20
10.49999999999997
 30
0.0
 40
3.0
 50
90.0
 51
110.0
1001
GENIUS_GENODEF_13
1002
{
1000
HIER
1070
     0
1002
}
1002
{
1000
MANEDIT
1070
     0
1002
}
1002
{
1000
NOSEL
1070
     0
1002
}
1002
{
1000
BEHIND
1070
     0
1002
}
1002
{
1000
OTHER
1070
     0
1002
}
1002
{
1000
REACTOR
1002
}
1001
GENIUS_GENOBJ-N-FIL_13
1002
{
1000
OWNER
1000
GEN
1002
}
  0
ARC
  5
1809
  8
240
 10
19.64515191021648
 20
-10.5
 30
0.0
 40
3.0
 50
249.99999999999989
 51
270.0
1001
GENIUS_GENOBJ-N-FIL_13
1002
{
1000
OWNER
1000
GEN
1002
}
1001
GENIUS_GENODEF_13
1002
{
1000
HIER
1070
     0
1002
}
1002
{
1000
MANEDIT
1070
     0
1002
}
1002
{
1000
NOSEL
1070
     0
1002
}
1002
{
1000
BEHIND
1070
     0
1002
}
1002
{
1000
OTHER
1070
     0
1002
}
1002
{
1000
REACTOR
1002
}
  0
LINE
  5
180A
  8
241
 10
26.14999999999997
 20
-13.42814377689958
 30
0.0
 11
26.149999999999999
 21
-2.8878385522434429
 31
0.0
  0
LINE
  5
180B
  8
241
 10
19.116170968091112
 20
-13.45299494799233
 30
0.0
 11
19.116170968091112
 21
-1.0300681649164201
 31
0.0
  0
CIRCLE
  5
180C
  8
246
 10
29.170000000000009
 20
4.2800000000000082
 30
0.0
 40
4.7625000000000011
  0
ARC
  5
180D
  8
246
 10
37.597702834372143
 20
2.02180383148049
 30
0.0
 40
0.4
 50
285.0000000000004
 51
45.0
1001
GENIUS_GENODEF_13
1002
{
1000
HIER
1070
     0
1002
}
1002
{
1000
MANEDIT
1070
     0
1002
}
1002
{
1000
NOSEL
1070
     0
1002
}
1002
{
1000
BEHIND
1070
     0
1002
}
1002
{
1000
OTHER
1070
     0
1002
}
1002
{
1000
REACTOR
1002
}
1001
GENIUS_GENOBJ-N-FIL_13
1002
{
1000
OWNER
1000
GEN
1002
}
  0
ARC
  5
180E
  8
246
 10
23.000493334147329
 20
-1.8895066658526281
 30
0.0
 40
0.4
 50
164.9999999999996
 51
284.9999999999996
1001
GENIUS_GENODEF_13
1002
{
1000
HIER
1070
     0
1002
}
1002
{
1000
MANEDIT
1070
     0
1002
}
1002
{
1000
NOSEL
1070
     0
1002
}
1002
{
1000
BEHIND
1070
     0
1002
}
1002
{
1000
OTHER
1070
     0
1002
}
1002
{
1000
REACTOR
1002
}
1001
GENIUS_GENOBJ-N-FIL_13
1002
{
1000
OWNER
1000
GEN
1002
}
  0
ARC
  5
180F
  8
246
 10
26.911803831480562
 20
12.707702834372091
 30
0.0
 40
0.4
 50
45.0
 51
164.9999999999996
1001
GENIUS_GENODEF_13
1002
{
1000
HIER
1070
     0
1002
}
1002
{
1000
MANEDIT
1070
     0
1002
}
1002
{
1000
NOSEL
1070
     0
1002
}
1002
{
1000
BEHIND
1070
     0
1002
}
1002
{
1000
OTHER
1070
     0
1002
}
1002
{
1000
REACTOR
1002
}
1001
GENIUS_GENOBJ-N-FIL_13
1002
{
1000
OWNER
1000
GEN
1002
}
  0
LINE
  5
1810
  8
246
 10
37.880545546846768
 20
2.304646543955108
 30
0.0
 11
27.194646543955191
 21
12.990545546846709
 31
0.0
  0
LINE
  5
1811
  8
246
 10
23.104020952188328
 20
-2.2758769963682588
 30
0.0
 11
37.701230452413142
 21
1.635433500964858
 31
0.0
  0
LINE
  5
1812
  8
246
 10
26.52543350096493
 20
12.811230452413101
 30
0.0
 11
22.61412300363169
 21
-1.785979047811614
 31
0.0
  0
ARC
  5
1813
  8
241
 10
23.839341396610411
 20
2.670156301674885
 30
0.0
 40
6.0
 50
214.99999999999909
 51
287.99999999999977
1001
GENIUS_GENODEF_13
1002
{
1000
HIER
1070
     0
1002
}
1002
{
1000
MANEDIT
1070
     0
1002
}
1002
{
1000
NOSEL
1070
     0
1002
}
1002
{
1000
BEHIND
1070
     0
1002
}
1002
{
1000
OTHER
1070
     0
1002
}
1002
{
1000
REACTOR
1002
}
1001
GENIUS_GENOBJ-N-FIL_13
1002
{
1000
OWNER
1000
GEN
1002
}
  0
LINE
  5
1814
  8
241
 10
18.924429130876391
 20
-0.7713023164313526
 30
0.0
 11
10.999999999999989
 21
10.545955351399289
 31
0.0
  0
LINE
  5
1815
  8
241
 10
25.693443362860041
 20
-3.0361827960960759
 30
0.0
 11
37.5
 21
0.7999999999999761
 31
0.0
  0
LINE
  5
1816
  8
240
 10
9.4999999999999911
 20
9.9999999999999911
 30
0.0
 11
18.619091480239529
 21
13.3190778623577
 31
0.0
  0
LINE
  5
1817
  8
240
 10
19.645151910216541
 20
13.49999999999997
 30
0.0
 11
26.149999999999999
 21
13.499999999999989
 31
0.0
  0
LINE
  5
1818
  8
240
 10
37.5
 20
2.149999999999999
 30
0.0
 11
26.149999999999999
 21
13.499999999999989
 31
0.0
  0
LINE
  5
1819
  8
240
 10
37.5
 20
-2.150000000000011
 30
0.0
 11
26.384314575050769
 21
-13.26568542494924
 31
0.0
  0
LINE
  5
181A
  8
240
 10
37.5
 20
-2.150000000000011
 30
0.0
 11
37.5
 21
2.149999999999999
 31
0.0
  0
LINE
  5
181B
  8
240
 10
19.64515191021648
 20
-13.5
 30
0.0
 11
25.818629150101529
 21
-13.5
 31
0.0
  0
LINE
  5
181C
  8
240
 10
9.4999999999999911
 20
-10.0
 30
0.0
 11
18.619091480239479
 21
-13.31907786235772
 31
0.0
  0
LINE
  5
181D
  8
241
 10
9.4999999999999911
 20
10.0
 30
0.0
 11
9.4999999999999911
 21
-10.0
 31
0.0
  0
LINE
  5
181E
  8
241
 10
1.443375672974063
 20
9.9999999999999911
 30
0.0
 11
1.443375672974063
 21
-10.0
 31
0.0
  0
LINE
  5
181F
  8
241
 10
-0.0000000000000071
 20
5.699999999999994
 30
0.0
 11
-0.0000000000000071
 21
-5.699999999999994
 31
0.0
  0
LINE
  5
1820
  8
241
 10
-2.00000000000002
 20
5.6999999999999797
 30
0.0
 11
-2.0000000000000062
 21
-5.7000000000000082
 31
0.0
  0
LINE
  5
1821
  8
240
 10
-0.0000000000000071
 20
-5.699999999999994
 30
0.0
 11
-0.0000000000000071
 21
-7.5000000000000071
 31
0.0
  0
LINE
  5
1822
  8
240
 10
-1.999999999999992
 20
-5.7000000000000082
 30
0.0
 11
-2.0000000000000062
 21
-5.999999999999992
 31
0.0
  0
LINE
  5
1823
  8
240
 10
-0.0000000000000071
 20
-7.5000000000000071
 30
0.0
 11
1.443375672974063
 21
-10.0
 31
0.0
  0
LINE
  5
1824
  8
240
 10
1.443375672974063
 20
9.9999999999999911
 30
0.0
 11
-0.0000000000000071
 21
7.499999999999992
 31
0.0
  0
LINE
  5
1825
  8
240
 10
-2.0000000000000062
 20
5.699999999999994
 30
0.0
 11
0.0000000000000071
 21
5.699999999999994
 31
0.0
  0
LINE
  5
1826
  8
240
 10
-2.0000000000000062
 20
-5.7000000000000082
 30
0.0
 11
-0.0000000000000071
 21
-5.699999999999994
 31
0.0
  0
LINE
  5
1827
  8
240
 10
-2.00000000000002
 20
5.9999999999999636
 30
0.0
 11
-2.00000000000002
 21
5.6999999999999797
 31
0.0
  0
ARC
  5
1828
  8
240
 10
-43.866025403784448
 20
5.5000000000000071
 30
0.0
 40
0.5
 50
90.0
 51
119.99999999999901
1001
GENIUS_GENODEF_13
1002
{
1000
HIER
1070
     0
1002
}
1002
{
1000
MANEDIT
1070
     0
1002
}
1002
{
1000
NOSEL
1070
     0
1002
}
1002
{
1000
BEHIND
1070
     0
1002
}
1002
{
1000
OTHER
1070
     0
1002
}
1002
{
1000
REACTOR
1002
}
1001
GENIUS_GENOBJ-N-FIL_13
1002
{
1000
OWNER
1000
GEN
1002
}
  0
ARC
  5
1829
  8
240
 10
-44.500000000000007
 20
5.1339745962155581
 30
0.0
 40
0.5
 50
120.0000000000001
 51
180.0
1001
GENIUS_GENODEF_13
1002
{
1000
HIER
1070
     0
1002
}
1002
{
1000
MANEDIT
1070
     0
1002
}
1002
{
1000
NOSEL
1070
     0
1002
}
1002
{
1000
BEHIND
1070
     0
1002
}
1002
{
1000
OTHER
1070
     0
1002
}
1002
{
1000
REACTOR
1002
}
1001
GENIUS_GENOBJ-N-FIL_13
1002
{
1000
OWNER
1000
GEN
1002
}
  0
ARC
  5
182A
  8
240
 10
-44.500000000000007
 20
-5.1339745962155732
 30
0.0
 40
0.5
 50
180.0
 51
239.99999999999909
1001
GENIUS_GENOBJ-N-FIL_13
1002
{
1000
OWNER
1000
GEN
1002
}
1001
GENIUS_GENODEF_13
1002
{
1000
HIER
1070
     0
1002
}
1002
{
1000
MANEDIT
1070
     0
1002
}
1002
{
1000
NOSEL
1070
     0
1002
}
1002
{
1000
BEHIND
1070
     0
1002
}
1002
{
1000
OTHER
1070
     0
1002
}
1002
{
1000
REACTOR
1002
}
  0
ARC
  5
182B
  8
240
 10
-43.866025403784448
 20
-5.5000000000000071
 30
0.0
 40
0.5
 50
239.9999999999998
 51
270.0
1001
GENIUS_GENODEF_13
1002
{
1000
HIER
1070
     0
1002
}
1002
{
1000
MANEDIT
1070
     0
1002
}
1002
{
1000
NOSEL
1070
     0
1002
}
1002
{
1000
BEHIND
1070
     0
1002
}
1002
{
1000
OTHER
1070
     0
1002
}
1002
{
1000
REACTOR
1002
}
1001
GENIUS_GENOBJ-N-FIL_13
1002
{
1000
OWNER
1000
GEN
1002
}
  0
LINE
  5
182C
  8
240
 10
-44.75
 20
-5.566987298107783
 30
0.0
 11
-44.116025403784462
 21
-5.9330127018922321
 31
0.0
  0
LINE
  5
182D
  8
AM_CL
 10
-44.116025403784462
 20
5.9330127018922321
 30
0.0
 11
-44.75
 21
5.566987298107783
 31
0.0
  0
LINE
  5
182E
  8
241
 10
-44.000000000000007
 20
5.9817165220011557
 30
0.0
 11
-43.999999999999993
 21
-5.9817165220011557
 31
0.0
  0
LINE
  5
182F
  8
240
 10
1.443375672974063
 20
-10.0
 30
0.0
 11
9.4999999999999911
 21
-10.0
 31
0.0
  0
LINE
  5
1830
  8
240
 10
1.443375672974063
 20
9.9999999999999911
 30
0.0
 11
9.4999999999999911
 21
10.0
 31
0.0
  0
LINE
  5
1831
  8
240
 10
-0.0000000000000071
 20
7.499999999999992
 30
0.0
 11
-0.0000000000000071
 21
5.699999999999994
 31
0.0
  0
LINE
  5
1832
  8
240
 10
-43.866025403784448
 20
-6.0000000000000071
 30
0.0
 11
-2.0000000000000062
 21
-5.999999999999992
 31
0.0
  0
LINE
  5
1833
  8
240
 10
-43.866025403784448
 20
6.0000000000000071
 30
0.0
 11
-2.00000000000002
 21
5.9999999999999636
 31
0.0
  0
LINE
  5
1834
  8
240
 10
-45.0
 20
5.1339745962155581
 30
0.0
 11
-45.0
 21
-5.1339745962155732
 31
0.0
  0
LINE
  5
1835
  8
245
 10
-49.486124914967611
 20
-0.0000000000000069
 30
0.0
 11
44.416238276866572
 21
-0.0000000000000069
 31
0.0
  0
ENDBLK
  5
1838
  8
0
  0
ENDSEC
  0
SECTION
  2
ENTITIES
  0
LINE
  5
14C8
  8
250
 10
26.841093153361921
 20
13.344098937439981
 30
0.0
 11
15.953575821171111
 21
24.231616269630841
 31
0.0
  0
ARC
  5
14CA
  8
250
 10
40.185192090801891
 20
-0.0000000000000087
 30
0.0
 40
33.268680366732447
 50
138.8412560598934
 51
210.75778158347879
  0
TEXT
  5
14CF
  8
241
 10
-42.0
 20
49.0
 30
0.0
 40
5.0
  1
ST12B-C0525
  7
YOKO
  0
TEXT
  5
17B4
  8
250
 10
5.9165117240694407
 20
-4.546666666666674
 30
0.0
 40
2.799999999999998
  1
90üï
 50
90.0
1001
ACAD
1000
MTEXTBEGIN
1070
    73
1070
     1
1070
    44
1040
1.0
1070
    74
1070
     0
1000
MTEXTEND
  0
LINE
  5
17B5
  8
250
 10
14.86610001330709
 20
22.14955151010906
 30
0.0
 11
16.66068260235765
 21
23.524509488444291
 31
0.0
  0
LINE
  5
17B6
  8
250
 10
15.409036794878009
 20
21.641846777354029
 30
0.0
 11
16.66068260235765
 21
23.524509488444291
 31
0.0
  0
LINE
  5
17B7
  8
250
 10
16.66068260235765
 20
23.524509488444291
 30
0.0
 11
15.13756840409255
 21
21.895699143731541
 31
0.0
  0
LINE
  5
17B8
  8
250
 10
28.185192090801909
 20
12.499999999999989
 30
0.0
 11
61.999999999999993
 21
12.49999999999998
 31
0.0
  0
LINE
  5
17B9
  8
250
 10
60.999999999999993
 20
10.26999999999998
 30
0.0
 11
60.999999999999993
 21
-9.5333333333333474
 31
0.0
  0
LINE
  5
17BC
  8
250
 10
38.185192090801877
 20
2.4999999999999929
 30
0.0
 11
55.0
 21
2.499999999999988
 31
0.0
  0
LINE
  5
17BD
  8
250
 10
53.999999999999993
 20
4.7299999999999871
 30
0.0
 11
53.999999999999993
 21
-6.9600000000000088
 31
0.0
  0
LINE
  5
17BE
  8
250
 10
53.999999999999993
 20
-2.5000000000000102
 30
0.0
 11
53.999999999999993
 21
2.499999999999988
 31
0.0
  0
LINE
  5
17C1
  8
250
 10
-45.0
 20
5.6339745962155581
 30
0.0
 11
-45.0
 21
36.0
 31
0.0
  0
LINE
  5
17C2
  8
250
 10
37.984073164887761
 20
2.4182762134394831
 30
0.0
 11
37.984073164887761
 21
36.0
 31
0.0
  0
LINE
  5
17C3
  8
250
 10
-42.77000000000001
 20
35.0
 30
0.0
 11
35.754073164887757
 21
35.0
 31
0.0
  0
LINE
  5
17C7
  8
250
 10
-0.0000000000000071
 20
7.999999999999992
 30
0.0
 11
-0.0000000000000058
 21
28.999999999999989
 31
0.0
  0
LINE
  5
17C8
  8
250
 10
37.984073164887761
 20
2.4182762134394831
 30
0.0
 11
37.984073164887761
 21
28.999999999999989
 31
0.0
  0
LINE
  5
17C9
  8
250
 10
2.2299999999999942
 20
27.999999999999989
 30
0.0
 11
35.754073164887757
 21
27.999999999999989
 31
0.0
  0
LINE
  5
17CD
  8
250
 10
-45.0
 20
5.6339745962155581
 30
0.0
 11
-45.0
 21
28.999999999999989
 31
0.0
  0
LINE
  5
17CE
  8
250
 10
-0.0000000000000071
 20
7.999999999999992
 30
0.0
 11
-0.0000000000000058
 21
28.999999999999989
 31
0.0
  0
LINE
  5
17CF
  8
250
 10
-42.770000000000003
 20
27.999999999999989
 30
0.0
 11
-2.230000000000004
 21
27.999999999999989
 31
0.0
  0
LINE
  5
17D3
  8
250
 10
-44.366025403784462
 20
6.0000000000000071
 30
0.0
 11
-59.000000000000007
 21
6.0000000000000107
 31
0.0
  0
LINE
  5
17D4
  8
250
 10
-44.366025403784462
 20
-6.0000000000000071
 30
0.0
 11
-59.000000000000007
 21
-6.0000000000000018
 31
0.0
  0
LINE
  5
17D5
  8
250
 10
-58.0
 20
3.7700000000000111
 30
0.0
 11
-58.0
 21
-3.7700000000000031
 31
0.0
  0
TEXT
  5
17D9
  8
250
 10
-59.0
 20
-3.800000000000002
 30
0.0
 40
2.799999999999998
  1
\U+220512
 50
90.0
1001
ACAD
1000
MTEXTBEGIN
1070
    73
1070
     1
1070
    44
1040
1.0
1070
    74
1070
     0
1000
MTEXTEND
  0
LINE
  5
17DA
  8
250
 10
-57.62833333333333
 20
-3.7700000000000031
 30
0.0
 11
-58.0
 21
-6.0000000000000018
 31
0.0
  0
LINE
  5
17DB
  8
250
 10
-58.371666666666663
 20
-3.7700000000000031
 30
0.0
 11
-58.0
 21
-6.0000000000000018
 31
0.0
  0
LINE
  5
17DC
  8
250
 10
-58.0
 20
-6.0000000000000018
 30
0.0
 11
-58.0
 21
-3.7700000000000031
 31
0.0
  0
LINE
  5
17DD
  8
250
 10
-58.37166666666667
 20
3.770000000000012
 30
0.0
 11
-58.0
 21
6.0000000000000107
 31
0.0
  0
LINE
  5
17DE
  8
250
 10
-57.62833333333333
 20
3.770000000000012
 30
0.0
 11
-58.0
 21
6.0000000000000107
 31
0.0
  0
LINE
  5
17DF
  8
250
 10
-58.0
 20
6.0000000000000107
 30
0.0
 11
-58.0
 21
3.770000000000012
 31
0.0
  0
TEXT
  5
17E0
  8
250
 10
-25.166666666666671
 20
29.0
 30
0.0
 40
2.799999999999998
  1
45
1001
ACAD
1000
MTEXTBEGIN
1070
    73
1070
     1
1070
    44
1040
1.0
1070
    74
1070
     0
1000
MTEXTEND
  0
LINE
  5
17E1
  8
250
 10
-2.230000000000004
 20
28.371666666666659
 30
0.0
 11
-0.0000000000000059
 21
27.999999999999989
 31
0.0
  0
LINE
  5
17E2
  8
250
 10
-2.230000000000004
 20
27.62833333333333
 30
0.0
 11
-0.0000000000000059
 21
27.999999999999989
 31
0.0
  0
LINE
  5
17E3
  8
250
 10
-0.0000000000000059
 20
27.999999999999989
 30
0.0
 11
-2.230000000000004
 21
27.999999999999989
 31
0.0
  0
LINE
  5
17E4
  8
250
 10
-42.770000000000003
 20
27.62833333333333
 30
0.0
 11
-45.0
 21
27.999999999999989
 31
0.0
  0
LINE
  5
17E5
  8
250
 10
-42.770000000000003
 20
28.371666666666659
 30
0.0
 11
-45.0
 21
27.999999999999989
 31
0.0
  0
LINE
  5
17E6
  8
250
 10
-45.0
 20
27.999999999999989
 30
0.0
 11
-42.770000000000003
 21
27.999999999999989
 31
0.0
  0
TEXT
  5
17E7
  8
250
 10
16.325369915777209
 20
29.0
 30
0.0
 40
2.799999999999998
  1
38
1001
ACAD
1000
MTEXTBEGIN
1070
    73
1070
     1
1070
    44
1040
1.0
1070
    74
1070
     0
1000
MTEXTEND
  0
LINE
  5
17E8
  8
250
 10
35.754073164887771
 20
28.371666666666659
 30
0.0
 11
37.984073164887761
 21
27.999999999999989
 31
0.0
  0
LINE
  5
17E9
  8
250
 10
35.754073164887771
 20
27.62833333333333
 30
0.0
 11
37.984073164887761
 21
27.999999999999989
 31
0.0
  0
LINE
  5
17EA
  8
250
 10
37.984073164887761
 20
27.999999999999989
 30
0.0
 11
35.754073164887771
 21
27.999999999999989
 31
0.0
  0
LINE
  5
17EB
  8
250
 10
2.2299999999999929
 20
27.62833333333333
 30
0.0
 11
-0.0000000000000059
 21
27.999999999999989
 31
0.0
  0
LINE
  5
17EC
  8
250
 10
2.2299999999999929
 20
28.371666666666659
 30
0.0
 11
-0.0000000000000059
 21
27.999999999999989
 31
0.0
  0
LINE
  5
17ED
  8
250
 10
-0.0000000000000059
 20
27.999999999999989
 30
0.0
 11
2.2299999999999929
 21
27.999999999999989
 31
0.0
  0
TEXT
  5
17EE
  8
250
 10
-6.1746300842227884
 20
36.0
 30
0.0
 40
2.799999999999998
  1
83
1001
ACAD
1000
MTEXTBEGIN
1070
    73
1070
     1
1070
    44
1040
1.0
1070
    74
1070
     0
1000
MTEXTEND
  0
LINE
  5
17EF
  8
250
 10
35.754073164887771
 20
35.371666666666663
 30
0.0
 11
37.984073164887761
 21
35.0
 31
0.0
  0
LINE
  5
17F0
  8
250
 10
35.754073164887771
 20
34.628333333333323
 30
0.0
 11
37.984073164887761
 21
35.0
 31
0.0
  0
LINE
  5
17F1
  8
250
 10
37.984073164887761
 20
35.0
 30
0.0
 11
35.754073164887771
 21
35.0
 31
0.0
  0
LINE
  5
17F2
  8
250
 10
-42.770000000000003
 20
34.628333333333323
 30
0.0
 11
-45.0
 21
35.0
 31
0.0
  0
LINE
  5
17F3
  8
250
 10
-42.770000000000003
 20
35.371666666666663
 30
0.0
 11
-45.0
 21
35.0
 31
0.0
  0
LINE
  5
17F4
  8
250
 10
-45.0
 20
35.0
 30
0.0
 11
-42.770000000000003
 21
35.0
 31
0.0
  0
TEXT
  5
17F5
  8
250
 10
53.0
 20
-7.133333333333332
 30
0.0
 40
2.799999999999998
  1
min.\U+22055
 50
90.0
1001
ACAD
1000
MTEXTBEGIN
1070
    73
1070
     1
1070
    44
1040
1.0
1070
    74
1070
     0
1000
MTEXTEND
  0
LINE
  5
17F6
  8
250
 10
54.371666666666663
 20
4.7299999999999871
 30
0.0
 11
53.999999999999993
 21
2.499999999999988
 31
0.0
  0
LINE
  5
17F7
  8
250
 10
53.62833333333333
 20
4.7299999999999871
 30
0.0
 11
53.999999999999993
 21
2.499999999999988
 31
0.0
  0
LINE
  5
17F8
  8
250
 10
53.999999999999993
 20
2.499999999999988
 30
0.0
 11
53.999999999999993
 21
4.7299999999999871
 31
0.0
  0
TEXT
  5
17F9
  8
250
 10
59.999999999999993
 20
-9.0666666666666718
 30
0.0
 40
2.799999999999998
  1
max.\U+220525
 50
90.0
1001
ACAD
1000
MTEXTBEGIN
1070
    73
1070
     1
1070
    44
1040
1.0
1070
    74
1070
     0
1000
MTEXTEND
  0
LINE
  5
17FA
  8
250
 10
60.628333333333323
 20
10.26999999999998
 30
0.0
 11
60.999999999999993
 21
12.49999999999998
 31
0.0
  0
LINE
  5
17FB
  8
250
 10
61.371666666666663
 20
10.26999999999998
 30
0.0
 11
60.999999999999993
 21
12.49999999999998
 31
0.0
  0
LINE
  5
17FC
  8
250
 10
60.999999999999993
 20
12.49999999999998
 30
0.0
 11
60.999999999999993
 21
10.26999999999998
 31
0.0
  0
INSERT
  5
1839
  8
240
  2
A$C3624374E
 10
0.0
 20
0.0
 30
0.0
  0
VIEWPORT
  5
22
 67
     1
  8
0
 10
261.51769911504419
 20
148.5
 30
0.0
 40
523.0353982300885
 41
297.0
 68
     1
 69
     1
1001
ACAD
1000
MVIEW
1002
{
1070
    16
1010
0.0
1020
0.0
1030
0.0
1010
0.0
1020
0.0
1030
1.0
1040
0.0
1040
297.0
1040
261.51769911504419
1040
148.5
1040
50.0
1040
0.0
1040
0.0
1070
     0
1070
   100
1070
     1
1070
     1
1070
     0
1070
     0
1070
     0
1070
     0
1040
0.0
1040
0.0
1040
0.0
1040
1.0
1040
1.0
1040
10.0
1040
10.0
1070
     0
1002
{
1002
}
1002
}
1001
GENIUS_GENODEF_13
1002
{
1000
HIER
1070
     0
1002
}
1002
{
1000
MANEDIT
1070
     0
1002
}
1002
{
1000
NOSEL
1070
     0
1002
}
1002
{
1000
BEHIND
1070
     0
1002
}
1002
{
1000
OTHER
1070
     0
1002
}
1002
{
1000
REACTOR
1002
}
1001
GENIUS_GENOBJ-N-SDF_13
1002
{
1000
OWNER
1000
GEN
1002
}
1001
GENIUS_GENSCREG_15
1000
PF
1040
1.0
1000
DF
1040
1.0
1000
MIN
1011
0.0
1021
-3.6657797281941775E+253
1031
0.0
1021
0.0
1031
0.0
1000
MAX
1011
523.0353982300885
1021
-3.6657797281941775E+253
1031
0.0
1021
297.0
1031
0.0
1000
FLAGS
1070
     2
  0
ENDSEC
  0
EOF
