  0
SECTION
  2
HEADER
  9
$ACADVER
  1
AC1009
  9
$INSBASE
 10
0.0
 20
0.0
 30
0.0
  9
$EXTMIN
 10
-2.1755774987601471
 20
-16.640976637173701
 30
0.0
  9
$EXTMAX
 10
98.799038105676729
 20
36.000000000000007
 30
0.0
  9
$LIMMIN
 10
0.0
 20
0.0
  9
$LIMMAX
 10
297.0
 20
210.0
  9
$ORTHOMODE
 70
     0
  9
$REGENMODE
 70
     1
  9
$FILLMODE
 70
     1
  9
$QTEXTMODE
 70
     0
  9
$MIRRTEXT
 70
     1
  9
$DRAGMODE
 70
     2
  9
$LTSCALE
 40
10.0
  9
$OSMODE
 70
    39
  9
$ATTMODE
 70
     1
  9
$TEXTSIZE
 40
3.0
  9
$TRACEWID
 40
1.0
  9
$TEXTSTYLE
  7
YOKO
  9
$CLAYER
  8
240
  9
$CELTYPE
  6
BYLAYER
  9
$CECOLOR
 62
   256
  9
$DIMSCALE
 40
1.0
  9
$DIMASZ
 40
2.2299999999999991
  9
$DIMEXO
 40
0.5
  9
$DIMDLI
 40
7.0
  9
$DIMRND
 40
0.0
  9
$DIMDLE
 40
0.0
  9
$DIMEXE
 40
1.0
  9
$DIMTP
 40
0.0
  9
$DIMTM
 40
0.01
  9
$DIMTXT
 40
2.799999999999998
  9
$DIMCEN
 40
0.0
  9
$DIMTSZ
 40
0.0
  9
$DIMTOL
 70
     0
  9
$DIMLIM
 70
     0
  9
$DIMTIH
 70
     0
  9
$DIMTOH
 70
     0
  9
$DIMSE1
 70
     0
  9
$DIMSE2
 70
     0
  9
$DIMTAD
 70
     3
  9
$DIMZIN
 70
     9
  9
$DIMBLK
  1
OPEN
  9
$DIMASO
 70
     1
  9
$DIMSHO
 70
     1
  9
$DIMPOST
  1

  9
$DIMAPOST
  1

  9
$DIMALT
 70
     0
  9
$DIMALTD
 70
     2
  9
$DIMALTF
 40
25.399999999999999
  9
$DIMLFAC
 40
1.0
  9
$DIMTOFL
 70
     1
  9
$DIMTVP
 40
0.0
  9
$DIMTIX
 70
     1
  9
$DIMSOXD
 70
     0
  9
$DIMSAH
 70
     0
  9
$DIMBLK1
  1

  9
$DIMBLK2
  1

  9
$DIMSTYLE
  2
BIGT
  9
$DIMCLRD
 70
   256
  9
$DIMCLRE
 70
   256
  9
$DIMCLRT
 70
    40
  9
$DIMTFAC
 40
1.0
  9
$DIMGAP
 40
1.0
  9
$LUNITS
 70
     2
  9
$LUPREC
 70
     6
  9
$SKETCHINC
 40
1.0
  9
$FILLETRAD
 40
0.0
  9
$AUNITS
 70
     0
  9
$AUPREC
 70
     6
  9
$MENU
  1
.
  9
$ELEVATION
 40
0.0
  9
$PELEVATION
 40
0.0
  9
$THICKNESS
 40
0.0
  9
$LIMCHECK
 70
     0
  9
$BLIPMODE
 70
     0
  9
$CHAMFERA
 40
0.2
  9
$CHAMFERB
 40
0.2
  9
$SKPOLY
 70
     0
  9
$TDCREATE
 40
2460189.6049106591
  9
$TDUPDATE
 40
2460192.4082026151
  9
$TDINDWG
 40
0.0222014468
  9
$TDUSRTIMER
 40
0.0222013542
  9
$USRTIMER
 70
     1
  9
$ANGBASE
 50
0.0
  9
$ANGDIR
 70
     0
  9
$PDMODE
 70
     1
  9
$PDSIZE
 40
0.0
  9
$PLINEWID
 40
0.0
  9
$COORDS
 70
     1
  9
$SPLFRAME
 70
     0
  9
$SPLINETYPE
 70
     6
  9
$SPLINESEGS
 70
     4
  9
$ATTDIA
 70
     1
  9
$ATTREQ
 70
     1
  9
$HANDLING
 70
     1
  9
$HANDSEED
  5
489D
  9
$SURFTAB1
 70
     6
  9
$SURFTAB2
 70
     6
  9
$SURFTYPE
 70
     6
  9
$SURFU
 70
     6
  9
$SURFV
 70
     6
  9
$UCSNAME
  2

  9
$UCSORG
 10
0.0
 20
0.0
 30
0.0
  9
$UCSXDIR
 10
1.0
 20
0.0
 30
0.0
  9
$UCSYDIR
 10
0.0
 20
1.0
 30
0.0
  9
$PUCSNAME
  2

  9
$PUCSORG
 10
0.0
 20
0.0
 30
0.0
  9
$PUCSXDIR
 10
1.0
 20
0.0
 30
0.0
  9
$PUCSYDIR
 10
0.0
 20
1.0
 30
0.0
  9
$USERI1
 70
     1
  9
$USERI2
 70
     0
  9
$USERI3
 70
     0
  9
$USERI4
 70
     0
  9
$USERI5
 70
     0
  9
$USERR1
 40
0.0
  9
$USERR2
 40
0.0
  9
$USERR3
 40
0.0
  9
$USERR4
 40
0.0
  9
$USERR5
 40
0.0
  9
$WORLDVIEW
 70
     1
  9
$SHADEDGE
 70
     3
  9
$SHADEDIF
 70
    70
  9
$TILEMODE
 70
     1
  9
$MAXACTVP
 70
    16
  9
$PLIMCHECK
 70
     0
  9
$PEXTMIN
 10
1.0000000000000000E+020
 20
1.0000000000000000E+020
 30
1.0000000000000000E+020
  9
$PEXTMAX
 10
-1.0000000000000000E+020
 20
-1.0000000000000000E+020
 30
-1.0000000000000000E+020
  9
$PLIMMIN
 10
0.0
 20
0.0
  9
$PLIMMAX
 10
420.0
 20
297.0
  9
$UNITMODE
 70
     0
  9
$VISRETAIN
 70
     1
  9
$PLINEGEN
 70
     0
  9
$PSLTSCALE
 70
     1
  0
ENDSEC
  0
SECTION
  2
TABLES
  0
TABLE
  2
VPORT
 70
     1
  0
VPORT
  2
*ACTIVE
 70
     0
 10
0.0
 20
0.0
 11
1.0
 21
1.0
 12
38.500484845991693
 22
9.7797869969407571
 13
0.0
 23
0.0
 14
7.0
 24
7.0
 15
7.0
 25
7.0
 16
0.0
 26
0.0
 36
1.0
 17
0.0
 27
0.0
 37
0.0
 40
100.1032426997847
 41
1.735941320293398
 42
50.0
 43
0.0
 44
0.0
 50
0.0
 51
0.0
 71
     0
 72
  2000
 73
     1
 74
     0
 75
     0
 76
     1
 77
     0
 78
     0
  0
ENDTAB
  0
TABLE
  2
LTYPE
 70
    16
  0
LTYPE
  2
CONTINUOUS
 70
     0
  3
Solid line
 72
    65
 73
     0
 40
0.0
  0
LTYPE
  2
CENTER2
 70
     0
  3
___ _ ___ _ ___ _ ___ _ ___ _ ___ _ ___ _ ___ _
 72
    65
 73
     4
 40
1.125
 49
0.75
 49
-0.125
 49
0.125
 49
-0.125
  0
LTYPE
  2
HIDDEN2
 70
     0
  3
_ _ _ _ _ _ _ _ _ _ _ _ _ _ _ _ _ _ _ _ _ _ _ _
 72
    65
 73
     2
 40
0.1875
 49
0.125
 49
-0.0625
  0
LTYPE
  2
PHANTOM2
 70
     0
  3
___ _ _ ___ _ _ ___ _ _ ___ _ _ ___ _ _ ___ _ _
 72
    65
 73
     6
 40
1.25
 49
0.625
 49
-0.125
 49
0.125
 49
-0.125
 49
0.125
 49
-0.125
  0
LTYPE
  2
AMCONSTR
 70
     0
  3
_______________________
 72
    65
 73
     2
 40
9999.0
 49
9999.0
 49
0.0
  0
LTYPE
  2
HIDDEN
 70
     0
  3
Hidden __ __ __ __ __ __ __ __ __ __ __ __ __ _
 72
    65
 73
     2
 40
0.375
 49
0.25
 49
-0.125
  0
LTYPE
  2
CENTER
 70
     0
  3
Center ____ _ ____ _ ____ _ ____ _ ____ _ ____
 72
    65
 73
     4
 40
2.0
 49
1.25
 49
-0.25
 49
0.25
 49
-0.25
  0
LTYPE
  2
AMZIGZAG2
 70
     0
  3
/\/-/\/-/\/-/\/-/\/-/\/
 72
    65
 73
     2
 40
0.4401
 49
0.0001
 49
-0.4400000000000002
  0
LTYPE
  2
ACANSTGB
 70
     0
  3
__ . . __ . .
 72
    65
 73
     6
 40
0.35433070866
 49
0.15748031496
 49
-0.03937007874
 49
0.03937007874
 49
-0.03937007874
 49
0.03937007874
 49
-0.03937007874
  0
LTYPE
  2
ACANSTGL
 70
     0
  3
_ _ _ _ _
 72
    65
 73
     2
 40
0.11811023622
 49
0.07874015748
 49
-0.03937007874
  0
ENDTAB
  0
TABLE
  2
LAYER
 70
    10
  0
LAYER
  2
0
 70
     0
 62
     7
  6
CONTINUOUS
  0
LAYER
  2
240
 70
     0
 62
     4
  6
CONTINUOUS
  0
LAYER
  2
DEFPOINTS
 70
     0
 62
     7
  6
CONTINUOUS
  0
LAYER
  2
245
 70
     0
 62
     2
  6
CENTER2
  0
LAYER
  2
241
 70
     0
 62
   211
  6
CONTINUOUS
  0
LAYER
  2
242
 70
     0
 62
     3
  6
CONTINUOUS
  0
LAYER
  2
243
 70
     0
 62
   211
  6
HIDDEN2
  0
LAYER
  2
247
 70
     0
 62
    60
  6
CONTINUOUS
  0
LAYER
  2
250
 70
     0
 62
     3
  6
CONTINUOUS
  0
ENDTAB
  0
TABLE
  2
STYLE
 70
     7
  0
STYLE
  2
STANDARD
 70
     0
 40
0.0
 41
1.0
 50
0.0
 71
     0
 42
3.0
  3
romans.shx
  4
extfont.shx
  0
STYLE
  2
YOKO
 70
     0
 40
0.0
 41
1.0
 50
0.0
 71
     0
 42
3.0
  3
romans.shx
  4
extfont.shx
  0
STYLE
  2
ACJISTS
 70
     0
 40
1.0
 41
1.0
 50
0.0
 71
     0
 42
3.0
  3
amgdt.shx
  4
extfont.shx
  0
STYLE
  2
ACANSGDT
 70
     0
 40
0.0
 41
1.0
 50
0.0
 71
     0
 42
3.0
  3
amgdt.shx
  4

  0
ENDTAB
  0
TABLE
  2
VIEW
 70
     0
  0
ENDTAB
  0
TABLE
  2
UCS
 70
     0
  0
ENDTAB
  0
TABLE
  2
APPID
 70
    41
  0
APPID
  2
ACAD
 70
     0
  0
APPID
  2
ACADANNOTATIVE
 70
     0
  0
APPID
  2
GLOBAL
 70
     0
  0
APPID
  2
DETAIL
 70
     0
  0
APPID
  2
GRPNAME
 70
     0
  0
APPID
  2
GPARA
 70
     0
  0
APPID
  2
MCAD_NO_VIS
 70
     0
  0
APPID
  2
ACAD_TEMP_GRAPHIC
 70
     0
  0
APPID
  2
ACATTRIBSERVICES
 70
     0
  0
APPID
  2
GENIUS_GENSCREG_15
 70
     0
  0
APPID
  2
GENIUS_GENODEF_13
 70
     0
  0
APPID
  2
GENIUS_GENOBJ-N-SDF_13
 70
     0
  0
APPID
  2
GENIUS_GENREC_14
 70
     0
  0
APPID
  2
GENIUS_GENOBJ-N-REC_13
 70
     0
  0
APPID
  2
GENIUS_GENDIMSH_14
 70
     0
  0
APPID
  2
GENIUS_GENOBJ-N-DIM_13
 70
     0
  0
APPID
  2
GENIUS_GENDIM_13
 70
     0
  0
APPID
  2
GENIUS_GENDTOL_13
 70
     0
  0
APPID
  2
GENIUS_GENOLIS_13
 70
     0
  0
APPID
  2
GENIUS_GENOENT_13
 70
     0
  0
APPID
  2
GENIUS_GENOBJ-F-FEM_13
 70
     0
  0
APPID
  2
GENIUS_GENOREF_13
 70
     0
  0
APPID
  2
GENIUS_GEFFEM_13
 70
     0
  0
APPID
  2
GENIUS_GEFFEMP_13
 70
     0
  0
APPID
  2
AD_DRAW
 70
     0
  0
APPID
  2
DESIGNERASSEMBLIES
 70
     0
  0
APPID
  2
ACADM_DIM_EDIT
 70
     0
  0
APPID
  2
AMDT_DM_ADJ
 70
     0
  0
APPID
  2
ITEMNAME
 70
     0
  0
APPID
  2
GENIUS_GENOBJ-N-FIL_13
 70
     0
  0
APPID
  2
GENIUS_GENFIL_13
 70
     0
  0
APPID
  2
GENIUS_GENOBJ-N-CHA_13
 70
     0
  0
APPID
  2
ACAD_NAV_VCDISPLAY
 70
     0
  0
APPID
  2
ACAECLAYERSTANDARD
 70
     0
  0
APPID
  2
ACAD_DSTYLE_DIMJAG
 70
     0
  0
APPID
  2
ACAD_DSTYLE_DIMTALN
 70
     0
  0
APPID
  2
ACAD_PSEXT
 70
     0
  0
APPID
  2
ACAD_DSTYLE_DIMINSPECT
 70
     0
  0
APPID
  2
ACAD_EXEMPT_FROM_CAD_STANDARDS
 70
     0
  0
APPID
  2
ACAD_MLEADERVER
 70
     0
  0
APPID
  2
ACAD_DSTYLE_DIMBREAK
 70
     0
  0
ENDTAB
  0
TABLE
  2
DIMSTYLE
 70
     9
  0
DIMSTYLE
  2
STANDARD
 70
     0
  3

  4

  5

  6

  7

 40
1.0
 41
0.18
 42
0.0625
 43
0.38
 44
0.18
 45
0.0
 46
0.0
 47
0.0
 48
0.0
140
0.18
141
0.09
142
0.0
143
25.399999999999999
144
1.0
145
0.0
146
1.0
147
0.09
 71
     0
 72
     0
 73
     1
 74
     1
 75
     0
 76
     0
 77
     0
 78
     0
170
     0
171
     2
172
     0
173
     0
174
     0
175
     0
176
     0
177
     0
178
     0
  0
DIMSTYLE
  2
BIGT
 70
     0
  3

  4

  5

  6

  7

 40
1.0
 41
2.2299999999999991
 42
0.5
 43
7.0
 44
1.0
 45
0.0
 46
0.0
 47
0.0
 48
0.01
140
2.799999999999998
141
0.0
142
0.0
143
25.399999999999999
144
1.0
145
0.0
146
1.0
147
1.0
 71
     0
 72
     0
 73
     0
 74
     0
 75
     0
 76
     0
 77
     3
 78
     9
170
     0
171
     2
172
     1
173
     0
174
     1
175
     0
176
   256
177
   256
178
    40
  0
DIMSTYLE
  2
AM_ANSI
 70
     0
  3

  4
mm
  5

  6

  7

 40
1.0
 41
0.12
 42
0.05
 43
0.5
 44
0.1
 45
0.0
 46
0.0
 47
0.1
 48
0.1
140
0.12
141
0.0
142
0.0
143
25.399999999999999
144
1.0
145
0.0
146
0.71
147
0.06
 71
     0
 72
     0
 73
     1
 74
     1
 75
     0
 76
     0
 77
     0
 78
     7
170
     0
171
     2
172
     0
173
     0
174
     0
175
     0
176
   256
177
   256
178
     2
  0
DIMSTYLE
  2
AM_ANSI$3
 70
     0
  3

  4
mm
  5

  6

  7

 40
1.0
 41
0.12
 42
0.05
 43
0.5
 44
0.1
 45
0.0
 46
0.0
 47
0.1
 48
0.1
140
0.12
141
0.0
142
0.0
143
25.399999999999999
144
1.0
145
0.0
146
0.71
147
0.06
 71
     0
 72
     0
 73
     1
 74
     1
 75
     0
 76
     0
 77
     0
 78
     7
170
     0
171
     2
172
     0
173
     0
174
     0
175
     0
176
   256
177
   256
178
     2
  0
DIMSTYLE
  2
AM_ANSI$4
 70
     0
  3

  4
mm
  5

  6

  7

 40
1.0
 41
0.12
 42
0.05
 43
0.5
 44
0.1
 45
0.0
 46
0.0
 47
0.1
 48
0.1
140
0.12
141
0.0
142
0.0
143
25.399999999999999
144
1.0
145
0.0
146
0.71
147
0.06
 71
     0
 72
     0
 73
     1
 74
     1
 75
     0
 76
     0
 77
     0
 78
     7
170
     0
171
     2
172
     0
173
     0
174
     0
175
     0
176
   256
177
   256
178
     2
  0
DIMSTYLE
  2
AM_ANSI$7
 70
     0
  3

  4
mm
  5

  6

  7

 40
1.0
 41
0.12
 42
0.05
 43
0.5
 44
0.1
 45
0.0
 46
0.0
 47
0.1
 48
0.1
140
0.12
141
0.0
142
0.0
143
25.399999999999999
144
1.0
145
0.0
146
0.71
147
0.06
 71
     0
 72
     0
 73
     1
 74
     1
 75
     0
 76
     0
 77
     0
 78
     7
170
     0
171
     2
172
     0
173
     0
174
     0
175
     0
176
   256
177
   256
178
     2
  0
DIMSTYLE
  2
AM_ANSI$SF
 70
     0
  3

  4
mm
  5

  6

  7

 40
1.0
 41
0.12
 42
0.05
 43
0.5
 44
0.1
 45
0.0
 46
0.0
 47
0.1
 48
0.1
140
0.12
141
0.0
142
0.0
143
25.399999999999999
144
1.0
145
0.0
146
0.71
147
0.06
 71
     0
 72
     0
 73
     1
 74
     1
 75
     1
 76
     1
 77
     0
 78
     7
170
     0
171
     2
172
     0
173
     0
174
     0
175
     0
176
   256
177
   256
178
     2
  0
DIMSTYLE
  2
AM_ANSI$SH
 70
     0
  3

  4
mm
  5

  6

  7

 40
1.0
 41
0.12
 42
0.05
 43
0.5
 44
0.1
 45
0.0
 46
0.0
 47
0.1
 48
0.1
140
0.12
141
0.0
142
0.0
143
25.399999999999999
144
1.0
145
0.0
146
0.71
147
0.06
 71
     0
 72
     0
 73
     1
 74
     1
 75
     1
 76
     1
 77
     0
 78
     7
170
     0
171
     2
172
     0
173
     1
174
     0
175
     0
176
   256
177
   256
178
     2
  0
ENDTAB
  0
ENDSEC
  0
SECTION
  2
BLOCKS
  0
BLOCK
  8
0
  2
$MODEL_SPACE
 70
     0
 10
0.0
 20
0.0
 30
0.0
  3
$MODEL_SPACE
  1

  0
ENDBLK
  5
4748
  8
0
  0
BLOCK
 67
     1
  8
0
  2
$PAPER_SPACE
 70
     0
 10
0.0
 20
0.0
 30
0.0
  3
$PAPER_SPACE
  1

  0
ENDBLK
  5
4744
 67
     1
  8
0
  0
BLOCK
  8
0
  2
_OPEN
 70
     0
 10
0.0
 20
0.0
 30
0.0
  3
_OPEN
  1

  0
LINE
  5
4421
  8
0
  6
BYBLOCK
 62
     0
 10
-1.0
 20
0.1666666666666666
 30
0.0
 11
0.0
 21
0.0
 31
0.0
  0
LINE
  5
4422
  8
0
  6
BYBLOCK
 62
     0
 10
-1.0
 20
-0.1666666666666666
 30
0.0
 11
0.0
 21
0.0
 31
0.0
  0
LINE
  5
4423
  8
0
  6
BYBLOCK
 62
     0
 10
0.0
 20
0.0
 30
0.0
 11
-1.0
 21
0.0
 31
0.0
  0
ENDBLK
  5
4424
  8
0
  0
BLOCK
  8
0
  2
_ACMFILLEDHALF
 70
     0
 10
0.0
 20
0.0
 30
0.0
  3
_ACMFILLEDHALF
  1

  0
TRACE
  5
464E
  8
240
 62
     0
 10
-0.8
 20
0.0
 30
0.0
 11
-1.0
 21
0.166666666
 31
0.0
 12
0.0
 22
0.0
 32
0.0
 13
0.0
 23
0.0
 33
0.0
  0
LINE
  5
464F
  8
240
 62
     0
 10
-1.0
 20
0.0
 30
0.0
 11
-0.8
 21
0.0
 31
0.0
  0
ENDBLK
  5
464D
  8
0
  0
ENDSEC
  0
SECTION
  2
ENTITIES
  0
LINE
  5
4203
  8
245
  6
CENTER2
 10
-2.1755774987601471
 20
0.0
 30
0.0
 11
86.025303928649265
 21
0.0
 31
0.0
  0
LINE
  5
4204
  8
240
  6
CONTINUOUS
 10
0.0
 20
-6.0
 30
0.0
 11
0.0
 21
6.0
 31
0.0
  0
LINE
  5
4207
  8
240
  6
CONTINUOUS
 10
0.0
 20
6.0
 30
0.0
 11
63.19999999999883
 21
5.9999999999999529
 31
0.0
  0
LINE
  5
4209
  8
240
  6
CONTINUOUS
 10
0.0
 20
-6.0
 30
0.0
 11
63.19999999999888
 21
-6.0
 31
0.0
  0
LINE
  5
420A
  8
240
  6
CONTINUOUS
 10
85.0
 20
-4.6905989232413763
 30
0.0
 11
85.000000000000071
 21
4.6905989232413283
 31
0.0
  0
LINE
  5
420E
  8
240
  6
CONTINUOUS
 10
64.19999999999861
 20
-6.9999999999997291
 30
0.0
 11
80.999999999999844
 21
-7.0000000000000284
 31
0.0
  0
LINE
  5
420F
  8
241
  6
CONTINUOUS
 10
63.19999999999893
 20
5.9999999999999529
 30
0.0
 11
63.19999999999888
 21
-6.0
 31
0.0
  0
LINE
  5
4210
  8
241
  6
CONTINUOUS
 10
64.19999999999861
 20
-6.9999999999997291
 30
0.0
 11
64.19999999999861
 21
6.9999999999998268
 31
0.0
  0
LINE
  5
4211
  8
241
  6
CONTINUOUS
 10
81.0
 20
7.0000000000000142
 30
0.0
 11
81.0
 21
-7.0000000000000142
 31
0.0
  0
LINE
  5
4212
  8
240
  6
CONTINUOUS
 10
85.0
 20
-4.6905989232413763
 30
0.0
 11
80.999999999999844
 21
-7.0000000000000284
 31
0.0
  0
LINE
  5
4213
  8
240
  6
CONTINUOUS
 10
64.199999999998653
 20
6.9999999999998268
 30
0.0
 11
80.999999999999844
 21
7.0000000000000284
 31
0.0
  0
LINE
  5
4214
  8
240
  6
CONTINUOUS
 10
85.000000000000071
 20
4.6905989232413283
 30
0.0
 11
80.999999999999844
 21
7.0000000000000284
 31
0.0
  0
LINE
  5
4215
  8
243
  6
HIDDEN2
 10
59.144337567297143
 20
2.9999999999999001
 30
0.0
 11
85.000000000000071
 21
3.0000000000000302
 31
0.0
  0
LINE
  5
421B
  8
243
  6
HIDDEN2
 10
59.144337567297143
 20
-2.9999999999999001
 30
0.0
 11
85.000000000000014
 21
-2.9999999999999281
 31
0.0
  0
LINE
  5
4221
  8
245
  6
CENTER2
 10
77.999999999999815
 20
8.6587698617090894
 30
0.0
 11
77.999999999999787
 21
2.2276717610884851
 31
0.0
  0
LINE
  5
4222
  8
245
  6
CENTER2
 10
68.000000000000213
 20
8.601349720851303
 30
0.0
 11
68.000000000000142
 21
1.9405690882159501
 31
0.0
  0
LINE
  5
4223
  8
242
  6
HIDDEN2
 10
65.999999999998849
 20
6.999999999999849
 30
0.0
 11
66.000000000002018
 21
2.9999999999999569
 31
0.0
  0
LINE
  5
4224
  8
242
  6
HIDDEN2
 10
69.99999999999892
 20
6.9999999999998961
 30
0.0
 11
70.00000000000118
 21
2.9999999999999711
 31
0.0
  0
LINE
  5
4225
  8
243
  6
HIDDEN2
 10
66.350000000000918
 20
6.9999999999998552
 30
0.0
 11
66.350000000001302
 21
2.9999999999999569
 31
0.0
  0
LINE
  5
4226
  8
243
  6
HIDDEN2
 10
69.650000000000375
 20
6.9999999999998908
 30
0.0
 11
69.650000000000006
 21
2.999999999999984
 31
0.0
  0
LINE
  5
422A
  8
242
  6
HIDDEN2
 10
75.999999999998508
 20
6.999999999999968
 30
0.0
 11
76.000000000001364
 21
2.999999999999984
 31
0.0
  0
LINE
  5
422B
  8
242
  6
HIDDEN2
 10
79.999999999998565
 20
7.0000000000000151
 30
0.0
 11
80.000000000000185
 21
3.0
 31
0.0
  0
LINE
  5
422C
  8
243
  6
HIDDEN2
 10
76.350000000000463
 20
6.9999999999999707
 30
0.0
 11
76.350000000001174
 21
2.999999999999984
 31
0.0
  0
LINE
  5
422D
  8
243
  6
HIDDEN2
 10
79.650000000000034
 20
7.0000000000000089
 30
0.0
 11
79.649999999999267
 21
3.0000000000000142
 31
0.0
  0
LINE
  5
4236
  8
240
  6
CONTINUOUS
 10
64.19999999999861
 20
-6.9999999999997291
 30
0.0
 11
63.19999999999888
 21
-6.0
 31
0.0
  0
LINE
  5
423D
  8
240
  6
CONTINUOUS
 10
64.19999999999861
 20
6.9999999999997291
 30
0.0
 11
63.19999999999883
 21
5.9999999999999529
 31
0.0
  0
TEXT
  5
429C
  8
241
  6
CONTINUOUS
 10
0.0
 20
31.0
 30
0.0
 40
5.0
  1
ST12-SL6
  7
YOKO
 11
0.0
 21
31.0
 31
0.0
 73
     1
  0
LINE
  5
429D
  8
250
  6
CONTINUOUS
 10
-0.3773458089009409
 20
-16.640976637173701
 30
0.0
 11
11.755987524432371
 21
-16.640976637173701
 31
0.0
  0
LINE
  5
429E
  8
250
  6
CONTINUOUS
 10
11.755987524432371
 20
-16.640976637173701
 30
0.0
 11
17.303341021177118
 21
-7.883833459012294
 31
0.0
  0
LINE
  5
429F
  8
250
  6
CONTINUOUS
 10
17.303341021177118
 20
-7.883833459012294
 30
0.0
 11
18.49668569004098
 21
-6.0
 31
0.0
  0
LINE
  5
42A0
  8
250
  6
CONTINUOUS
 10
17.551352399988211
 20
-8.0409402644498886
 30
0.0
 11
18.49668569004098
 21
-6.0
 31
0.0
  0
LINE
  5
42A1
  8
250
  6
CONTINUOUS
 10
18.49668569004098
 20
-6.0
 30
0.0
 11
17.055329642366029
 21
-7.7267266535747012
 31
0.0
  0
TEXT
  5
42A2
  8
250
  6
CONTINUOUS
 10
-0.7773458089009325
 20
-15.240976637173731
 30
0.0
 40
2.799999999999998
  1
ST12
  7
ACJISTS
  0
LINE
  5
42A3
  8
247
  6
CONTINUOUS
 10
4.249999999999984
 20
-4.0
 30
0.0
 11
8.8846153843300169
 21
-4.0
 31
0.0
  0
LINE
  5
42A4
  8
247
  6
CONTINUOUS
 10
5.0451065000120403
 20
-1.5
 30
0.0
 11
4.4429411899426574
 21
-3.5999999999160082
 31
0.0
  0
LINE
  5
42A5
  8
247
  6
CONTINUOUS
 10
5.6748485964809561
 20
-2.496153846113883
 30
0.0
 11
4.7594639811329804
 21
-2.496153846113883
 31
0.0
  0
ARC
  5
42A6
  8
247
  6
CONTINUOUS
 10
5.9127365980531854
 20
-1.8847190672940981
 30
0.0
 40
0.3876715809326743
 50
342.9978896752952
 51
82.924166218513577
  0
ARC
  5
42A7
  8
247
  6
CONTINUOUS
 10
5.617522443195881
 20
-1.805223131028014
 30
0.0
 40
0.6933047965358772
 50
274.74293685219902
 51
343.84922627326688
1001
GENIUS_GENOBJ-N-FIL_13
1002
{
1000
OWNER
1000
GEN
1002
}
1001
GENIUS_GENODEF_13
1002
{
1000
HIER
1070
     0
1002
}
1002
{
1000
MANEDIT
1070
     0
1002
}
1002
{
1000
NOSEL
1070
     0
1002
}
1002
{
1000
BEHIND
1070
     0
1002
}
1002
{
1000
OTHER
1070
     0
1002
}
1002
{
1000
REACTOR
1002
}
  0
LINE
  5
42A8
  8
247
  6
CONTINUOUS
 10
5.3583258052906473
 20
-3.5999999999160082
 30
0.0
 11
4.4429411899426574
 21
-3.5999999999160082
 31
0.0
  0
LINE
  5
42A9
  8
247
  6
CONTINUOUS
 10
5.0451065000120403
 20
-1.5
 30
0.0
 11
5.960491115360055
 21
-1.5
 31
0.0
  0
ARC
  5
42AA
  8
247
  6
CONTINUOUS
 10
5.621693523733156
 20
-2.8874169627679289
 30
0.0
 40
0.394857301075386
 50
335.99094165252171
 51
82.263443459069066
  0
ARC
  5
42AB
  8
247
  6
CONTINUOUS
 10
5.2875533895730911
 20
-2.8912003273326241
 30
0.0
 40
0.7123241612361686
 50
275.70198516425648
 51
347.27733843682199
1001
GENIUS_GENOBJ-N-FIL_13
1002
{
1000
OWNER
1000
GEN
1002
}
1001
GENIUS_GENODEF_13
1002
{
1000
HIER
1070
     0
1002
}
1002
{
1000
MANEDIT
1070
     0
1002
}
1002
{
1000
NOSEL
1070
     0
1002
}
1002
{
1000
BEHIND
1070
     0
1002
}
1002
{
1000
OTHER
1070
     0
1002
}
1002
{
1000
REACTOR
1002
}
  0
LINE
  5
42AC
  8
247
  6
CONTINUOUS
 10
6.3160181129366171
 20
-3.5999999999160082
 30
0.0
 11
6.9181834230060391
 21
-1.5
 31
0.0
  0
LINE
  5
42AD
  8
247
  6
CONTINUOUS
 10
8.4143372690920142
 20
-1.5
 30
0.0
 11
8.0183216356964504
 21
-1.5
 31
0.0
  0
LINE
  5
42AE
  8
247
  6
CONTINUOUS
 10
7.3912603460560131
 20
-3.5999999999160082
 30
0.0
 11
7.8220295768080623
 21
-3.5999999999160082
 31
0.0
  0
ARC
  5
42AF
  8
247
  6
CONTINUOUS
 10
8.6181834229300307
 20
-2.9582995950834161
 30
0.0
 40
1.576855057639547
 50
112.3594881415293
 51
164.99324854284629
  0
ARC
  5
42B0
  8
247
  6
CONTINUOUS
 10
8.152488633866767
 20
-2.0658188585380231
 30
0.0
 40
0.6234706797009447
 50
4.9945893190753372
 51
65.166328957307655
1001
GENIUS_GENOBJ-N-FIL_13
1002
{
1000
OWNER
1000
GEN
1002
}
1001
GENIUS_GENODEF_13
1002
{
1000
HIER
1070
     0
1002
}
1002
{
1000
MANEDIT
1070
     0
1002
}
1002
{
1000
NOSEL
1070
     0
1002
}
1002
{
1000
BEHIND
1070
     0
1002
}
1002
{
1000
OTHER
1070
     0
1002
}
1002
{
1000
REACTOR
1002
}
  0
ARC
  5
42B1
  8
247
  6
CONTINUOUS
 10
7.5558160489672419
 20
-2.662102121969383
 30
0.0
 40
0.9749472149106983
 50
285.84609655578407
 51
352.32513700416217
  0
ARC
  5
42B2
  8
247
  6
CONTINUOUS
 10
7.9647883612277743
 20
-2.871470401971008
 30
0.0
 40
0.9271945638692009
 50
159.71360167048971
 51
231.78874565641519
1001
GENIUS_GENOBJ-N-FIL_13
1002
{
1000
OWNER
1000
GEN
1002
}
1001
GENIUS_GENODEF_13
1002
{
1000
HIER
1070
     0
1002
}
1002
{
1000
MANEDIT
1070
     0
1002
}
1002
{
1000
NOSEL
1070
     0
1002
}
1002
{
1000
BEHIND
1070
     0
1002
}
1002
{
1000
OTHER
1070
     0
1002
}
1002
{
1000
REACTOR
1002
}
  0
LINE
  5
42B3
  8
247
  6
CONTINUOUS
 10
8.0374141921840163
 20
-2.792307692255914
 30
0.0
 11
8.522029576780028
 21
-2.792307692255914
 31
0.0
  0
ARC
  5
42B4
  8
247
  6
CONTINUOUS
 10
4.249999999999984
 20
-2.75
 30
0.0
 40
1.25
 50
90.0
 51
270.0
  0
LINE
  5
42B5
  8
247
  6
CONTINUOUS
 10
4.249999999999984
 20
-1.5
 30
0.0
 11
4.696153846086017
 21
-1.5
 31
0.0
  0
ARC
  5
42B6
  8
247
  6
CONTINUOUS
 10
8.8846153843300169
 20
-2.75
 30
0.0
 40
1.25
 50
270.0
 51
90.0
  0
LINE
  5
433F
  8
250
  6
CONTINUOUS
 10
85.500000000000071
 20
3.0000000000000302
 30
0.0
 11
98.799038105676729
 21
3.0000000000000271
 31
0.0
  0
LINE
  5
4340
  8
250
  6
CONTINUOUS
 10
85.500000000000014
 20
-2.9999999999999281
 30
0.0
 11
98.799038105676729
 21
-2.9999999999999321
 31
0.0
  0
LINE
  5
4341
  8
250
  6
CONTINUOUS
 10
97.799038105676743
 20
5.2300000000000271
 30
0.0
 11
97.799038105676743
 21
7.4600000000000248
 31
0.0
  0
LINE
  5
4342
  8
250
  6
CONTINUOUS
 10
97.799038105676743
 20
-5.2299999999999311
 30
0.0
 11
97.799038105676743
 21
-7.4599999999999307
 31
0.0
  0
LINE
  5
4343
  8
250
  6
CONTINUOUS
 10
97.799038105676743
 20
3.0000000000000271
 30
0.0
 11
97.799038105676743
 21
-2.9999999999999321
 31
0.0
  0
LINE
  5
4347
  8
250
  6
CONTINUOUS
 10
0.0
 20
6.5
 30
0.0
 11
0.000000000000001
 21
22.0
 31
0.0
  0
LINE
  5
4348
  8
250
  6
CONTINUOUS
 10
85.000000000000071
 20
5.1905989232413283
 30
0.0
 11
85.000000000000071
 21
22.0
 31
0.0
  0
LINE
  5
4349
  8
250
  6
CONTINUOUS
 10
2.2299999999999991
 20
21.0
 30
0.0
 11
82.770000000000081
 21
21.0
 31
0.0
  0
TEXT
  5
434D
  8
250
  6
CONTINUOUS
 10
96.799038105676715
 20
-2.5999999999999361
 30
0.0
 40
2.799999999999998
  1
\U+22056
 50
90.0
  0
LINE
  5
434E
  8
250
  6
CONTINUOUS
 10
97.427371439010045
 20
-5.2299999999999311
 30
0.0
 11
97.799038105676743
 21
-2.9999999999999321
 31
0.0
  0
LINE
  5
434F
  8
250
  6
CONTINUOUS
 10
98.170704772343385
 20
-5.2299999999999311
 30
0.0
 11
97.799038105676743
 21
-2.9999999999999321
 31
0.0
  0
LINE
  5
4350
  8
250
  6
CONTINUOUS
 10
97.799038105676743
 20
-2.9999999999999321
 30
0.0
 11
97.799038105676743
 21
-5.2299999999999311
 31
0.0
  0
LINE
  5
4351
  8
250
  6
CONTINUOUS
 10
98.170704772343385
 20
5.2300000000000271
 30
0.0
 11
97.799038105676743
 21
3.0000000000000271
 31
0.0
  0
LINE
  5
4352
  8
250
  6
CONTINUOUS
 10
97.427371439010045
 20
5.2300000000000271
 30
0.0
 11
97.799038105676743
 21
3.0000000000000271
 31
0.0
  0
LINE
  5
4353
  8
250
  6
CONTINUOUS
 10
97.799038105676743
 20
3.0000000000000271
 30
0.0
 11
97.799038105676743
 21
5.2300000000000271
 31
0.0
  0
TEXT
  5
4354
  8
250
  6
CONTINUOUS
 10
39.833333333333371
 20
22.0
 30
0.0
 40
2.799999999999998
  1
85
  0
LINE
  5
4355
  8
250
  6
CONTINUOUS
 10
82.770000000000081
 20
21.37166666666667
 30
0.0
 11
85.000000000000071
 21
21.0
 31
0.0
  0
LINE
  5
4356
  8
250
  6
CONTINUOUS
 10
82.770000000000081
 20
20.62833333333333
 30
0.0
 11
85.000000000000071
 21
21.0
 31
0.0
  0
LINE
  5
4357
  8
250
  6
CONTINUOUS
 10
85.000000000000071
 20
21.0
 30
0.0
 11
82.770000000000081
 21
21.0
 31
0.0
  0
LINE
  5
4358
  8
250
  6
CONTINUOUS
 10
2.2299999999999991
 20
20.62833333333333
 30
0.0
 11
0.0000000000000009
 21
21.0
 31
0.0
  0
LINE
  5
4359
  8
250
  6
CONTINUOUS
 10
2.2299999999999991
 20
21.37166666666667
 30
0.0
 11
0.0000000000000009
 21
21.0
 31
0.0
  0
LINE
  5
435A
  8
250
  6
CONTINUOUS
 10
0.0000000000000009
 20
21.0
 30
0.0
 11
2.2299999999999991
 21
21.0
 31
0.0
  0
VIEWPORT
  5
22
 67
     1
  8
0
 10
261.51769911504419
 20
148.5
 30
0.0
 40
523.0353982300885
 41
297.0
 68
     1
 69
     1
1001
ACAD
1000
MVIEW
1002
{
1070
    16
1010
0.0
1020
0.0
1030
0.0
1010
0.0
1020
0.0
1030
1.0
1040
0.0
1040
297.0
1040
261.51769911504419
1040
148.5
1040
50.0
1040
0.0
1040
0.0
1070
     0
1070
   100
1070
     1
1070
     1
1070
     0
1070
     0
1070
     0
1070
     0
1040
0.0
1040
0.0
1040
0.0
1040
1.0
1040
1.0
1040
10.0
1040
10.0
1070
     0
1002
{
1002
}
1002
}
1001
GENIUS_GENODEF_13
1002
{
1000
HIER
1070
     0
1002
}
1002
{
1000
MANEDIT
1070
     0
1002
}
1002
{
1000
NOSEL
1070
     0
1002
}
1002
{
1000
BEHIND
1070
     0
1002
}
1002
{
1000
OTHER
1070
     0
1002
}
1002
{
1000
REACTOR
1002
}
1001
GENIUS_GENOBJ-N-SDF_13
1002
{
1000
OWNER
1000
GEN
1002
}
1001
GENIUS_GENSCREG_15
1000
PF
1040
1.0
1000
DF
1040
1.0
1000
MIN
1011
0.0
1021
0.0
1031
0.0
1021
0.0
1031
0.0
1000
MAX
1011
523.0353982300885
1021
0.0
1031
0.0
1021
297.0
1031
0.0
1000
FLAGS
1070
     4
  0
ENDSEC
  0
EOF
