  0
SECTION
  2
HEADER
  9
$ACADVER
  1
AC1009
  9
$INSBASE
 10
0.0
 20
0.0
 30
0.0
  9
$EXTMIN
 10
-86.0
 20
-16.640976637173701
 30
0.0
  9
$EXTMAX
 10
96.001000000000005
 20
36.000000000000007
 30
0.0
  9
$LIMMIN
 10
0.0
 20
0.0
  9
$LIMMAX
 10
420.0
 20
297.0
  9
$ORTHOMODE
 70
     1
  9
$REGENMODE
 70
     1
  9
$FILLMODE
 70
     1
  9
$QTEXTMODE
 70
     0
  9
$MIRRTEXT
 70
     1
  9
$DRAGMODE
 70
     2
  9
$LTSCALE
 40
10.0
  9
$OSMODE
 70
  3071
  9
$ATTMODE
 70
     1
  9
$TEXTSIZE
 40
3.0
  9
$TRACEWID
 40
1.0
  9
$TEXTSTYLE
  7
YOKO
  9
$CLAYER
  8
240
  9
$CELTYPE
  6
BYLAYER
  9
$CECOLOR
 62
   256
  9
$DIMSCALE
 40
1.0
  9
$DIMASZ
 40
2.2299999999999991
  9
$DIMEXO
 40
0.5
  9
$DIMDLI
 40
2.5
  9
$DIMRND
 40
0.0
  9
$DIMDLE
 40
0.0
  9
$DIMEXE
 40
1.0
  9
$DIMTP
 40
0.0
  9
$DIMTM
 40
0.0
  9
$DIMTXT
 40
2.799999999999998
  9
$DIMCEN
 40
0.0
  9
$DIMTSZ
 40
0.0
  9
$DIMTOL
 70
     0
  9
$DIMLIM
 70
     0
  9
$DIMTIH
 70
     0
  9
$DIMTOH
 70
     0
  9
$DIMSE1
 70
     0
  9
$DIMSE2
 70
     0
  9
$DIMTAD
 70
     3
  9
$DIMZIN
 70
     8
  9
$DIMBLK
  1

  9
$DIMASO
 70
     1
  9
$DIMSHO
 70
     1
  9
$DIMPOST
  1

  9
$DIMAPOST
  1

  9
$DIMALT
 70
     0
  9
$DIMALTD
 70
     2
  9
$DIMALTF
 40
25.399999999999999
  9
$DIMLFAC
 40
1.0
  9
$DIMTOFL
 70
     1
  9
$DIMTVP
 40
0.0
  9
$DIMTIX
 70
     1
  9
$DIMSOXD
 70
     0
  9
$DIMSAH
 70
     1
  9
$DIMBLK1
  1
OPEN
  9
$DIMBLK2
  1
OPEN
  9
$DIMSTYLE
  2
BIGT
  9
$DIMCLRD
 70
   256
  9
$DIMCLRE
 70
   256
  9
$DIMCLRT
 70
    40
  9
$DIMTFAC
 40
1.0
  9
$DIMGAP
 40
1.0
  9
$LUNITS
 70
     2
  9
$LUPREC
 70
     3
  9
$SKETCHINC
 40
1.0
  9
$FILLETRAD
 40
0.0
  9
$AUNITS
 70
     0
  9
$AUPREC
 70
     3
  9
$MENU
  1
.
  9
$ELEVATION
 40
0.0
  9
$PELEVATION
 40
0.0
  9
$THICKNESS
 40
0.0
  9
$LIMCHECK
 70
     0
  9
$BLIPMODE
 70
     0
  9
$CHAMFERA
 40
10.0
  9
$CHAMFERB
 40
10.0
  9
$SKPOLY
 70
     0
  9
$TDCREATE
 40
2455450.6376538891
  9
$TDUPDATE
 40
2457367.5844333912
  9
$TDINDWG
 40
0.0726777778
  9
$TDUSRTIMER
 40
0.0726777431
  9
$USRTIMER
 70
     1
  9
$ANGBASE
 50
0.0
  9
$ANGDIR
 70
     0
  9
$PDMODE
 70
     1
  9
$PDSIZE
 40
-5.0
  9
$PLINEWID
 40
0.0
  9
$COORDS
 70
     1
  9
$SPLFRAME
 70
     0
  9
$SPLINETYPE
 70
     6
  9
$SPLINESEGS
 70
     8
  9
$ATTDIA
 70
     1
  9
$ATTREQ
 70
     1
  9
$HANDLING
 70
     1
  9
$HANDSEED
  5
E5F
  9
$SURFTAB1
 70
     6
  9
$SURFTAB2
 70
     6
  9
$SURFTYPE
 70
     6
  9
$SURFU
 70
     6
  9
$SURFV
 70
     6
  9
$UCSNAME
  2

  9
$UCSORG
 10
0.0
 20
0.0
 30
0.0
  9
$UCSXDIR
 10
1.0
 20
0.0
 30
0.0
  9
$UCSYDIR
 10
0.0
 20
1.0
 30
0.0
  9
$PUCSNAME
  2

  9
$PUCSORG
 10
0.0
 20
0.0
 30
0.0
  9
$PUCSXDIR
 10
1.0
 20
0.0
 30
0.0
  9
$PUCSYDIR
 10
0.0
 20
1.0
 30
0.0
  9
$USERI1
 70
     1
  9
$USERI2
 70
     0
  9
$USERI3
 70
     0
  9
$USERI4
 70
     0
  9
$USERI5
 70
     0
  9
$USERR1
 40
0.0
  9
$USERR2
 40
0.0
  9
$USERR3
 40
0.0
  9
$USERR4
 40
0.0
  9
$USERR5
 40
0.0
  9
$WORLDVIEW
 70
     1
  9
$SHADEDGE
 70
     3
  9
$SHADEDIF
 70
    70
  9
$TILEMODE
 70
     1
  9
$MAXACTVP
 70
    16
  9
$PLIMCHECK
 70
     0
  9
$PEXTMIN
 10
1.0000000000000000E+020
 20
1.0000000000000000E+020
 30
1.0000000000000000E+020
  9
$PEXTMAX
 10
-1.0000000000000000E+020
 20
-1.0000000000000000E+020
 30
-1.0000000000000000E+020
  9
$PLIMMIN
 10
0.0
 20
0.0
  9
$PLIMMAX
 10
420.0
 20
297.0
  9
$UNITMODE
 70
     0
  9
$VISRETAIN
 70
     0
  9
$PLINEGEN
 70
     0
  9
$PSLTSCALE
 70
     1
  0
ENDSEC
  0
SECTION
  2
TABLES
  0
TABLE
  2
VPORT
 70
     1
  0
VPORT
  2
*ACTIVE
 70
     0
 10
0.0
 20
0.0
 11
1.0
 21
1.0
 12
45.816219014021641
 22
2.2906172745244211
 13
0.0
 23
0.0
 14
7.0
 24
7.0
 15
7.0
 25
7.0
 16
0.0
 26
0.0
 36
1.0
 17
0.0
 27
0.0
 37
0.0
 40
112.9840941378017
 41
1.3814102564102559
 42
50.0
 43
0.0
 44
0.0
 50
0.0
 51
0.0
 71
     0
 72
  2000
 73
     1
 74
     0
 75
     1
 76
     1
 77
     0
 78
     0
  0
ENDTAB
  0
TABLE
  2
LTYPE
 70
    21
  0
LTYPE
  2
CONTINUOUS
 70
     0
  3
Solid line
 72
    65
 73
     0
 40
0.0
  0
LTYPE
  2
CENTER2
 70
     0
  3
___ _ ___ _ ___ _ ___ _ ___ _ ___ _ ___ _ ___ _
 72
    65
 73
     4
 40
1.125
 49
0.75
 49
-0.125
 49
0.125
 49
-0.125
  0
LTYPE
  2
HIDDEN2
 70
     0
  3
_ _ _ _ _ _ _ _ _ _ _ _ _ _ _ _ _ _ _ _ _ _ _ _
 72
    65
 73
     2
 40
0.1875
 49
0.125
 49
-0.0625
  0
LTYPE
  2
PHANTOM2
 70
     0
  3
___ _ _ ___ _ _ ___ _ _ ___ _ _ ___ _ _ ___ _ _
 72
    65
 73
     6
 40
1.25
 49
0.625
 49
-0.125
 49
0.125
 49
-0.125
 49
0.125
 49
-0.125
  0
LTYPE
  2
AMCONSTR
 70
     0
  3
_______________________
 72
    65
 73
     2
 40
9999.0
 49
9999.0
 49
0.0
  0
LTYPE
  2
HIDDEN
 70
     0
  3
Hidden __ __ __ __ __ __ __ __ __ __ __ __ __ _
 72
    65
 73
     2
 40
0.375
 49
0.25
 49
-0.125
  0
LTYPE
  2
CENTER
 70
     0
  3
Center ____ _ ____ _ ____ _ ____ _ ____ _ ____
 72
    65
 73
     4
 40
2.0
 49
1.25
 49
-0.25
 49
0.25
 49
-0.25
  0
LTYPE
  2
AMZIGZAG2
 70
     0
  3
/\/-/\/-/\/-/\/-/\/-/\/
 72
    65
 73
     2
 40
0.4401
 49
0.0001
 49
-0.4400000000000001
  0
LTYPE
  2
ACANSTGB
 70
     0
  3
__ . . __ . .
 72
    65
 73
     6
 40
0.35433070866
 49
0.15748031496
 49
-0.03937007874
 49
0.03937007874
 49
-0.03937007874
 49
0.03937007874
 49
-0.03937007874
  0
LTYPE
  2
ACANSTGL
 70
     0
  3
_ _ _ _ _
 72
    65
 73
     2
 40
0.11811023622
 49
0.07874015748
 49
-0.03937007874
  0
ENDTAB
  0
TABLE
  2
LAYER
 70
     9
  0
LAYER
  2
0
 70
     0
 62
     7
  6
CONTINUOUS
  0
LAYER
  2
240
 70
     0
 62
     4
  6
CONTINUOUS
  0
LAYER
  2
241
 70
     0
 62
   211
  6
CONTINUOUS
  0
LAYER
  2
242
 70
     0
 62
     3
  6
CONTINUOUS
  0
LAYER
  2
245
 70
     0
 62
     2
  6
CENTER2
  0
LAYER
  2
250
 70
     0
 62
     3
  6
CONTINUOUS
  0
LAYER
  2
DEFPOINTS
 70
     0
 62
     7
  6
CONTINUOUS
  0
LAYER
  2
243
 70
     0
 62
   211
  6
HIDDEN2
  0
LAYER
  2
247
 70
     0
 62
    60
  6
CONTINUOUS
  0
ENDTAB
  0
TABLE
  2
STYLE
 70
    10
  0
STYLE
  2
STANDARD
 70
     0
 40
0.0
 41
1.0
 50
0.0
 71
     0
 42
3.0
  3
romans.shx
  4
BIGFONT.SHX
  0
STYLE
  2
YOKO
 70
     0
 40
0.0
 41
1.0
 50
0.0
 71
     0
 42
3.0
  3
romans.shx
  4
extfont.shx
  0
STYLE
  2
ACJISTS
 70
     0
 40
1.0
 41
1.0
 50
0.0
 71
     0
 42
3.0
  3
amgdt.shx
  4
extfont.shx
  0
STYLE
  2

 70
     1
 40
0.0
 41
1.0
 50
0.0
 71
     0
 42
3.0
  3
genltshp.shx
  4

  0
STYLE
  2
ACANSGDT
 70
     0
 40
0.0
 41
1.0
 50
0.0
 71
     0
 42
3.0
  3
amgdt.shx
  4

  0
ENDTAB
  0
TABLE
  2
VIEW
 70
     1
  0
VIEW
  2
OLE1
 70
     0
 40
80.26146808999998
 10
-42.590596560000002
 20
14.892381240000001
 41
113.04998763
 11
0.0
 21
0.0
 31
1.0
 12
0.0
 22
0.0
 32
0.0
 42
50.0
 43
0.0
 44
0.0
 50
0.0
 71
     0
  0
ENDTAB
  0
TABLE
  2
UCS
 70
     0
  0
ENDTAB
  0
TABLE
  2
APPID
 70
    40
  0
APPID
  2
ACAD
 70
     0
  0
APPID
  2
ACADANNOTATIVE
 70
     0
  0
APPID
  2
GLOBAL
 70
     0
  0
APPID
  2
DETAIL
 70
     0
  0
APPID
  2
GRPNAME
 70
     0
  0
APPID
  2
GPARA
 70
     0
  0
APPID
  2
DCO15
 70
     0
  0
APPID
  2
ITEMNAME
 70
     0
  0
APPID
  2
GRADE_0
 70
     0
  0
APPID
  2
CONTENTBLOCKICON
 70
     0
  0
APPID
  2
MCAD_NO_VIS
 70
     0
  0
APPID
  2
ACAD_TEMP_GRAPHIC
 70
     0
  0
APPID
  2
ACATTRIBSERVICES
 70
     0
  0
APPID
  2
GENIUS_GENSCREG_15
 70
     0
  0
APPID
  2
GENIUS_GENODEF_13
 70
     0
  0
APPID
  2
GENIUS_GENOBJ-N-SDF_13
 70
     0
  0
APPID
  2
GENIUS_GENREC_14
 70
     0
  0
APPID
  2
GENIUS_GENOBJ-N-REC_13
 70
     0
  0
APPID
  2
GENIUS_GENDIMSH_14
 70
     0
  0
APPID
  2
GENIUS_GENOBJ-N-DIM_13
 70
     0
  0
APPID
  2
GENIUS_GENDIM_13
 70
     0
  0
APPID
  2
GENIUS_GENDTOL_13
 70
     0
  0
APPID
  2
GENIUS_GENOLIS_13
 70
     0
  0
APPID
  2
GENIUS_GENOENT_13
 70
     0
  0
APPID
  2
GENIUS_GENOBJ-F-FEM_13
 70
     0
  0
APPID
  2
GENIUS_GENOREF_13
 70
     0
  0
APPID
  2
GENIUS_GEFFEM_13
 70
     0
  0
APPID
  2
GENIUS_GEFFEMP_13
 70
     0
  0
APPID
  2
AD_DRAW
 70
     0
  0
APPID
  2
DESIGNERASSEMBLIES
 70
     0
  0
APPID
  2
ACADM_DIM_EDIT
 70
     0
  0
APPID
  2
AMDT_DM_ADJ
 70
     0
  0
APPID
  2
GENIUS_GENOBJ-N-FIL_13
 70
     0
  0
APPID
  2
GENIUS_GENFIL_13
 70
     0
  0
APPID
  2
GENIUS_GENOBJ-N-CHA_13
 70
     0
  0
APPID
  2
ACAD_NAV_VCDISPLAY
 70
     0
  0
APPID
  2
ACAECLAYERSTANDARD
 70
     0
  0
APPID
  2
ACAD_MLEADERVER
 70
     0
  0
APPID
  2
ACAD_DSTYLE_DIMJAG
 70
     0
  0
APPID
  2
ACAD_DSTYLE_DIMBREAK
 70
     0
  0
ENDTAB
  0
TABLE
  2
DIMSTYLE
 70
    31
  0
DIMSTYLE
  2
STANDARD
 70
     0
  3

  4

  5

  6

  7

 40
1.0
 41
0.18
 42
0.0625
 43
0.38
 44
0.18
 45
0.0
 46
0.0
 47
0.0
 48
0.0
140
0.18
141
0.09
142
0.0
143
25.399999999999999
144
1.0
145
0.0
146
1.0
147
0.09
 71
     0
 72
     0
 73
     1
 74
     1
 75
     0
 76
     0
 77
     0
 78
     0
170
     0
171
     2
172
     0
173
     0
174
     0
175
     0
176
     0
177
     0
178
     0
  0
DIMSTYLE
  2
BIGT
 70
     0
  3

  4

  5

  6

  7

 40
1.0
 41
2.2299999999999991
 42
0.5
 43
7.0
 44
1.0
 45
0.0
 46
0.0
 47
0.0
 48
0.01
140
2.799999999999998
141
0.0
142
0.0
143
25.399999999999999
144
1.0
145
0.0
146
1.0
147
1.0
 71
     0
 72
     0
 73
     0
 74
     0
 75
     0
 76
     0
 77
     3
 78
     9
170
     0
171
     2
172
     1
173
     0
174
     1
175
     0
176
   256
177
   256
178
    40
  0
DIMSTYLE
  2
AM_ANSI
 70
     0
  3

  4
mm
  5

  6

  7

 40
1.0
 41
0.12
 42
0.05
 43
0.5
 44
0.1
 45
0.0
 46
0.0
 47
0.1
 48
0.1
140
0.12
141
0.0
142
0.0
143
25.399999999999999
144
1.0
145
0.0
146
0.71
147
0.06
 71
     0
 72
     0
 73
     1
 74
     1
 75
     0
 76
     0
 77
     0
 78
     7
170
     0
171
     2
172
     0
173
     0
174
     0
175
     0
176
   256
177
   256
178
     2
  0
DIMSTYLE
  2
AM_ANSI$3
 70
     0
  3

  4
mm
  5

  6

  7

 40
1.0
 41
0.12
 42
0.05
 43
0.5
 44
0.1
 45
0.0
 46
0.0
 47
0.1
 48
0.1
140
0.12
141
0.0
142
0.0
143
25.399999999999999
144
1.0
145
0.0
146
0.71
147
0.06
 71
     0
 72
     0
 73
     1
 74
     1
 75
     0
 76
     0
 77
     0
 78
     7
170
     0
171
     2
172
     0
173
     0
174
     0
175
     0
176
   256
177
   256
178
     2
  0
DIMSTYLE
  2
AM_ANSI$4
 70
     0
  3

  4
mm
  5

  6

  7

 40
1.0
 41
0.12
 42
0.05
 43
0.5
 44
0.1
 45
0.0
 46
0.0
 47
0.1
 48
0.1
140
0.12
141
0.0
142
0.0
143
25.399999999999999
144
1.0
145
0.0
146
0.71
147
0.06
 71
     0
 72
     0
 73
     1
 74
     1
 75
     0
 76
     0
 77
     0
 78
     7
170
     0
171
     2
172
     0
173
     0
174
     0
175
     0
176
   256
177
   256
178
     2
  0
DIMSTYLE
  2
AM_ANSI$7
 70
     0
  3

  4
mm
  5

  6

  7

 40
1.0
 41
0.12
 42
0.05
 43
0.5
 44
0.1
 45
0.0
 46
0.0
 47
0.1
 48
0.1
140
0.12
141
0.0
142
0.0
143
25.399999999999999
144
1.0
145
0.0
146
0.71
147
0.06
 71
     0
 72
     0
 73
     1
 74
     1
 75
     0
 76
     0
 77
     0
 78
     7
170
     0
171
     2
172
     0
173
     0
174
     0
175
     0
176
   256
177
   256
178
     2
  0
DIMSTYLE
  2
AM_ANSI$SF
 70
     0
  3

  4
mm
  5

  6

  7

 40
1.0
 41
0.12
 42
0.05
 43
0.5
 44
0.1
 45
0.0
 46
0.0
 47
0.1
 48
0.1
140
0.12
141
0.0
142
0.0
143
25.399999999999999
144
1.0
145
0.0
146
0.71
147
0.06
 71
     0
 72
     0
 73
     1
 74
     1
 75
     1
 76
     1
 77
     0
 78
     7
170
     0
171
     2
172
     0
173
     0
174
     0
175
     0
176
   256
177
   256
178
     2
  0
DIMSTYLE
  2
AM_ANSI$SH
 70
     0
  3

  4
mm
  5

  6
GENAXEH
  7

 40
1.0
 41
0.12
 42
0.05
 43
0.5
 44
0.1
 45
0.0
 46
0.0
 47
0.1
 48
0.1
140
0.12
141
0.0
142
0.0
143
25.399999999999999
144
1.0
145
0.0
146
0.71
147
0.06
 71
     0
 72
     0
 73
     1
 74
     1
 75
     1
 76
     1
 77
     0
 78
     7
170
     0
171
     2
172
     0
173
     1
174
     0
175
     0
176
   256
177
   256
178
     2
  0
ENDTAB
  0
ENDSEC
  0
SECTION
  2
BLOCKS
  0
BLOCK
  8
0
  2
$MODEL_SPACE
 70
     0
 10
0.0
 20
0.0
 30
0.0
  3
$MODEL_SPACE
  1

  0
ENDBLK
  5
D1A
  8
0
  0
BLOCK
 67
     1
  8
0
  2
$PAPER_SPACE
 70
     0
 10
0.0
 20
0.0
 30
0.0
  3
$PAPER_SPACE
  1

  0
ENDBLK
  5
D16
 67
     1
  8
0
  0
BLOCK
  8
0
  2
_OPEN
 70
     0
 10
0.0
 20
0.0
 30
0.0
  3
_OPEN
  1

  0
LINE
  5
AAC
  8
0
  6
BYBLOCK
 62
     0
 10
-1.0
 20
0.1666666666666666
 30
0.0
 11
0.0
 21
0.0
 31
0.0
  0
LINE
  5
AAD
  8
0
  6
BYBLOCK
 62
     0
 10
-1.0
 20
-0.1666666666666666
 30
0.0
 11
0.0
 21
0.0
 31
0.0
  0
LINE
  5
AAE
  8
0
  6
BYBLOCK
 62
     0
 10
0.0
 20
0.0
 30
0.0
 11
-1.0
 21
0.0
 31
0.0
  0
ENDBLK
  5
AAF
  8
0
  0
BLOCK
  8
0
  2
矢印なし
 70
     0
 10
0.0
 20
0.0
 30
0.0
  3
矢印なし
  1

  0
ENDBLK
  5
6E5
  8
0
  0
BLOCK
  8
0
  2
GENAXEH
 70
     0
 10
0.0
 20
0.0
 30
0.0
  3
GENAXEH
  1

  0
LINE
  5
AE7
  8
0
 10
-1.0
 20
0.0
 30
0.0
 11
1.0
 21
0.0
 31
0.0
  0
ENDBLK
  5
AE8
  8
0
  0
BLOCK
  8
0
  2
_ACMFILLEDHALF
 70
     0
 10
0.0
 20
0.0
 30
0.0
  3
_ACMFILLEDHALF
  1

  0
TRACE
  5
DE1
  8
240
 62
     0
 10
-0.8
 20
0.0
 30
0.0
 11
-1.0
 21
0.166666666
 31
0.0
 12
0.0
 22
0.0
 32
0.0
 13
0.0
 23
0.0
 33
0.0
  0
LINE
  5
DE2
  8
240
 62
     0
 10
-1.0
 20
0.0
 30
0.0
 11
-0.8
 21
0.0
 31
0.0
  0
ENDBLK
  5
DE0
  8
0
  0
ENDSEC
  0
SECTION
  2
ENTITIES
  0
INSERT
  5
6E6
  8
245
  2
矢印なし
 10
175.62382697000001
 20
90.551235719999994
 30
0.0
  0
LINE
  5
899
  8
250
  6
CONTINUOUS
 10
85.5
 20
2.5
 30
0.0
 11
96.001000000000005
 21
2.5
 31
0.0
  0
LINE
  5
89C
  8
250
  6
CONTINUOUS
 10
95.001000000000005
 20
-2.5
 30
0.0
 11
95.001000000000005
 21
2.5
 31
0.0
  0
TEXT
  5
8A2
  8
241
  6
CONTINUOUS
 10
0.0
 20
31.0
 30
0.0
 40
5.0
  1
ST12-SL5
  7
YOKO
 11
0.0
 21
31.0
 31
0.0
 73
     1
  0
LINE
  5
B55
  8
240
 10
85.0
 20
-3.6905989199999989
 30
0.0
 11
81.0
 21
-6.0
 31
0.0
  0
LINE
  5
B56
  8
240
 10
85.0
 20
3.6905989199999989
 30
0.0
 11
81.0
 21
6.0
 31
0.0
  0
LINE
  5
B57
  8
243
  6
HIDDEN2
 10
64.0
 20
2.5
 30
0.0
 11
85.0
 21
2.5
 31
0.0
  0
LINE
  5
B58
  8
245
  6
CENTER2
 10
-1.0
 20
0.0
 30
0.0
 11
86.0
 21
0.0
 31
0.0
  0
LINE
  5
B59
  8
240
 10
0.0
 20
6.0
 30
0.0
 11
81.0
 21
6.0
 31
0.0
  0
LINE
  5
B5A
  8
240
 10
0.0
 20
-6.0
 30
0.0
 11
81.0
 21
-6.0
 31
0.0
  0
LINE
  5
B5B
  8
240
 10
0.0
 20
6.0
 30
0.0
 11
0.0
 21
-6.0
 31
0.0
  0
LINE
  5
B5F
  8
242
  6
HIDDEN2
 10
80.0
 20
6.0
 30
0.0
 11
80.0
 21
2.5
 31
0.0
  0
LINE
  5
B60
  8
243
  6
HIDDEN2
 10
79.650000000000006
 20
6.0
 30
0.0
 11
79.650000000000006
 21
2.5
 31
0.0
  0
LINE
  5
B62
  8
243
  6
HIDDEN2
 10
76.349999999999994
 20
6.0
 30
0.0
 11
76.349999999999994
 21
2.5
 31
0.0
  0
LINE
  5
B63
  8
242
  6
HIDDEN2
 10
76.0
 20
6.0
 30
0.0
 11
76.0
 21
2.5
 31
0.0
  0
LINE
  5
B64
  8
242
  6
HIDDEN2
 10
70.0
 20
6.0
 30
0.0
 11
70.0
 21
2.5
 31
0.0
  0
LINE
  5
B65
  8
243
  6
HIDDEN2
 10
69.650000000000006
 20
6.0
 30
0.0
 11
69.650000000000006
 21
2.5
 31
0.0
  0
LINE
  5
B66
  8
243
  6
HIDDEN2
 10
66.349999999999994
 20
6.0
 30
0.0
 11
66.349999999999994
 21
2.5
 31
0.0
  0
LINE
  5
B67
  8
242
  6
HIDDEN2
 10
66.0
 20
6.0
 30
0.0
 11
66.0
 21
2.5
 31
0.0
  0
LINE
  5
B68
  8
245
  6
CENTER2
 10
68.0
 20
7.0
 30
0.0
 11
68.0
 21
1.5
 31
0.0
  0
LINE
  5
B69
  8
245
  6
CENTER2
 10
78.0
 20
7.0
 30
0.0
 11
78.0
 21
1.5
 31
0.0
  0
LINE
  5
B6A
  8
241
  6
CONTINUOUS
 10
81.0
 20
-6.0
 30
0.0
 11
81.0
 21
6.0
 31
0.0
  0
LINE
  5
B6B
  8
240
 10
85.0
 20
3.6905989199999989
 30
0.0
 11
85.0
 21
0.0
 31
0.0
  0
LINE
  5
B6C
  8
240
 10
85.0
 20
-3.6905989199999989
 30
0.0
 11
85.0
 21
0.0
 31
0.0
  0
LINE
  5
B6E
  8
243
  6
HIDDEN2
 10
64.0
 20
-2.5
 30
0.0
 11
85.0
 21
-2.5
 31
0.0
  0
LINE
  5
B6F
  8
250
  6
CONTINUOUS
 10
85.5
 20
-2.5
 30
0.0
 11
96.001000000000005
 21
-2.5
 31
0.0
  0
LINE
  5
B7D
  8
250
  6
CONTINUOUS
 10
94.629333333333335
 20
-4.7300000000000004
 30
0.0
 11
95.001000000000005
 21
-2.5
 31
0.0
  0
LINE
  5
B7E
  8
250
  6
CONTINUOUS
 10
95.372666666666674
 20
-4.7300000000000004
 30
0.0
 11
95.001000000000005
 21
-2.5
 31
0.0
  0
LINE
  5
B7F
  8
250
  6
CONTINUOUS
 10
95.001000000000005
 20
-2.5
 30
0.0
 11
95.001000000000005
 21
-6.3447447166174404
 31
0.0
  0
LINE
  5
B80
  8
250
  6
CONTINUOUS
 10
94.629333333333335
 20
4.7300000000000004
 30
0.0
 11
95.001000000000005
 21
2.5
 31
0.0
  0
LINE
  5
B81
  8
250
  6
CONTINUOUS
 10
95.372666666666646
 20
4.7300000000000004
 30
0.0
 11
95.001000000000005
 21
2.5
 31
0.0
  0
LINE
  5
B82
  8
250
  6
CONTINUOUS
 10
95.001000000000005
 20
2.5
 30
0.0
 11
95.001000000000005
 21
5.8524618451830559
 31
0.0
  0
TEXT
  5
B83
  8
250
  6
CONTINUOUS
 10
94.001000000000005
 20
-2.6683665167545199
 30
0.0
 40
2.799999999999998
  1
\U+22055
 50
90.0
1001
ACAD
1000
MTEXTBEGIN
1070
    73
1070
     1
1070
    44
1040
1.0
1070
    74
1070
     0
1000
MTEXTEND
1000
MTEXTBEGIN
1070
    73
1070
     1
1070
    44
1040
1.0
1070
    74
1070
     0
1000
MTEXTEND
  0
LINE
  5
B84
  8
250
  6
CONTINUOUS
 10
0.0
 20
5.5
 30
0.0
 11
0.0
 21
18.0
 31
0.0
  0
LINE
  5
B85
  8
250
  6
CONTINUOUS
 10
85.0
 20
4.1905989200000002
 30
0.0
 11
85.0
 21
18.0
 31
0.0
  0
LINE
  5
B86
  8
250
  6
CONTINUOUS
 10
2.2300000000000182
 20
17.0
 30
0.0
 11
82.769999999999996
 21
17.0
 31
0.0
  0
TEXT
  5
B8A
  8
250
  6
CONTINUOUS
 10
39.833333333333343
 20
18.0
 30
0.0
 40
2.799999999999998
  1
85
1001
ACAD
1000
MTEXTBEGIN
1070
    73
1070
     1
1070
    44
1040
1.0
1070
    74
1070
     0
1000
MTEXTEND
1000
MTEXTBEGIN
1070
    73
1070
     1
1070
    44
1040
1.0
1070
    74
1070
     0
1000
MTEXTEND
  0
LINE
  5
B8B
  8
250
  6
CONTINUOUS
 10
82.769999999999996
 20
17.371666666666659
 30
0.0
 11
85.0
 21
17.0
 31
0.0
  0
LINE
  5
B8C
  8
250
  6
CONTINUOUS
 10
82.769999999999996
 20
16.62833333333333
 30
0.0
 11
85.0
 21
17.0
 31
0.0
  0
LINE
  5
B8D
  8
250
  6
CONTINUOUS
 10
85.0
 20
17.0
 30
0.0
 11
82.769999999999996
 21
17.0
 31
0.0
  0
LINE
  5
B8E
  8
250
  6
CONTINUOUS
 10
2.2300000000000182
 20
16.62833333333333
 30
0.0
 11
0.0
 21
17.0
 31
0.0
  0
LINE
  5
B8F
  8
250
  6
CONTINUOUS
 10
2.2300000000000182
 20
17.371666666666659
 30
0.0
 11
0.0
 21
17.0
 31
0.0
  0
LINE
  5
B90
  8
250
  6
CONTINUOUS
 10
0.0
 20
17.0
 30
0.0
 11
2.2300000000000182
 21
17.0
 31
0.0
  0
LINE
  5
BC8
  8
250
  6
CONTINUOUS
 10
-0.3773458089009409
 20
-16.640976637173701
 30
0.0
 11
11.755987524432371
 21
-16.640976637173701
 31
0.0
  0
LINE
  5
BC9
  8
250
  6
CONTINUOUS
 10
11.755987524432371
 20
-16.640976637173701
 30
0.0
 11
17.303341021177118
 21
-7.883833459012294
 31
0.0
  0
LINE
  5
BCA
  8
250
  6
CONTINUOUS
 10
17.303341021177118
 20
-7.883833459012294
 30
0.0
 11
18.49668569004098
 21
-6.0
 31
0.0
  0
LINE
  5
BCB
  8
250
  6
CONTINUOUS
 10
17.551352399988211
 20
-8.0409402644498886
 30
0.0
 11
18.49668569004098
 21
-6.0
 31
0.0
  0
LINE
  5
BCC
  8
250
  6
CONTINUOUS
 10
18.49668569004098
 20
-6.0
 30
0.0
 11
17.055329642366029
 21
-7.7267266535747012
 31
0.0
  0
TEXT
  5
BCD
  8
250
  6
CONTINUOUS
 10
-0.7773458089009325
 20
-15.240976637173731
 30
0.0
 40
2.799999999999998
  1
ST12
  7
ACJISTS
  0
LINE
  5
BCE
  8
247
  6
CONTINUOUS
 10
4.2499999999999849
 20
-4.0
 30
0.0
 11
8.8846153843300186
 21
-4.0
 31
0.0
  0
LINE
  5
BCF
  8
247
  6
CONTINUOUS
 10
5.0451065000120394
 20
-1.5
 30
0.0
 11
4.4429411899426583
 21
-3.5999999999160082
 31
0.0
  0
LINE
  5
BD0
  8
247
  6
CONTINUOUS
 10
5.6748485964809561
 20
-2.496153846113883
 30
0.0
 11
4.7594639811329813
 21
-2.496153846113883
 31
0.0
  0
ARC
  5
BD1
  8
247
  6
CONTINUOUS
 10
5.9127365980531863
 20
-1.8847190672940981
 30
0.0
 40
0.3876715809326743
 50
342.9978896752952
 51
82.924166218513577
  0
ARC
  5
BD2
  8
247
  6
CONTINUOUS
 10
5.617522443195881
 20
-1.805223131028014
 30
0.0
 40
0.6933047965358767
 50
274.74293685219902
 51
343.84922627326688
1001
GENIUS_GENOBJ-N-FIL_13
1002
{
1000
OWNER
1000
GEN
1002
}
1001
GENIUS_GENODEF_13
1002
{
1000
HIER
1070
     0
1002
}
1002
{
1000
MANEDIT
1070
     0
1002
}
1002
{
1000
NOSEL
1070
     0
1002
}
1002
{
1000
BEHIND
1070
     0
1002
}
1002
{
1000
OTHER
1070
     0
1002
}
1002
{
1000
REACTOR
1002
}
  0
LINE
  5
BD3
  8
247
  6
CONTINUOUS
 10
5.3583258052906473
 20
-3.5999999999160082
 30
0.0
 11
4.4429411899426583
 21
-3.5999999999160082
 31
0.0
  0
LINE
  5
BD4
  8
247
  6
CONTINUOUS
 10
5.0451065000120394
 20
-1.5
 30
0.0
 11
5.9604911153600559
 21
-1.5
 31
0.0
  0
ARC
  5
BD5
  8
247
  6
CONTINUOUS
 10
5.621693523733156
 20
-2.8874169627679289
 30
0.0
 40
0.394857301075386
 50
335.9909416525216
 51
82.263443459069066
  0
ARC
  5
BD6
  8
247
  6
CONTINUOUS
 10
5.2875533895730911
 20
-2.891200327332625
 30
0.0
 40
0.7123241612361686
 50
275.70198516425648
 51
347.27733843682199
1001
GENIUS_GENOBJ-N-FIL_13
1002
{
1000
OWNER
1000
GEN
1002
}
1001
GENIUS_GENODEF_13
1002
{
1000
HIER
1070
     0
1002
}
1002
{
1000
MANEDIT
1070
     0
1002
}
1002
{
1000
NOSEL
1070
     0
1002
}
1002
{
1000
BEHIND
1070
     0
1002
}
1002
{
1000
OTHER
1070
     0
1002
}
1002
{
1000
REACTOR
1002
}
  0
LINE
  5
BD7
  8
247
  6
CONTINUOUS
 10
6.3160181129366171
 20
-3.5999999999160082
 30
0.0
 11
6.9181834230060408
 21
-1.5
 31
0.0
  0
LINE
  5
BD8
  8
247
  6
CONTINUOUS
 10
8.4143372690920142
 20
-1.5
 30
0.0
 11
8.0183216356964522
 21
-1.5
 31
0.0
  0
LINE
  5
BD9
  8
247
  6
CONTINUOUS
 10
7.391260346056014
 20
-3.5999999999160082
 30
0.0
 11
7.8220295768080632
 21
-3.5999999999160082
 31
0.0
  0
ARC
  5
BDA
  8
247
  6
CONTINUOUS
 10
8.6181834229300307
 20
-2.9582995950834161
 30
0.0
 40
1.576855057639547
 50
112.3594881415293
 51
164.99324854284629
  0
ARC
  5
BDB
  8
247
  6
CONTINUOUS
 10
8.152488633866767
 20
-2.0658188585380231
 30
0.0
 40
0.6234706797009447
 50
4.9945893190753372
 51
65.166328957307655
1001
GENIUS_GENOBJ-N-FIL_13
1002
{
1000
OWNER
1000
GEN
1002
}
1001
GENIUS_GENODEF_13
1002
{
1000
HIER
1070
     0
1002
}
1002
{
1000
MANEDIT
1070
     0
1002
}
1002
{
1000
NOSEL
1070
     0
1002
}
1002
{
1000
BEHIND
1070
     0
1002
}
1002
{
1000
OTHER
1070
     0
1002
}
1002
{
1000
REACTOR
1002
}
  0
ARC
  5
BDC
  8
247
  6
CONTINUOUS
 10
7.5558160489672437
 20
-2.662102121969383
 30
0.0
 40
0.9749472149106983
 50
285.84609655578407
 51
352.32513700416229
  0
ARC
  5
BDD
  8
247
  6
CONTINUOUS
 10
7.9647883612277752
 20
-2.871470401971008
 30
0.0
 40
0.9271945638692009
 50
159.71360167048971
 51
231.78874565641519
1001
GENIUS_GENOBJ-N-FIL_13
1002
{
1000
OWNER
1000
GEN
1002
}
1001
GENIUS_GENODEF_13
1002
{
1000
HIER
1070
     0
1002
}
1002
{
1000
MANEDIT
1070
     0
1002
}
1002
{
1000
NOSEL
1070
     0
1002
}
1002
{
1000
BEHIND
1070
     0
1002
}
1002
{
1000
OTHER
1070
     0
1002
}
1002
{
1000
REACTOR
1002
}
  0
LINE
  5
BDE
  8
247
  6
CONTINUOUS
 10
8.0374141921840163
 20
-2.7923076922559158
 30
0.0
 11
8.522029576780028
 21
-2.7923076922559158
 31
0.0
  0
ARC
  5
BDF
  8
247
  6
CONTINUOUS
 10
4.2499999999999849
 20
-2.75
 30
0.0
 40
1.25
 50
90.0
 51
270.0
  0
LINE
  5
BE0
  8
247
  6
CONTINUOUS
 10
4.2499999999999849
 20
-1.5
 30
0.0
 11
4.6961538460860188
 21
-1.5
 31
0.0
  0
ARC
  5
BE1
  8
247
  6
CONTINUOUS
 10
8.8846153843300186
 20
-2.75
 30
0.0
 40
1.25
 50
270.0
 51
90.0
  0
VIEWPORT
  5
22
 67
     1
  8
0
 10
261.51769911999997
 20
148.5
 30
0.0
 40
523.03539823000006
 41
297.0
 68
     1
 69
     1
1001
ACAD
1000
MVIEW
1002
{
1070
    16
1010
0.0
1020
0.0
1030
0.0
1010
0.0
1020
0.0
1030
1.0
1040
0.0
1040
297.0
1040
261.51769911999997
1040
148.5
1040
50.0
1040
0.0
1040
0.0
1070
     0
1070
   100
1070
     1
1070
     1
1070
     0
1070
     0
1070
     0
1070
     0
1040
0.0
1040
0.0
1040
0.0
1040
1.0
1040
1.0
1040
10.0
1040
10.0
1070
     0
1002
{
1002
}
1002
}
1001
GENIUS_GENODEF_13
1002
{
1000
HIER
1070
     0
1002
}
1002
{
1000
MANEDIT
1070
     0
1002
}
1002
{
1000
NOSEL
1070
     0
1002
}
1002
{
1000
BEHIND
1070
     0
1002
}
1002
{
1000
OTHER
1070
     0
1002
}
1002
{
1000
REACTOR
1002
}
1001
GENIUS_GENOBJ-N-SDF_13
1002
{
1000
OWNER
1000
GEN
1002
}
1001
GENIUS_GENSCREG_15
1000
PF
1040
1.0
1000
DF
1040
1.0
1000
MIN
1011
0.0000000049999471
1021
0.0
1031
0.0
1021
0.0
1031
0.0
1000
MAX
1011
523.035398235
1021
0.0
1031
0.0
1021
297.0
1031
0.0
1000
FLAGS
1070
     4
  0
ENDSEC
  0
EOF
