  0
SECTION
  2
HEADER
  9
$ACADVER
  1
AC1009
  9
$INSBASE
 10
0.0
 20
0.0
 30
0.0
  9
$EXTMIN
 10
-146.98542866258029
 20
-6.4729135589739712
 30
-0.0000000349181948
  9
$EXTMAX
 10
15.02609945353106
 20
40.000489472795543
 30
0.0000000814935747
  9
$LIMMIN
 10
0.0
 20
0.0
  9
$LIMMAX
 10
297.0
 20
210.0
  9
$ORTHOMODE
 70
     0
  9
$REGENMODE
 70
     1
  9
$FILLMODE
 70
     1
  9
$QTEXTMODE
 70
     0
  9
$MIRRTEXT
 70
     1
  9
$DRAGMODE
 70
     2
  9
$LTSCALE
 40
10.0
  9
$OSMODE
 70
  2597
  9
$ATTMODE
 70
     1
  9
$TEXTSIZE
 40
3.0
  9
$TRACEWID
 40
1.0
  9
$TEXTSTYLE
  7
YOKO
  9
$CLAYER
  8
240
  9
$CELTYPE
  6
BYLAYER
  9
$CECOLOR
 62
   256
  9
$DIMSCALE
 40
1.0
  9
$DIMASZ
 40
2.2299999999999991
  9
$DIMEXO
 40
0.5
  9
$DIMDLI
 40
2.5
  9
$DIMRND
 40
0.0
  9
$DIMDLE
 40
0.0
  9
$DIMEXE
 40
1.0
  9
$DIMTP
 40
0.0
  9
$DIMTM
 40
0.0
  9
$DIMTXT
 40
3.0
  9
$DIMCEN
 40
0.0
  9
$DIMTSZ
 40
0.0
  9
$DIMTOL
 70
     0
  9
$DIMLIM
 70
     0
  9
$DIMTIH
 70
     0
  9
$DIMTOH
 70
     0
  9
$DIMSE1
 70
     0
  9
$DIMSE2
 70
     0
  9
$DIMTAD
 70
     3
  9
$DIMZIN
 70
     8
  9
$DIMBLK
  1
OPEN
  9
$DIMASO
 70
     1
  9
$DIMSHO
 70
     1
  9
$DIMPOST
  1

  9
$DIMAPOST
  1

  9
$DIMALT
 70
     0
  9
$DIMALTD
 70
     2
  9
$DIMALTF
 40
25.399999999999999
  9
$DIMLFAC
 40
1.0
  9
$DIMTOFL
 70
     1
  9
$DIMTVP
 40
0.0
  9
$DIMTIX
 70
     0
  9
$DIMSOXD
 70
     0
  9
$DIMSAH
 70
     0
  9
$DIMBLK1
  1

  9
$DIMBLK2
  1

  9
$DIMSTYLE
  2
BIGT
  9
$DIMCLRD
 70
   256
  9
$DIMCLRE
 70
   256
  9
$DIMCLRT
 70
    40
  9
$DIMTFAC
 40
1.0
  9
$DIMGAP
 40
1.0
  9
$LUNITS
 70
     2
  9
$LUPREC
 70
     3
  9
$SKETCHINC
 40
1.0
  9
$FILLETRAD
 40
0.5
  9
$AUNITS
 70
     0
  9
$AUPREC
 70
     3
  9
$MENU
  1
.
  9
$ELEVATION
 40
0.0
  9
$PELEVATION
 40
0.0
  9
$THICKNESS
 40
0.0
  9
$LIMCHECK
 70
     0
  9
$BLIPMODE
 70
     0
  9
$CHAMFERA
 40
10.0
  9
$CHAMFERB
 40
10.0
  9
$SKPOLY
 70
     0
  9
$TDCREATE
 40
2452194.3920686808
  9
$TDUPDATE
 40
2453601.7172145839
  9
$TDINDWG
 40
0.0842536574
  9
$TDUSRTIMER
 40
0.0842534722
  9
$USRTIMER
 70
     1
  9
$ANGBASE
 50
0.0
  9
$ANGDIR
 70
     0
  9
$PDMODE
 70
    35
  9
$PDSIZE
 40
2.0
  9
$PLINEWID
 40
0.0
  9
$COORDS
 70
     0
  9
$SPLFRAME
 70
     0
  9
$SPLINETYPE
 70
     6
  9
$SPLINESEGS
 70
     8
  9
$ATTDIA
 70
     1
  9
$ATTREQ
 70
     1
  9
$HANDLING
 70
     1
  9
$HANDSEED
  5
1CFB
  9
$SURFTAB1
 70
     6
  9
$SURFTAB2
 70
     6
  9
$SURFTYPE
 70
     6
  9
$SURFU
 70
     6
  9
$SURFV
 70
     6
  9
$UCSNAME
  2

  9
$UCSORG
 10
0.0
 20
0.0
 30
0.0
  9
$UCSXDIR
 10
1.0
 20
0.0
 30
0.0
  9
$UCSYDIR
 10
0.0
 20
1.0
 30
0.0
  9
$PUCSNAME
  2

  9
$PUCSORG
 10
0.0
 20
0.0
 30
0.0
  9
$PUCSXDIR
 10
1.0
 20
0.0
 30
0.0
  9
$PUCSYDIR
 10
0.0
 20
1.0
 30
0.0
  9
$USERI1
 70
     1
  9
$USERI2
 70
     0
  9
$USERI3
 70
     0
  9
$USERI4
 70
     0
  9
$USERI5
 70
     0
  9
$USERR1
 40
0.0
  9
$USERR2
 40
0.0
  9
$USERR3
 40
0.0
  9
$USERR4
 40
0.0
  9
$USERR5
 40
0.0
  9
$WORLDVIEW
 70
     1
  9
$SHADEDGE
 70
     3
  9
$SHADEDIF
 70
    70
  9
$TILEMODE
 70
     1
  9
$MAXACTVP
 70
    16
  9
$PLIMCHECK
 70
     0
  9
$PEXTMIN
 10
1.0000000000000000E+020
 20
1.0000000000000000E+020
 30
1.0000000000000000E+020
  9
$PEXTMAX
 10
-1.0000000000000000E+020
 20
-1.0000000000000000E+020
 30
-1.0000000000000000E+020
  9
$PLIMMIN
 10
0.0
 20
0.0
  9
$PLIMMAX
 10
420.0
 20
297.0
  9
$UNITMODE
 70
     0
  9
$VISRETAIN
 70
     0
  9
$PLINEGEN
 70
     0
  9
$PSLTSCALE
 70
     1
  0
ENDSEC
  0
SECTION
  2
TABLES
  0
TABLE
  2
VPORT
 70
     4
  0
VPORT
  2
*ACTIVE
 70
     0
 10
0.0
 20
0.0
 11
1.0
 21
1.0
 12
-65.979664604524643
 22
16.763787956910789
 13
0.0
 23
0.0
 14
7.0
 24
7.0
 15
7.0
 25
7.0
 16
0.0
 26
0.0
 36
1.0
 17
0.0
 27
0.0
 37
0.0
 40
111.2867672501859
 41
1.4630303030303029
 42
50.0
 43
0.0
 44
0.0
 50
0.0
 51
0.0
 71
     0
 72
  2000
 73
     1
 74
     0
 75
     0
 76
     0
 77
     0
 78
     0
  0
ENDTAB
  0
TABLE
  2
LTYPE
 70
    16
  0
LTYPE
  2
CONTINUOUS
 70
     0
  3
Solid line
 72
    65
 73
     0
 40
0.0
  0
LTYPE
  2
CENTER2
 70
     0
  3
___ _ ___ _ ___ _ ___ _ ___ _ ___ _ ___ _ ___ _
 72
    65
 73
     4
 40
1.125
 49
0.75
 49
-0.125
 49
0.125
 49
-0.125
  0
LTYPE
  2
PHANTOM2
 70
     0
  3
___ _ _ ___ _ _ ___ _ _ ___ _ _ ___ _ _ ___ _ _
 72
    65
 73
     6
 40
1.25
 49
0.625
 49
-0.125
 49
0.125
 49
-0.125
 49
0.125
 49
-0.125
  0
LTYPE
  2
HIDDEN2
 70
     0
  3
_ _ _ _ _ _ _ _ _ _ _ _ _ _ _ _ _ _ _ _ _ _ _ _
 72
    65
 73
     2
 40
0.1875
 49
0.125
 49
-0.0625
  0
LTYPE
  2
AMCONSTR
 70
     0
  3
_______________________
 72
    65
 73
     2
 40
9999.0
 49
9999.0
 49
0.0
  0
LTYPE
  2
HIDDEN
 70
     0
  3
Hidden __ __ __ __ __ __ __ __ __ __ __ __ __ _
 72
    65
 73
     2
 40
9.5249999999999986
 49
6.349999999999997
 49
-3.174999999999998
  0
LTYPE
  2
CENTER
 70
     0
  3
____ _ ____ _ ____ _ ____ _ ____ _ ____ _ ____ 
 72
    65
 73
     4
 40
2.0
 49
1.25
 49
-0.25
 49
0.25
 49
-0.25
  0
LTYPE
  2
AMZIGZAG2
 70
     0
  3
/\/-/\/-/\/-/\/-/\/-/\/
 72
    65
 73
     2
 40
0.4401
 49
0.0001
 49
-0.4400000000000002
  0
LTYPE
  2
ACANSTGB
 70
     0
  3
__ . . __ . .
 72
    65
 73
     6
 40
0.35433070866
 49
0.15748031496
 49
-0.03937007874
 49
0.03937007874
 49
-0.03937007874
 49
0.03937007874
 49
-0.03937007874
  0
LTYPE
  2
ACANSTGL
 70
     0
  3
_ _ _ _ _
 72
    65
 73
     2
 40
0.11811023622
 49
0.07874015748
 49
-0.03937007874
  0
ENDTAB
  0
TABLE
  2
LAYER
 70
     9
  0
LAYER
  2
0
 70
     0
 62
     7
  6
CONTINUOUS
  0
LAYER
  2
240
 70
     0
 62
     4
  6
CONTINUOUS
  0
LAYER
  2
241
 70
     0
 62
   211
  6
CONTINUOUS
  0
LAYER
  2
245
 70
     0
 62
     2
  6
CENTER2
  0
LAYER
  2
246
 70
     0
 62
     3
  6
PHANTOM2
  0
LAYER
  2
247
 70
     0
 62
    60
  6
CONTINUOUS
  0
LAYER
  2
250
 70
     0
 62
     3
  6
CONTINUOUS
  0
LAYER
  2
DEFPOINTS
 70
     0
 62
     7
  6
CONTINUOUS
  0
LAYER
  2
243
 70
     0
 62
   211
  6
HIDDEN2
  0
ENDTAB
  0
TABLE
  2
STYLE
 70
     5
  0
STYLE
  2
STANDARD
 70
     0
 40
0.0
 41
1.0
 50
0.0
 71
     0
 42
3.0
  3
romans.shx
  4
BIGFONT.SHX
  0
STYLE
  2
YOKO
 70
     0
 40
0.0
 41
1.0
 50
0.0
 71
     0
 42
3.0
  3
romans.shx
  4
extfont.shx
  0
STYLE
  2
ACANSTS
 70
     0
 40
1.0
 41
1.0
 50
0.0
 71
     0
 42
3.0
  3
romans.shx
  4
extfont.shx
  0
STYLE
  2
ACANSGDT
 70
     0
 40
0.0
 41
1.0
 50
0.0
 71
     0
 42
3.0
  3
amgdtans.shx
  4

  0
ENDTAB
  0
TABLE
  2
VIEW
 70
     0
  0
ENDTAB
  0
TABLE
  2
UCS
 70
     0
  0
ENDTAB
  0
TABLE
  2
APPID
 70
    33
  0
APPID
  2
ACAD
 70
     0
  0
APPID
  2
GLOBAL
 70
     0
  0
APPID
  2
DETAIL
 70
     0
  0
APPID
  2
GRPNAME
 70
     0
  0
APPID
  2
GPARA
 70
     0
  0
APPID
  2
ITEMNAME
 70
     0
  0
APPID
  2
HATCH_TYPE
 70
     0
  0
APPID
  2
HATCH_DISPLAY
 70
     0
  0
APPID
  2
HATCH_DISTANCE
 70
     0
  0
APPID
  2
GRADE_0
 70
     0
  0
APPID
  2
GENIUS_GENODEF_13
 70
     0
  0
APPID
  2
GENIUS_GENOBJ-N-FIL_13
 70
     0
  0
APPID
  2
MCAD_NO_VIS
 70
     0
  0
APPID
  2
ACAD_TEMP_GRAPHIC
 70
     0
  0
APPID
  2
ACATTRIBSERVICES
 70
     0
  0
APPID
  2
GENIUS_GENSCREG_15
 70
     0
  0
APPID
  2
GENIUS_GENOBJ-N-SDF_13
 70
     0
  0
APPID
  2
GENIUS_GENREC_14
 70
     0
  0
APPID
  2
GENIUS_GENOBJ-N-REC_13
 70
     0
  0
APPID
  2
GENIUS_GENDIMSH_14
 70
     0
  0
APPID
  2
GENIUS_GENOBJ-N-DIM_13
 70
     0
  0
APPID
  2
GENIUS_GENDIM_13
 70
     0
  0
APPID
  2
GENIUS_GENDTOL_13
 70
     0
  0
APPID
  2
GENIUS_GENOLIS_13
 70
     0
  0
APPID
  2
GENIUS_GENOENT_13
 70
     0
  0
APPID
  2
GENIUS_GENOBJ-F-FEM_13
 70
     0
  0
APPID
  2
GENIUS_GENOREF_13
 70
     0
  0
APPID
  2
GENIUS_GEFFEM_13
 70
     0
  0
APPID
  2
GENIUS_GEFFEMP_13
 70
     0
  0
APPID
  2
AD_DRAW
 70
     0
  0
APPID
  2
DESIGNERASSEMBLIES
 70
     0
  0
APPID
  2
ACADM_DIM_EDIT
 70
     0
  0
APPID
  2
AMDT_DM_ADJ
 70
     0
  0
ENDTAB
  0
TABLE
  2
DIMSTYLE
 70
     8
  0
DIMSTYLE
  2
STANDARD
 70
     0
  3

  4

  5

  6

  7

 40
1.0
 41
2.0
 42
2.0
 43
3.75
 44
2.0
 45
0.0
 46
0.0
 47
0.0
 48
0.0
140
4.0
141
0.09
142
0.0
143
25.399999999999999
144
1.0
145
0.0
146
1.0
147
1.0
 71
     0
 72
     0
 73
     1
 74
     1
 75
     0
 76
     0
 77
     0
 78
     8
170
     0
171
     2
172
     0
173
     1
174
     0
175
     0
176
   256
177
   256
178
   256
  0
DIMSTYLE
  2
BIGT
 70
     0
  3

  4

  5

  6

  7

 40
1.0
 41
2.2299999999999991
 42
0.5
 43
7.0
 44
1.0
 45
0.0
 46
0.0
 47
0.0
 48
0.01
140
2.799999999999998
141
0.0
142
0.0
143
25.399999999999999
144
1.0
145
0.0
146
1.0
147
1.0
 71
     0
 72
     0
 73
     0
 74
     0
 75
     0
 76
     0
 77
     3
 78
     9
170
     0
171
     2
172
     1
173
     0
174
     0
175
     0
176
   256
177
   256
178
    40
  0
DIMSTYLE
  2
AM_ANSI
 70
     0
  3

  4
mm
  5

  6

  7

 40
1.0
 41
0.1
 42
0.05
 43
0.5
 44
0.1
 45
0.0
 46
0.0
 47
0.1
 48
0.1
140
0.12
141
0.0
142
0.0
143
25.399999999999999
144
1.0
145
0.0
146
0.71
147
0.06
 71
     0
 72
     0
 73
     1
 74
     1
 75
     0
 76
     0
 77
     0
 78
     7
170
     0
171
     2
172
     0
173
     0
174
     0
175
     0
176
   256
177
   256
178
     2
  0
DIMSTYLE
  2
AM_ANSI$3
 70
     0
  3

  4
mm
  5

  6

  7

 40
1.0
 41
0.1
 42
0.05
 43
0.5
 44
0.1
 45
0.0
 46
0.0
 47
0.1
 48
0.1
140
0.12
141
0.0
142
0.0
143
25.399999999999999
144
1.0
145
0.0
146
0.71
147
0.06
 71
     0
 72
     0
 73
     1
 74
     1
 75
     0
 76
     0
 77
     0
 78
     7
170
     0
171
     2
172
     0
173
     0
174
     0
175
     0
176
   256
177
   256
178
     2
  0
DIMSTYLE
  2
AM_ANSI$4
 70
     0
  3

  4
mm
  5

  6

  7

 40
1.0
 41
0.1
 42
0.05
 43
0.5
 44
0.1
 45
0.0
 46
0.0
 47
0.1
 48
0.1
140
0.12
141
0.0
142
0.0
143
25.399999999999999
144
1.0
145
0.0
146
0.71
147
0.06
 71
     0
 72
     0
 73
     1
 74
     1
 75
     0
 76
     0
 77
     0
 78
     7
170
     0
171
     2
172
     0
173
     0
174
     0
175
     0
176
   256
177
   256
178
     2
  0
DIMSTYLE
  2
AM_ANSI$7
 70
     0
  3

  4
mm
  5

  6

  7

 40
1.0
 41
0.1
 42
0.05
 43
0.5
 44
0.1
 45
0.0
 46
0.0
 47
0.1
 48
0.1
140
0.24
141
0.0
142
0.0
143
25.399999999999999
144
1.0
145
0.0
146
0.71
147
0.06
 71
     0
 72
     0
 73
     1
 74
     1
 75
     0
 76
     0
 77
     0
 78
     7
170
     0
171
     2
172
     0
173
     0
174
     0
175
     0
176
   256
177
   256
178
     2
  0
DIMSTYLE
  2
AM_ANSI$SF
 70
     0
  3

  4
mm
  5

  6

  7

 40
1.0
 41
0.1
 42
0.05
 43
0.5
 44
0.1
 45
0.0
 46
0.0
 47
0.1
 48
0.1
140
0.12
141
0.0
142
0.0
143
25.399999999999999
144
1.0
145
0.0
146
0.71
147
0.06
 71
     0
 72
     0
 73
     1
 74
     1
 75
     1
 76
     1
 77
     0
 78
     7
170
     0
171
     2
172
     0
173
     0
174
     0
175
     0
176
   256
177
   256
178
     2
  0
DIMSTYLE
  2
AM_ANSI$SH
 70
     0
  3

  4
mm
  5

  6

  7

 40
1.0
 41
0.1
 42
0.05
 43
0.5
 44
0.1
 45
0.0
 46
0.0
 47
0.1
 48
0.1
140
0.12
141
0.0
142
0.0
143
25.399999999999999
144
1.0
145
0.0
146
0.71
147
0.06
 71
     0
 72
     0
 73
     1
 74
     1
 75
     1
 76
     1
 77
     0
 78
     7
170
     0
171
     2
172
     0
173
     1
174
     0
175
     0
176
   256
177
   256
178
     2
  0
ENDTAB
  0
ENDSEC
  0
SECTION
  2
BLOCKS
  0
BLOCK
  8
0
  2
$MODEL_SPACE
 70
     0
 10
0.0
 20
0.0
 30
0.0
  3
$MODEL_SPACE
  1

  0
ENDBLK
  5
1C0F
  8
0
  0
BLOCK
 67
     1
  8
0
  2
$PAPER_SPACE
 70
     0
 10
0.0
 20
0.0
 30
0.0
  3
$PAPER_SPACE
  1

  0
ENDBLK
  5
1C0B
 67
     1
  8
0
  0
BLOCK
  8
0
  2
_OPEN
 70
     0
 10
0.0
 20
0.0
 30
0.0
  3
_OPEN
  1

  0
LINE
  5
1A52
  8
0
  6
BYBLOCK
 62
     0
 10
-1.0
 20
0.1666666666666666
 30
0.0
 11
0.0
 21
0.0
 31
0.0
  0
LINE
  5
1A53
  8
0
  6
BYBLOCK
 62
     0
 10
-1.0
 20
-0.1666666666666666
 30
0.0
 11
0.0
 21
0.0
 31
0.0
  0
LINE
  5
1A54
  8
0
  6
BYBLOCK
 62
     0
 10
0.0
 20
0.0
 30
0.0
 11
-1.0
 21
0.0
 31
0.0
  0
ENDBLK
  5
1A55
  8
0
  0
BLOCK
  8
0
  2
A$C1B662C1B
 70
     0
 10
0.0
 20
0.0
 30
0.0
  3
A$C1B662C1B
  1

  0
LINE
  5
18D7
  8
240
 10
-15.901687836486939
 20
-5.999999999999984
 30
0.0
 11
-127.75
 21
-5.9999999999999831
 31
0.0
  0
LINE
  5
18D8
  8
240
 10
-127.75
 20
6.0
 30
0.0
 11
-15.90168783648696
 21
6.0000000000000284
 31
0.0
  0
TEXT
  5
18D9
  8
247
 10
-64.893824658021941
 20
-5.1617941121172484
 30
0.0
 40
2.0
  1
ST12-MEGA4S-130
  7
YOKO
 11
-64.893824658021941
 21
-5.1617941121172484
 31
0.0
 73
     1
  0
LINE
  5
18DA
  8
245
 10
2.7851799999999951
 20
0.0
 30
0.0
 11
-134.25387342356879
 21
-0.0000000000000142
 31
0.0
  0
LINE
  5
18DB
  8
241
 10
-128.67499999999859
 20
-5.8368975428761294
 30
0.0
 11
-128.67499999999859
 21
5.8368975428759429
 31
0.0
  0
LINE
  5
18DC
  8
240
 10
-130.0
 20
-5.6000000000315548
 30
0.0
 11
-130.0
 21
5.5000000000315161
 31
0.0
  0
LINE
  5
18DD
  8
241
 10
-127.75
 20
-5.9999999999999831
 30
0.0
 11
-127.75
 21
6.0
 31
0.0
  0
ARC
  5
18DE
  8
240
 10
-129.59999999999999
 20
-5.6000000000315548
 30
0.0
 40
0.4
 50
180.0
 51
270.0000000000162
  0
LINE
  5
18DF
  8
240
 10
-128.67499999999839
 20
-5.8368975428762973
 30
0.0
 11
-129.5999999999992
 21
-6.0000000000315632
 31
0.0
  0
LINE
  5
18E0
  8
240
 10
-127.7500000000506
 20
-6.0000000000221938
 30
0.0
 11
-128.67499999999839
 21
-5.8368975428762973
 31
0.0
  0
LINE
  5
18E1
  8
240
 10
-128.67499999999859
 20
5.8368975428759571
 30
0.0
 11
-129.5999999999998
 21
6.000000000031517
 31
0.0
  0
ARC
  5
18E2
  8
240
 10
-129.50415421061061
 20
5.5133233685199921
 30
0.0
 40
0.4960247564417133
 50
101.1412171586697
 51
181.53916633313489
  0
LINE
  5
18E3
  8
240
 10
-127.7499999999999
 20
6.0000000000310481
 30
0.0
 11
-128.67499999999859
 21
5.8368975428759571
 31
0.0
  0
ARC
  5
18E4
  8
247
 10
-71.895623551112223
 20
-4.2344087876266761
 30
0.0
 40
1.0306365966796871
 50
90.0
 51
270.0
  0
ARC
  5
18E5
  8
247
 10
-71.895623551112223
 20
-4.2344087876266761
 30
0.0
 40
1.273141479492186
 50
90.0
 51
270.0
  0
LINE
  5
18E6
  8
247
 10
-73.130768743925884
 20
-3.9256927701076441
 30
0.0
 11
-72.204339568631241
 21
-2.9992635948129922
 31
0.0
  0
LINE
  5
18E7
  8
247
 10
-73.168764353835684
 20
-4.2330960636494881
 30
0.0
 11
-72.886471509073147
 21
-3.950803218886946
 31
0.0
  0
LINE
  5
18E8
  8
247
 10
-72.179229119851954
 20
-3.2435608296657672
 30
0.0
 11
-71.896936275089431
 21
-2.96126798490323
 31
0.0
  0
LINE
  5
18E9
  8
247
 10
-73.145083770372665
 20
-4.4788231638185323
 30
0.0
 11
-72.925950044574932
 21
-4.259689438020807
 31
0.0
  0
LINE
  5
18EA
  8
247
 10
-71.870032797501111
 20
-3.2037721909469901
 30
0.0
 11
-71.627527914688599
 21
-2.9612673081344951
 31
0.0
  0
LINE
  5
18EB
  8
247
 10
-73.085120023726859
 20
-4.688267100804806
 30
0.0
 11
-72.892580947739376
 21
-4.495728024817331
 31
0.0
  0
LINE
  5
18EC
  8
247
 10
-71.600625113869029
 20
-3.2037721909469781
 30
0.0
 11
-71.409574650519204
 21
-3.012721727597151
 31
0.0
  0
LINE
  5
18ED
  8
247
 10
-72.998279989452669
 20
-4.8708347501627074
 30
0.0
 11
-72.819219189218188
 21
-4.6917739499282254
 31
0.0
  0
LINE
  5
18EE
  8
247
 10
-72.888886784388291
 20
-5.0308492287304079
 30
0.0
 11
-72.716129881627452
 21
-4.8580923259695723
 31
0.0
  0
LINE
  5
18EF
  8
247
 10
-72.758846236875272
 20
-5.170216364849459
 30
0.0
 11
-72.58719699659494
 21
-4.998567124569119
 31
0.0
  0
LINE
  5
18F0
  8
247
 10
-72.608485217678449
 20
-5.2892630292847107
 30
0.0
 11
-72.433052395004552
 21
-5.113830206610797
 31
0.0
  0
LINE
  5
18F1
  8
247
 10
-72.436677249205374
 20
-5.386862744443718
 30
0.0
 11
-72.251477144524031
 21
-5.2016626397623869
 31
0.0
  0
LINE
  5
18F2
  8
247
 10
-72.2403876865028
 20
-5.459980865373204
 30
0.0
 11
-72.035865977820606
 21
-5.2554591566910149
 31
0.0
  0
LINE
  5
18F3
  8
247
 10
-72.013116356682033
 20
-5.502117219184532
 30
0.0
 11
-71.776044807906189
 21
-5.2650456704086732
 31
0.0
  0
LINE
  5
18F4
  8
247
 10
-71.749142000845453
 20
-5.507550546980025
 30
0.0
 11
-71.506637124274093
 21
-5.265045670408667
 31
0.0
  0
LINE
  5
18F5
  8
247
 10
-71.479734317213371
 20
-5.507550546980025
 30
0.0
 11
-71.237229440642039
 21
-5.265045670408667
 31
0.0
  0
LINE
  5
18F6
  8
247
 10
-71.210326633581317
 20
-5.507550546980025
 30
0.0
 11
-70.967821757009958
 21
-5.265045670408667
 31
0.0
  0
LINE
  5
18F7
  8
247
 10
-70.940918949949236
 20
-5.507550546980025
 30
0.0
 11
-70.698414073377876
 21
-5.265045670408667
 31
0.0
  0
LINE
  5
18F8
  8
247
 10
-70.671511266317168
 20
-5.507550546980025
 30
0.0
 11
-70.429006389745823
 21
-5.265045670408667
 31
0.0
  0
LINE
  5
18F9
  8
247
 10
-70.402103582685086
 20
-5.507550546980025
 30
0.0
 11
-70.159598706113727
 21
-5.265045670408667
 31
0.0
  0
LINE
  5
18FA
  8
247
 10
-70.132695899053019
 20
-5.507550546980025
 30
0.0
 11
-69.890191022481659
 21
-5.265045670408667
 31
0.0
  0
LINE
  5
18FB
  8
247
 10
-69.863288215420937
 20
-5.507550546980025
 30
0.0
 11
-69.620783338849563
 21
-5.265045670408667
 31
0.0
  0
LINE
  5
18FC
  8
247
 10
-69.593880531788869
 20
-5.507550546980025
 30
0.0
 11
-69.35137565521751
 21
-5.265045670408667
 31
0.0
  0
LINE
  5
18FD
  8
247
 10
-67.247595907891537
 20
-3.1612659230826941
 30
0.0
 11
-67.049935817670828
 21
-2.9636058328619792
 31
0.0
  0
LINE
  5
18FE
  8
247
 10
-69.324472848156802
 20
-5.507550546980025
 30
0.0
 11
-69.081967971585442
 21
-5.265045670408667
 31
0.0
  0
LINE
  5
18FF
  8
247
 10
-67.021862685881615
 20
-3.2049403847048552
 30
0.0
 11
-66.791207530139616
 21
-2.9742852289628461
 31
0.0
  0
LINE
  5
1900
  8
247
 10
-69.05506516452472
 20
-5.507550546980025
 30
0.0
 11
-68.81256028795336
 21
-5.265045670408667
 31
0.0
  0
LINE
  5
1901
  8
247
 10
-66.771197858811547
 20
-3.223683241266861
 30
0.0
 11
-66.573140202687256
 21
-3.0256255851425702
 31
0.0
  0
LINE
  5
1902
  8
247
 10
-68.785657480892638
 20
-5.507550546980025
 30
0.0
 11
-68.543152604321278
 21
-5.265045670408667
 31
0.0
  0
LINE
  5
1903
  8
247
 10
-66.565693777898275
 20
-3.2875868439856761
 30
0.0
 11
-66.383810915850844
 21
-3.1057039819382242
 31
0.0
  0
LINE
  5
1904
  8
247
 10
-68.516249797260571
 20
-5.507550546980025
 30
0.0
 11
-68.273744920689211
 21
-5.265045670408667
 31
0.0
  0
LINE
  5
1905
  8
247
 10
-66.391828290228318
 20
-3.383129039947768
 30
0.0
 11
-66.217912554233166
 21
-3.2092133039526161
 31
0.0
  0
LINE
  5
1906
  8
247
 10
-68.246842113628489
 20
-5.507550546980025
 30
0.0
 11
-68.004337237057129
 21
-5.265045670408667
 31
0.0
  0
LINE
  5
1907
  8
247
 10
-66.2444829669912
 20
-3.505191400342738
 30
0.0
 11
-66.073006093725169
 21
-3.3337145270767281
 31
0.0
  0
LINE
  5
1908
  8
247
 10
-67.977434429996421
 20
-5.507550546980025
 30
0.0
 11
-67.734929553425061
 21
-5.265045670408667
 31
0.0
  0
LINE
  5
1909
  8
247
 10
-66.12225231509467
 20
-3.652368432078283
 30
0.0
 11
-65.948369457855648
 21
-3.478485574839266
 31
0.0
  0
LINE
  5
190A
  8
247
 10
-67.708026746364339
 20
-5.507550546980025
 30
0.0
 11
-67.46552186979298
 21
-5.265045670408667
 31
0.0
  0
LINE
  5
190B
  8
247
 10
-66.026522408515575
 20
-3.8260462091312561
 30
0.0
 11
-65.844714910868248
 21
-3.6442387114839199
 31
0.0
  0
LINE
  5
190C
  8
247
 10
-67.438619062732272
 20
-5.507550546980025
 30
0.0
 11
-67.196114186160912
 21
-5.265045670408667
 31
0.0
  0
LINE
  5
190D
  8
247
 10
-65.962378569612127
 20
-4.0313100538598894
 30
0.0
 11
-65.764467654686399
 21
-3.8333991389341522
 31
0.0
  0
LINE
  5
190E
  8
247
 10
-67.169211379100204
 20
-5.507550546980025
 30
0.0
 11
-66.925625767709931
 21
-5.2639649355897449
 31
0.0
  0
LINE
  5
190F
  8
247
 10
-65.9432494099851
 20
-4.2815885778649232
 30
0.0
 11
-65.71290828019248
 21
-4.0512474480723011
 31
0.0
  0
LINE
  5
1910
  8
247
 10
-66.897579003557851
 20
-5.5053258550697484
 30
0.0
 11
-66.579162153885633
 21
-5.1869090053975357
 31
0.0
  0
LINE
  5
1911
  8
247
 10
-66.020305340177273
 20
-4.628052191689199
 30
0.0
 11
-65.701888490505084
 21
-4.3096353420169891
 31
0.0
  0
LINE
  5
1912
  8
247
 10
-66.562450473699215
 20
-5.4396050088432011
 30
0.0
 11
-65.76760933673161
 21
-4.6447638718756252
 31
0.0
  0
ARC
  5
1913
  8
247
 10
-68.224953995448161
 20
-4.3556612290329291
 30
0.0
 40
0.7881408691406251
 50
163.99975070172931
 51
304.96387329163082
  0
LINE
  5
1914
  8
247
 10
-68.052322159510638
 20
-4.1495302475876201
 30
0.0
 11
-67.850503311854396
 21
-4.1495302475876201
 31
0.0
  0
ARC
  5
1915
  8
247
 10
-68.250991593104416
 20
-4.6224092759079261
 30
0.0
 40
0.2546298265457154
 50
164.00027305718419
 51
344.0002730571843
  0
ARC
  5
1916
  8
247
 10
-66.972805557948163
 20
-4.2344087876266761
 30
0.0
 40
1.273141479492186
 50
270.0
 51
104.7707939660941
  0
LINE
  5
1917
  8
247
 10
-68.052322159510638
 20
-4.1495302475876201
 30
0.0
 11
-67.982787857752825
 21
-3.907025364775119
 31
0.0
  0
LINE
  5
1918
  8
247
 10
-68.884843922461258
 20
-3.7208832031241101
 30
0.0
 11
-68.129094200794583
 21
-2.965133481457435
 31
0.0
  0
LINE
  5
1919
  8
247
 10
-68.974285339556289
 20
-4.0797323038512348
 30
0.0
 11
-67.875608755740529
 21
-2.9810557200354562
 31
0.0
  0
LINE
  5
191A
  8
247
 10
-69.012459013302532
 20
-4.387313661229526
 30
0.0
 11
-68.221731114409451
 21
-3.5965857623364661
 31
0.0
  0
LINE
  5
191B
  8
247
 10
-67.86110006383754
 20
-3.2359547117645402
 30
0.0
 11
-67.679514060209755
 21
-3.0543687081367632
 31
0.0
  0
LINE
  5
191C
  8
247
 10
-68.969600273306298
 20
-4.613862604865381
 30
0.0
 11
-68.330040315268718
 21
-3.9743026468277991
 31
0.0
  0
LINE
  5
191D
  8
247
 10
-67.706409825345446
 20
-3.350672156904527
 30
0.0
 11
-67.408841975280126
 21
-3.0531043068392161
 31
0.0
  0
LINE
  5
191E
  8
247
 10
-68.880104771886209
 20
-4.793774787077373
 30
0.0
 11
-68.438349516127971
 21
-4.3520195313191294
 31
0.0
  0
LINE
  5
191F
  8
247
 10
-67.369503598262156
 20
-3.2831736134533118
 30
0.0
 11
-67.344255057797028
 21
-3.257925072988185
 31
0.0
  0
LINE
  5
1920
  8
247
 10
-68.755453007619053
 20
-4.9385307064422861
 30
0.0
 11
-68.49862228655239
 21
-4.6816999853756132
 31
0.0
  0
LINE
  5
1921
  8
247
 10
-67.966452548764394
 20
-4.1495302475876201
 30
0.0
 11
-67.723947665951897
 21
-3.9070253647751199
 31
0.0
  0
LINE
  5
1922
  8
247
 10
-68.597635647845081
 20
-5.0501210303003861
 30
0.0
 11
-68.385886307947004
 21
-4.838371690402302
 31
0.0
  0
LINE
  5
1923
  8
247
 10
-67.912197902009822
 20
-4.3646832844651291
 30
0.0
 11
-67.454539982319815
 21
-3.907025364775115
 31
0.0
  0
LINE
  5
1924
  8
247
 10
-68.401809851728785
 20
-5.1237029178161579
 30
0.0
 11
-68.117105149464891
 21
-4.8389982155522731
 31
0.0
  0
LINE
  5
1925
  8
247
 10
-68.034402653460077
 20
-4.7562957195474569
 30
0.0
 11
-67.313109824073479
 21
-4.0350028901608601
 31
0.0
  0
LINE
  5
1926
  8
247
 10
-68.148814991498398
 20
-5.140115741217846
 30
0.0
 11
-67.421418656775671
 21
-4.4127194064951283
 31
0.0
  0
LINE
  5
1927
  8
247
 10
-67.757072156847769
 20
-5.0177805901993082
 30
0.0
 11
-67.52972748947785
 21
-4.7904359228293858
 31
0.0
  0
LINE
  5
1928
  8
247
 10
-71.895623551112195
 20
-5.265045670408667
 30
0.0
 11
-66.972805557948135
 21
-5.265045670408667
 31
0.0
  0
LINE
  5
1929
  8
247
 10
-71.895623551112195
 20
-5.507550546980025
 30
0.0
 11
-66.972805557948135
 21
-5.507550546980025
 31
0.0
  0
ARC
  5
192A
  8
247
 10
-67.92416664193253
 20
-3.482650975126687
 30
0.0
 40
0.2546300053596497
 50
1.7101213820627299
 51
163.9983983544486
  0
ARC
  5
192B
  8
247
 10
-68.051113663416913
 20
-3.7493990220016791
 30
0.0
 40
0.788132858276367
 50
53.444012197057837
 51
164.00018438768541
  0
LINE
  5
192C
  8
247
 10
-69.566631851893447
 20
-3.2280153550094881
 30
0.0
 11
-69.47832923958876
 21
-3.2280153550094881
 31
0.0
  0
LINE
  5
192D
  8
247
 10
-69.566631851893447
 20
-3.2280153550094881
 30
0.0
 11
-69.490139542323135
 21
-2.9612673081344951
 31
0.0
  0
LINE
  5
192E
  8
247
 10
-69.490139542323135
 20
-2.9612673081344951
 30
0.0
 11
-68.859451065760609
 21
-2.9612673081344951
 31
0.0
  0
LINE
  5
192F
  8
247
 10
-70.027673111659098
 20
-5.1437932290024122
 30
0.0
 11
-69.485278092127828
 21
-5.1437932290024122
 31
0.0
  0
LINE
  5
1930
  8
247
 10
-70.027673111659098
 20
-5.1437932290024122
 30
0.0
 11
-69.47832923958876
 21
-3.2280153550094881
 31
0.0
  0
LINE
  5
1931
  8
247
 10
-69.49732541994473
 20
-2.9863262824472221
 30
0.0
 11
-69.472266445632016
 21
-2.9612673081344951
 31
0.0
  0
LINE
  5
1932
  8
247
 10
-69.481835895494171
 20
-3.240244441628731
 30
0.0
 11
-69.202858761999934
 21
-2.9612673081344951
 31
0.0
  0
LINE
  5
1933
  8
247
 10
-69.590145158790975
 20
-3.6179613885576161
 30
0.0
 11
-68.933451078367867
 21
-2.9612673081344951
 31
0.0
  0
LINE
  5
1934
  8
247
 10
-69.698454422087778
 20
-3.9956783354864882
 30
0.0
 11
-68.938009226313611
 21
-3.2352331397123191
 31
0.0
  0
LINE
  5
1935
  8
247
 10
-69.806763685384581
 20
-4.3733952824153661
 30
0.0
 11
-69.04631701154014
 21
-3.612948608570917
 31
0.0
  0
LINE
  5
1936
  8
247
 10
-69.915072948681399
 20
-4.751112229344236
 30
0.0
 11
-69.154624796766655
 21
-3.9906640774294968
 31
0.0
  0
LINE
  5
1937
  8
247
 10
-70.023382211978173
 20
-5.1288291762731131
 30
0.0
 11
-69.262932581993155
 21
-4.3683795462880894
 31
0.0
  0
LINE
  5
1938
  8
247
 10
-69.768938581075389
 20
-5.1437932290023971
 30
0.0
 11
-69.371240367219656
 21
-4.7460950151466701
 31
0.0
  0
LINE
  5
1939
  8
247
 10
-69.499530897443321
 20
-5.1437932290024122
 30
0.0
 11
-69.479548152446171
 21
-5.1238104840052587
 31
0.0
  0
LINE
  5
193A
  8
247
 10
-69.490139542323163
 20
-2.9612673081344951
 30
0.0
 11
-69.566631851893476
 21
-3.2280153550094881
 31
0.0
  0
LINE
  5
193B
  8
247
 10
-69.566631851893476
 20
-3.2280153550094881
 30
0.0
 11
-69.478329239588788
 21
-3.2280153550094881
 31
0.0
  0
LINE
  5
193C
  8
247
 10
-69.478329239588788
 20
-3.2280153550094881
 30
0.0
 11
-70.027673111659098
 21
-5.1437932290024122
 31
0.0
  0
LINE
  5
193D
  8
247
 10
-70.027673111659098
 20
-5.1437932290024122
 30
0.0
 11
-69.485278092127857
 21
-5.1437932290024122
 31
0.0
  0
LINE
  5
193E
  8
247
 10
-69.485278092127857
 20
-5.1437932290024122
 30
0.0
 11
-68.859451065760666
 21
-2.9612673081344951
 31
0.0
  0
LINE
  5
193F
  8
247
 10
-68.859451065760666
 20
-2.9612673081344951
 30
0.0
 11
-69.490139542323163
 21
-2.9612673081344951
 31
0.0
  0
LINE
  5
1940
  8
247
 10
-69.490139542323163
 20
-2.9612673081344951
 30
0.0
 11
-69.566631851893476
 21
-3.2280153550094881
 31
0.0
1001
HATCH_DISTANCE
1040
1.0
1001
HATCH_DISPLAY
1070
     0
1001
HATCH_TYPE
1070
     7
  0
LINE
  5
1941
  8
247
 10
-69.566631851893476
 20
-3.2280153550094881
 30
0.0
 11
-69.478329239588788
 21
-3.2280153550094881
 31
0.0
1001
HATCH_DISTANCE
1040
1.0
1001
HATCH_DISPLAY
1070
     0
1001
HATCH_TYPE
1070
     7
  0
LINE
  5
1942
  8
247
 10
-69.478329239588788
 20
-3.2280153550094881
 30
0.0
 11
-70.027673111659098
 21
-5.1437932290024122
 31
0.0
1001
HATCH_DISTANCE
1040
1.0
1001
HATCH_DISPLAY
1070
     0
1001
HATCH_TYPE
1070
     7
  0
LINE
  5
1943
  8
247
 10
-70.027673111659098
 20
-5.1437932290024122
 30
0.0
 11
-69.485278092127857
 21
-5.1437932290024122
 31
0.0
1001
HATCH_DISTANCE
1040
1.0
1001
HATCH_DISPLAY
1070
     0
1001
HATCH_TYPE
1070
     7
  0
LINE
  5
1944
  8
247
 10
-69.485278092127857
 20
-5.1437932290024122
 30
0.0
 11
-68.859451065760666
 21
-2.9612673081344951
 31
0.0
1001
HATCH_DISTANCE
1040
1.0
1001
HATCH_DISPLAY
1070
     0
1001
HATCH_TYPE
1070
     7
  0
LINE
  5
1945
  8
247
 10
-68.859451065760666
 20
-2.9612673081344951
 30
0.0
 11
-69.490139542323163
 21
-2.9612673081344951
 31
0.0
1001
HATCH_DISTANCE
1040
1.0
1001
HATCH_DISPLAY
1070
     0
1001
HATCH_TYPE
1070
     7
  0
ARC
  5
1946
  8
247
 10
-66.936385880213791
 20
-4.3970979966110511
 30
0.0
 40
2.062463378906247
 50
155.2051773698407
 51
172.79482596205219
  0
LINE
  5
1947
  8
247
 10
-68.49575782845595
 20
-4.5522249497360541
 30
0.0
 11
-68.168932877284078
 21
-3.4124574936813712
 31
0.0
  0
LINE
  5
1948
  8
247
 10
-69.485278092127828
 20
-5.1437932290024122
 30
0.0
 11
-68.859451065760609
 21
-2.9612673081344951
 31
0.0
  0
LINE
  5
1949
  8
247
 10
-70.42952903314962
 20
-3.3797145283879351
 30
0.0
 11
-70.12714336631521
 21
-3.0773288615535082
 31
0.0
  0
ARC
  5
194A
  8
247
 10
-70.754427872401294
 20
-3.5432771958298002
 30
0.0
 40
0.3637471675872803
 50
261.66260168792928
 51
66.33815509518989
  0
LINE
  5
194B
  8
247
 10
-70.60844137194681
 20
-3.210110655473783
 30
0.0
 11
-70.807171397158797
 21
-3.903180130694095
 31
0.0
  0
LINE
  5
194C
  8
247
 10
-71.27249468476316
 20
-3.4144571291052301
 30
0.0
 11
-70.819304863792453
 21
-2.9612673081345799
 31
0.0
  0
LINE
  5
194D
  8
247
 10
-71.268688736658959
 20
-2.9612673081344951
 30
0.0
 11
-70.486379234911283
 21
-2.9612673081345799
 31
0.0
  0
LINE
  5
194E
  8
247
 10
-71.338223038417169
 20
-3.2037721909469901
 30
0.0
 11
-71.212081680995283
 21
-3.203772190947717
 31
0.0
  0
LINE
  5
194F
  8
247
 10
-71.331217430237032
 20
-3.2037721909470309
 30
0.0
 11
-71.088712547424549
 21
-2.9612673081345351
 31
0.0
  0
LINE
  5
1950
  8
247
 10
-71.268688736658959
 20
-2.9612673081344951
 30
0.0
 11
-71.338223038417169
 21
-3.2037721909469901
 31
0.0
  0
LINE
  5
1951
  8
247
 10
-70.556995662068218
 20
-3.2377734736745061
 30
0.0
 11
-70.306893678360751
 21
-2.98767148996704
 31
0.0
  0
LINE
  5
1952
  8
247
 10
-71.394820938807513
 20
-2.9612673081344951
 30
0.0
 11
-71.464355240565311
 21
-3.2037721909469901
 31
0.0
  0
LINE
  5
1953
  8
247
 10
-71.895623551112195
 20
-2.9612673081344951
 30
0.0
 11
-71.394820938807513
 21
-2.9612673081344951
 31
0.0
  0
LINE
  5
1954
  8
247
 10
-71.895623551112195
 20
-3.2037721909469901
 30
0.0
 11
-71.464355240565311
 21
-3.2037721909469901
 31
0.0
  0
LINE
  5
1955
  8
247
 10
-71.380803182104728
 20
-3.792173310078907
 30
0.0
 11
-70.549897180160414
 21
-2.9612673081345799
 31
0.0
  0
LINE
  5
1956
  8
247
 10
-70.846569315603759
 20
-5.1437932290024531
 30
0.0
 11
-70.16098634171658
 21
-4.4582102551152332
 31
0.0
  0
LINE
  5
1957
  8
247
 10
-70.531707585961939
 20
-5.0983391829927021
 30
0.0
 11
-70.201227457504046
 21
-4.7678590545348092
 31
0.0
  0
LINE
  5
1958
  8
247
 10
-71.385384682867922
 20
-5.1437932290024122
 30
0.0
 11
-71.073469357770591
 21
-4.8318779039051201
 31
0.0
  0
LINE
  5
1959
  8
247
 10
-71.65479236649999
 20
-5.1437932290024122
 30
0.0
 11
-70.965166441153059
 21
-4.4541673036555061
 31
0.0
  0
LINE
  5
195A
  8
247
 10
-71.768374405604391
 20
-5.1437932290024122
 30
0.0
 11
-70.762026749354391
 21
-5.1437932290024122
 31
0.0
  0
LINE
  5
195B
  8
247
 10
-71.115976999235883
 20
-5.1437932290024122
 30
0.0
 11
-70.226171447349685
 21
-4.253987677116271
 31
0.0
  0
ARC
  5
195C
  8
247
 10
-71.032574234705976
 20
-4.5132875718063721
 30
0.0
 40
0.3637575745582581
 50
261.6628542111489
 51
66.338192159110136
  0
LINE
  5
195D
  8
247
 10
-70.88658483991135
 20
-4.1801109374876111
 30
0.0
 11
-71.085318134483401
 21
-4.8732009698409513
 31
0.0
  0
LINE
  5
195E
  8
247
 10
-71.489111679446339
 20
-4.169889491052543
 30
0.0
 11
-70.640243891004118
 21
-3.321021702610337
 31
0.0
  0
LINE
  5
195F
  8
247
 10
-71.768374405604391
 20
-5.1437932290024122
 30
0.0
 11
-71.212081680995283
 21
-3.203772190947717
 31
0.0
  0
LINE
  5
1960
  8
247
 10
-71.70572867412946
 20
-4.925321852999887
 30
0.0
 11
-70.679665096991542
 21
-3.8992582758619081
 31
0.0
  0
LINE
  5
1961
  8
247
 10
-71.597420176787907
 20
-4.547605672026207
 30
0.0
 11
-70.748548813380012
 21
-3.6987343086183522
 31
0.0
  0
ARC
  5
1962
  8
247
 10
-70.762026749354419
 20
-4.5375398911423011
 30
0.0
 40
0.6062530517578129
 50
270.0
 51
40.329840654167668
  0
LINE
  5
1963
  8
247
 10
-70.771248404677266
 20
-4.2602492671797441
 30
0.0
 11
-69.90344983859751
 21
-3.3924507010999712
 31
0.0
  0
LINE
  5
1964
  8
247
 10
-70.398446792369199
 20
-3.6180399712395821
 30
0.0
 11
-69.99263828231642
 21
-3.212231461186787
 31
0.0
  0
ARC
  5
1965
  8
247
 10
-70.483880387049723
 20
-3.567520359892312
 30
0.0
 40
0.6062582015991211
 50
287.66957754739792
 51
90.236159842671569
  0
LINE
  5
1966
  8
247
 10
-70.67720612482249
 20
-4.435614670957019
 30
0.0
 11
-69.882022384077345
 21
-3.6404309302118749
 31
0.0
  0
LINE
  5
1967
  8
247
 10
-67.224365006190354
 20
-3.2349367417282462
 30
0.0
 11
-67.297396622401266
 21
-3.0033357895798041
 31
0.0
1001
HATCH_DISTANCE
1040
1.0
1001
HATCH_DISPLAY
1070
     0
1001
HATCH_TYPE
1070
     7
  0
LINE
  5
1968
  8
247
 10
-67.297396622401266
 20
-3.0033357895798041
 30
0.0
 11
-67.297396622401266
 21
-3.0033357895798041
 31
0.0
1001
HATCH_DISTANCE
1040
1.0
1001
HATCH_DISPLAY
1070
     0
1001
HATCH_TYPE
1070
     7
  0
LINE
  5
1969
  8
247
 10
-67.297396622401266
 20
-3.0033357895798041
 30
0.0
 11
-67.224365006190354
 21
-3.2349367417282462
 31
0.0
1001
HATCH_DISTANCE
1040
1.0
1001
HATCH_DISPLAY
1070
     0
1001
HATCH_TYPE
1070
     7
  0
LINE
  5
196A
  8
247
 10
-67.224365006190354
 20
-3.2349367417282462
 30
0.0
 11
-67.224365006190354
 21
-3.2349367417282462
 31
0.0
1001
HATCH_DISTANCE
1040
1.0
1001
HATCH_DISPLAY
1070
     0
1001
HATCH_TYPE
1070
     7
  0
LINE
  5
196B
  8
247
 10
-67.773306046229393
 20
-5.001547745603971
 30
0.0
 11
-67.631051407557521
 21
-5.1437932290024122
 31
0.0
  0
LINE
  5
196C
  8
247
 10
-68.006225357752825
 20
-4.6925936020798069
 30
0.0
 11
-67.850503311854396
 21
-4.1495302475876201
 31
0.0
  0
ARC
  5
196D
  8
247
 10
-66.972805557948163
 20
-4.2344087876266761
 30
0.0
 40
1.0306365966796871
 50
270.0
 51
104.1274364964119
  0
LINE
  5
196E
  8
247
 10
-67.631051407557521
 20
-5.1437932290024122
 30
0.0
 11
-67.276412735682513
 21
-3.907025364775119
 31
0.0
  0
ARC
  5
196F
  8
247
 10
-66.972805557948163
 20
-4.2344087876266761
 30
0.0
 40
1.0306394577026341
 50
110.8721834020772
 51
132.5419489373858
  0
LINE
  5
1970
  8
247
 10
-67.982787857752825
 20
-3.907025364775119
 30
0.0
 11
-67.276412735682513
 21
-3.907025364775119
 31
0.0
  0
LINE
  5
1971
  8
247
 10
-67.340005264979396
 20
-3.2714021958298041
 30
0.0
 11
-67.413036881190322
 21
-3.0398012436813642
 31
0.0
  0
ARC
  5
1972
  8
247
 10
-66.972805557948163
 20
-4.2344087876266761
 30
0.0
 40
1.2731420516967751
 50
110.22964506332011
 51
118.5716889237184
  0
LINE
  5
1973
  8
247
 10
-67.224365006190325
 20
-3.2349367417282462
 30
0.0
 11
-67.297396622401266
 21
-3.0033357895798041
 31
0.0
  0
LINE
  5
1974
  8
247
 10
-67.224365006190354
 20
-3.2349367417282462
 30
0.0
 11
-67.297396622401266
 21
-3.0033357895798041
 31
0.0
  0
LINE
  5
1975
  8
247
 10
-67.297396622401266
 20
-3.0033357895798041
 30
0.0
 11
-67.297396622401266
 21
-3.0033357895798041
 31
0.0
  0
LINE
  5
1976
  8
247
 10
-67.297396622401266
 20
-3.0033357895798041
 30
0.0
 11
-67.224365006190354
 21
-3.2349367417282462
 31
0.0
  0
LINE
  5
1977
  8
247
 10
-67.224365006190354
 20
-3.2349367417282462
 30
0.0
 11
-67.224365006190354
 21
-3.2349367417282462
 31
0.0
  0
LINE
  5
1978
  8
247
 10
-67.224365006190354
 20
-3.2349367417282462
 30
0.0
 11
-67.297396622401266
 21
-3.0033357895798041
 31
0.0
1001
HATCH_DISTANCE
1040
1.0
1001
HATCH_DISPLAY
1070
     0
1001
HATCH_TYPE
1070
     7
  0
LINE
  5
1979
  8
247
 10
-67.297396622401266
 20
-3.0033357895798041
 30
0.0
 11
-67.297396622401266
 21
-3.0033357895798041
 31
0.0
1001
HATCH_DISTANCE
1040
1.0
1001
HATCH_DISPLAY
1070
     0
1001
HATCH_TYPE
1070
     7
  0
LINE
  5
197A
  8
247
 10
-67.297396622401266
 20
-3.0033357895798041
 30
0.0
 11
-67.224365006190354
 21
-3.2349367417282462
 31
0.0
1001
HATCH_DISTANCE
1040
1.0
1001
HATCH_DISPLAY
1070
     0
1001
HATCH_TYPE
1070
     7
  0
LINE
  5
197B
  8
247
 10
-67.224365006190354
 20
-3.2349367417282462
 30
0.0
 11
-67.224365006190354
 21
-3.2349367417282462
 31
0.0
1001
HATCH_DISTANCE
1040
1.0
1001
HATCH_DISPLAY
1070
     0
1001
HATCH_TYPE
1070
     7
  0
LINE
  5
197C
  8
247
 10
-67.224365006190354
 20
-3.2349367417282462
 30
0.0
 11
-67.297396622401266
 21
-3.0033357895798041
 31
0.0
  0
LINE
  5
197D
  8
247
 10
-67.297396622401266
 20
-3.0033357895798041
 30
0.0
 11
-67.297396622401266
 21
-3.0033357895798041
 31
0.0
  0
LINE
  5
197E
  8
247
 10
-67.297396622401266
 20
-3.0033357895798041
 30
0.0
 11
-67.224365006190354
 21
-3.2349367417282462
 31
0.0
  0
LINE
  5
197F
  8
247
 10
-67.224365006190354
 20
-3.2349367417282462
 30
0.0
 11
-67.224365006190354
 21
-3.2349367417282462
 31
0.0
  0
LINE
  5
1980
  8
246
 10
-1.5000000000005651
 20
3.3000000000000682
 30
0.0
 11
-1.9000000000014541
 21
3.700000000000073
 31
0.0
  0
LINE
  5
1981
  8
246
 10
-3.300000000000578
 20
3.3000000000000682
 30
0.0
 11
-3.4426142687862562
 21
3.5470151594218162
 31
0.0
  0
LINE
  5
1982
  8
246
 10
-2.300000000000578
 20
3.700000000000101
 30
0.0
 11
-2.7000000000005842
 21
3.3000000000000682
 31
0.0
  0
LINE
  5
1983
  8
240
  6
CONTINUOUS
 10
0.0000000000000291
 20
-4.4257359312879858
 30
0.0
 11
0.0000000000000291
 21
4.4257359312880444
 31
0.0
1001
GRPNAME
1000
00000006
  0
LINE
  5
1984
  8
241
  6
CONTINUOUS
 10
-0.3010879858375397
 20
-4.907268424020458
 30
0.0
 11
-0.3010879858374828
 21
4.9072684240202431
 31
0.0
1001
GRPNAME
1000
00000006
  0
LINE
  5
1985
  8
243
  6
CONTINUOUS
 10
-11.299999999999979
 20
-6.0
 30
0.0
 11
-11.299999999999891
 21
5.9999999999999432
 31
0.0
1001
GRPNAME
1000
00000006
  0
LINE
  5
1986
  8
243
  6
CONTINUOUS
 10
-12.49999999999997
 20
-6.0999999999999934
 30
0.0
 11
-12.499999999999879
 21
6.099999999999949
 31
0.0
1001
GRPNAME
1000
00000006
  0
LINE
  5
1987
  8
243
  6
CONTINUOUS
 10
-14.49999999999997
 20
-5.2500000000000124
 30
0.0
 11
-14.49999999999997
 21
5.2500000000000124
 31
0.0
1001
GRPNAME
1000
00000006
  0
LINE
  5
1988
  8
241
 10
-15.613012701892099
 20
5.935211253790567
 30
0.0
 11
-15.613012701892099
 21
0.0
 31
0.0
  0
LINE
  5
1989
  8
241
 10
-15.18
 20
5.3234013676289571
 30
0.0
 11
-15.18
 21
0.0
 31
0.0
  0
LINE
  5
198A
  8
246
 10
-13.123999999996579
 20
2.7000036607190481
 30
0.0
 11
-3.4426142687862562
 21
3.5470151594218162
 31
0.0
  0
LINE
  5
198B
  8
240
  6
CONTINUOUS
 10
-11.97321731235732
 20
-5.949999999999986
 30
0.0
 11
-11.596187080847439
 21
-5.949999999999986
 31
0.0
1001
GRPNAME
1000
00000006
  0
LINE
  5
198C
  8
246
 10
-13.123999999999141
 20
-2.7000036607190481
 30
0.0
 11
-3.442614268786313
 21
-3.5470151594219881
 31
0.0
  0
LINE
  5
198D
  8
246
 10
-1.5000000000008209
 20
-2.000000000000369
 30
0.0
 11
-24.00000000000006
 21
-1.9999999999996581
 31
0.0
1001
GRPNAME
1000
00000005
  0
LINE
  5
198E
  8
246
 10
-1.500000000000794
 20
2.0000000000001821
 30
0.0
 11
-24.000000000000028
 21
1.9999999999997711
 31
0.0
1001
GRPNAME
1000
00000005
  0
LINE
  5
198F
  8
240
 10
-15.46867513459471
 20
-5.7499999999999627
 30
0.0
 11
-15.29547005383786
 21
-5.4500000000000171
 31
0.0
  0
LINE
  5
1990
  8
240
  6
CONTINUOUS
 10
-14.49999999999997
 20
-5.8000000000000371
 30
0.0
 11
-14.49999999999997
 21
-5.2500000000000124
 31
0.0
1001
GRPNAME
1000
00000006
  0
LINE
  5
1991
  8
241
 10
-15.613012701892099
 20
-5.9352112537905821
 30
0.0
 11
-15.613012701892099
 21
0.0
 31
0.0
  0
ARC
  5
1992
  8
240
 10
-15.901687836486939
 20
-5.499999999999984
 30
0.0
 40
0.5
 50
270.0
 51
330.00000000000267
  0
ARC
  5
1993
  8
240
  6
CONTINUOUS
 10
-11.97321731235732
 20
-6.949999999999986
 30
0.0
 40
1.0
 50
90.0
 51
121.7883306170524
1001
GRPNAME
1000
00000006
  0
ARC
  5
1994
  8
240
  6
CONTINUOUS
 10
-14.19999999999996
 20
-5.8000000000000371
 30
0.0
 40
0.2999999999999971
 50
180.0
 51
270.0
1001
GRPNAME
1000
00000006
  0
LINE
  5
1995
  8
240
  6
CONTINUOUS
 10
-14.19999999999996
 20
-6.0999999999999934
 30
0.0
 11
-12.49999999999997
 21
-6.0999999999999934
 31
0.0
1001
GRPNAME
1000
00000006
  0
LINE
  5
1996
  8
246
 10
-13.123999999999141
 20
-2.7000036607190481
 30
0.0
 11
-24.00000000000038
 21
-2.7000036607189171
 31
0.0
  0
LINE
  5
1997
  8
246
 10
-13.123999999996579
 20
2.7000036607190481
 30
0.0
 11
-24.000000000000341
 21
2.700003660719033
 31
0.0
  0
LINE
  5
1998
  8
246
 10
-21.900000000000681
 20
-2.7000000000004141
 30
0.0
 11
-19.000000000000441
 21
-2.700000000000029
 31
0.0
  0
LINE
  5
1999
  8
246
 10
-21.900000000000659
 20
2.700000000000498
 30
0.0
 11
-19.000000000000401
 21
2.700000000000073
 31
0.0
  0
LINE
  5
199A
  8
246
 10
-24.00000000000059
 20
-2.7000036607189171
 30
0.0
 11
-24.000000000000341
 21
2.700003660719033
 31
0.0
  0
LINE
  5
199B
  8
241
 10
-15.18
 20
-5.3234013676289438
 30
0.0
 11
-15.18
 21
0.0
 31
0.0
  0
LINE
  5
199C
  8
240
 10
-14.94905989232409
 20
-5.250000000000016
 30
0.0
 11
-14.49999999999997
 21
-5.250000000000016
 31
0.0
  0
ARC
  5
199D
  8
240
 10
-14.949059892324099
 20
-5.6500000000000332
 30
0.0
 40
0.4
 50
90.0
 51
150.00000000000159
1001
GENIUS_GENODEF_13
1002
{
1000
HIER
1070
     0
1002
}
1002
{
1000
MANEDIT
1070
     0
1002
}
1002
{
1000
NOSEL
1070
     0
1002
}
1002
{
1000
BEHIND
1070
     0
1002
}
1002
{
1000
OTHER
1070
     0
1002
}
1002
{
1000
REACTOR
1002
}
1001
GENIUS_GENOBJ-N-FIL_13
1002
{
1000
OWNER
1000
GEN
1002
}
  0
ARC
  5
199E
  8
240
  6
CONTINUOUS
 10
-1.499999999999998
 20
-4.8000000000000123
 30
0.0
 40
1.199999999999988
 50
270.0
 51
352.88399476228949
1001
GRPNAME
1000
00000006
  0
LINE
  5
199F
  8
240
  6
CONTINUOUS
 10
-11.299999999999979
 20
-6.0
 30
0.0
 11
-1.499999999999998
 21
-6.0
 31
0.0
1001
GRPNAME
1000
00000006
  0
ARC
  5
19A0
  8
240
  6
CONTINUOUS
 10
-11.612662546525341
 20
-6.9498642703040581
 30
0.0
 40
0.9999999999999994
 50
71.780238611082197
 51
90.944017359639076
1001
GRPNAME
1000
00000006
  0
LINE
  5
19A1
  8
246
 10
-2.7000000000005842
 20
3.3000000000000682
 30
0.0
 11
-3.300000000000578
 21
3.3000000000000682
 31
0.0
  0
LINE
  5
19A2
  8
246
 10
-2.700000000000641
 20
-3.3000000000002361
 30
0.0
 11
-3.3000000000006322
 21
-3.3000000000002361
 31
0.0
  0
LINE
  5
19A3
  8
246
 10
-3.3000000000006322
 20
-3.3000000000002361
 30
0.0
 11
-3.442614268786313
 21
-3.5470151594219881
 31
0.0
  0
LINE
  5
19A4
  8
246
 10
-1.5000000000006231
 20
-3.300000000000705
 30
0.0
 11
-1.500000000000109
 21
3.3000000000005221
 31
0.0
  0
LINE
  5
19A5
  8
246
 10
-1.9000000000006301
 20
-3.7000000000002871
 30
0.0
 11
-2.3000000000006322
 21
-3.7000000000002871
 31
0.0
  0
LINE
  5
19A6
  8
246
 10
-1.5000000000006231
 20
-3.3000000000002521
 30
0.0
 11
-1.90000000000151
 21
-3.700000000000256
 31
0.0
  0
ARC
  5
19A7
  8
240
  6
CONTINUOUS
 10
-0.2999999999999538
 20
-4.4257359312879858
 30
0.0
 40
0.3000000000000145
 50
314.9999999999954
 51
0.0
1001
GRPNAME
1000
00000006
  0
LINE
  5
19A8
  8
240
  6
CONTINUOUS
 10
-0.2236859766172181
 20
-4.7736859766171991
 30
0.0
 11
-0.0878679656439935
 21
-4.6378679656439763
 31
0.0
1001
GRPNAME
1000
00000006
  0
ARC
  5
19A9
  8
240
  6
CONTINUOUS
 10
-0.0115539422612578
 20
-4.985818010973162
 30
0.0
 40
0.3000000000000043
 50
134.99999999999761
 51
172.8839947622879
1001
GRPNAME
1000
00000006
  0
LINE
  5
19AA
  8
246
 10
-2.3000000000006322
 20
-3.7000000000002871
 30
0.0
 11
-2.700000000000641
 21
-3.3000000000002361
 31
0.0
  0
LINE
  5
19AB
  8
240
  6
CONTINUOUS
 10
-11.97321731235732
 20
5.949999999999986
 30
0.0
 11
-11.596187080847439
 21
5.949999999999986
 31
0.0
1001
GRPNAME
1000
00000006
  0
ARC
  5
19AC
  8
240
 10
-15.90168783648696
 20
5.5000000000000284
 30
0.0
 40
0.5
 50
29.999999999995229
 51
90.0
  0
LINE
  5
19AD
  8
240
 10
-15.46867513459472
 20
5.749999999999992
 30
0.0
 11
-15.29547005383786
 21
5.4500000000000011
 31
0.0
  0
ARC
  5
19AE
  8
240
  6
CONTINUOUS
 10
-11.97321731235732
 20
6.949999999999986
 30
0.0
 40
1.0000000000000011
 50
238.21166938294749
 51
270.0
1001
GRPNAME
1000
00000006
  0
LINE
  5
19AF
  8
240
  6
CONTINUOUS
 10
-14.49999999999997
 20
5.2500000000000124
 30
0.0
 11
-14.49999999999997
 21
5.8000000000000371
 31
0.0
1001
GRPNAME
1000
00000006
  0
ARC
  5
19B0
  8
240
  6
CONTINUOUS
 10
-14.19999999999996
 20
5.8000000000000371
 30
0.0
 40
0.2999999999999971
 50
90.0
 51
180.0
1001
GRPNAME
1000
00000006
  0
ARC
  5
19B1
  8
240
 10
-14.949059892324099
 20
5.6500000000000483
 30
0.0
 40
0.4
 50
209.99999999999829
 51
270.0
1001
GENIUS_GENODEF_13
1002
{
1000
HIER
1070
     0
1002
}
1002
{
1000
MANEDIT
1070
     0
1002
}
1002
{
1000
NOSEL
1070
     0
1002
}
1002
{
1000
BEHIND
1070
     0
1002
}
1002
{
1000
OTHER
1070
     0
1002
}
1002
{
1000
REACTOR
1002
}
1001
GENIUS_GENOBJ-N-FIL_13
1002
{
1000
OWNER
1000
GEN
1002
}
  0
LINE
  5
19B2
  8
240
 10
-14.949059892324099
 20
5.2500000000000124
 30
0.0
 11
-14.49999999999997
 21
5.2500000000000124
 31
0.0
  0
LINE
  5
19B3
  8
240
  6
CONTINUOUS
 10
-14.19999999999996
 20
6.0999999999999934
 30
0.0
 11
-12.499999999999851
 21
6.0999999999999934
 31
0.0
1001
GRPNAME
1000
00000006
  0
LINE
  5
19B4
  8
240
  6
CONTINUOUS
 10
-11.299999999999949
 20
6.0
 30
0.0
 11
-1.499999999999998
 21
6.0
 31
0.0
1001
GRPNAME
1000
00000006
  0
ARC
  5
19B5
  8
240
  6
CONTINUOUS
 10
-11.612662546525341
 20
6.9498642703040581
 30
0.0
 40
1.0
 50
269.05598264036081
 51
288.21976138891768
1001
GRPNAME
1000
00000006
  0
ARC
  5
19B6
  8
240
  6
CONTINUOUS
 10
-1.499999999999998
 20
4.8000000000000123
 30
0.0
 40
1.2000000000000091
 50
7.116005237712085
 51
90.0
1001
GRPNAME
1000
00000006
  0
LINE
  5
19B7
  8
246
 10
-1.900000000000573
 20
3.700000000000101
 30
0.0
 11
-2.300000000000578
 21
3.700000000000101
 31
0.0
  0
ARC
  5
19B8
  8
240
  6
CONTINUOUS
 10
-0.2999999999999538
 20
4.4257359312880444
 30
0.0
 40
0.2999999999999829
 50
0.0
 51
45.0
1001
GRPNAME
1000
00000006
  0
ARC
  5
19B9
  8
240
  6
CONTINUOUS
 10
-0.0115539422612578
 20
4.985818010973162
 30
0.0
 40
0.3000000000000005
 50
187.11600523770721
 51
225.0
1001
GRPNAME
1000
00000006
  0
LINE
  5
19BA
  8
240
  6
CONTINUOUS
 10
-0.0878679656439935
 20
4.6378679656439763
 30
0.0
 11
-0.2236859766172181
 21
4.7736859766172302
 31
0.0
1001
GRPNAME
1000
00000006
  0
ENDBLK
  5
19BE
  8
0
  0
ENDSEC
  0
SECTION
  2
ENTITIES
  0
TEXT
  5
13BD
  8
241
 10
-129.0
 20
34.999999999999979
 30
0.0
 40
5.0
  1
ST12-MEGA4S-130
  7
YOKO
 11
-129.0
 21
34.999999999999979
 31
0.0
 73
     1
  0
LINE
  5
182B
  8
250
 10
-130.0
 20
6.0000000000315019
 30
0.0
 11
-130.0
 21
21.999999999999972
 31
0.0
  0
LINE
  5
182C
  8
250
 10
0.0000000000000285
 20
4.925735999999957
 30
0.0
 11
0.0000000000000295
 21
21.999999999999972
 31
0.0
  0
LINE
  5
182D
  8
250
 10
-127.77
 20
20.999999999999972
 30
0.0
 11
-2.229999999999968
 21
20.999999999999972
 31
0.0
  0
LINE
  5
1831
  8
250
 10
-130.09999999999911
 20
-6.0000000000315721
 30
0.0
 11
-143.95833325024739
 21
-6.0000000000315721
 31
0.0
  0
LINE
  5
1832
  8
250
 10
-130.09999999999971
 20
6.0000000000315028
 30
0.0
 11
-143.95833325024739
 21
6.0000000000315081
 31
0.0
  0
LINE
  5
1833
  8
250
 10
-142.95833325024739
 20
-3.7700000000315721
 30
0.0
 11
-142.95833325024739
 21
3.7700000000315081
 31
0.0
  0
LINE
  5
1899
  8
250
 10
-1.30000000000001
 20
-2.0000000000000142
 30
0.0
 11
7.9999999999999902
 21
-2.0000000000000151
 31
0.0
  0
LINE
  5
189A
  8
250
 10
-1.30000000000001
 20
1.999999999999984
 30
0.0
 11
7.999999999999992
 21
1.99999999999998
 31
0.0
  0
LINE
  5
189B
  8
250
 10
6.999999999999992
 20
-4.2300000000000164
 30
0.0
 11
6.9999999999999902
 21
-6.460000000000016
 31
0.0
  0
LINE
  5
189C
  8
250
 10
6.999999999999992
 20
4.2299999999999791
 30
0.0
 11
6.9999999999999956
 21
30.273764321333889
 31
0.0
  0
LINE
  5
189D
  8
250
 10
6.999999999999992
 20
-2.0000000000000151
 30
0.0
 11
6.999999999999992
 21
1.99999999999998
 31
0.0
  0
LINE
  5
18A1
  8
250
 10
-1.0
 20
-6.0000000000000124
 30
0.0
 11
14.999999999999989
 21
-6.000000000000016
 31
0.0
  0
LINE
  5
18A2
  8
250
 10
-1.0
 20
6.0
 30
0.0
 11
15.0
 21
5.9999999999999929
 31
0.0
  0
LINE
  5
18A3
  8
250
 10
13.999999999999989
 20
-3.770000000000016
 30
0.0
 11
13.999999999999989
 21
3.769999999999996
 31
0.0
  0
TEXT
  5
18AD
  8
250
 10
-69.499999999999986
 20
21.999999999999972
 30
0.0
 40
3.0
  1
130
1001
ACAD
1000
MTEXTBEGIN
1070
    73
1070
     1
1070
    44
1040
1.0
1070
    74
1070
     0
1000
MTEXTEND
  0
TEXT
  5
18AE
  8
250
 10
-143.95833325024731
 20
-4.0714285714286254
 30
0.0
 40
3.0
  1
\U+2205
 50
90.0
1001
ACAD
1000
MTEXTBEGIN
1070
    73
1070
     1
1070
    44
1040
1.0
1070
    74
1070
     0
1000
MTEXTEND
  0
TEXT
  5
18AF
  8
250
 10
-143.95833325024731
 20
-1.3571428571429101
 30
0.0
 40
3.0
  1
12
 50
90.0
1001
ACAD
1000
MTEXTBEGIN
1070
    73
1070
     1
1070
    44
1040
1.0
1070
    74
1070
     0
1000
MTEXTEND
  0
LINE
  5
18B0
  8
250
 10
-142.58666658358069
 20
-3.7700000000315721
 30
0.0
 11
-142.95833325024739
 21
-6.0000000000315721
 31
0.0
  0
LINE
  5
18B1
  8
250
 10
-143.32999991691401
 20
-3.7700000000315721
 30
0.0
 11
-142.95833325024739
 21
-6.0000000000315721
 31
0.0
  0
LINE
  5
18B2
  8
250
 10
-142.95833325024739
 20
-6.0000000000315721
 30
0.0
 11
-142.95833325024739
 21
-3.7700000000315721
 31
0.0
  0
LINE
  5
18B3
  8
250
 10
-143.32999991691401
 20
3.7700000000315081
 30
0.0
 11
-142.95833325024739
 21
6.0000000000315081
 31
0.0
  0
LINE
  5
18B4
  8
250
 10
-142.58666658358069
 20
3.7700000000315081
 30
0.0
 11
-142.95833325024739
 21
6.0000000000315081
 31
0.0
  0
LINE
  5
18B5
  8
250
 10
-142.95833325024739
 20
6.0000000000315081
 30
0.0
 11
-142.95833325024739
 21
3.7700000000315081
 31
0.0
  0
LINE
  5
18B6
  8
250
 10
-127.77
 20
20.628333333333309
 30
0.0
 11
-130.0
 21
20.999999999999972
 31
0.0
  0
LINE
  5
18B7
  8
250
 10
-127.77
 20
21.371666666666648
 30
0.0
 11
-130.0
 21
20.999999999999972
 31
0.0
  0
LINE
  5
18B8
  8
250
 10
-130.0
 20
20.999999999999972
 30
0.0
 11
-127.77
 21
20.999999999999972
 31
0.0
  0
TEXT
  5
18B9
  8
250
 10
5.9999999999999911
 20
6.8885714285714084
 30
0.0
 40
3.0
  1
MAX.\U+22054.05
 50
90.0
1001
ACAD
1000
MTEXTBEGIN
1070
    73
1070
     1
1070
    44
1040
1.0
1070
    74
1070
     0
1000
MTEXTEND
  0
LINE
  5
18C1
  8
250
 10
-2.229999999999968
 20
21.371666666666648
 30
0.0
 11
0.0000000000000294
 21
20.999999999999972
 31
0.0
  0
LINE
  5
18C2
  8
250
 10
-2.229999999999968
 20
20.628333333333309
 30
0.0
 11
0.0000000000000294
 21
20.999999999999972
 31
0.0
  0
LINE
  5
18C3
  8
250
 10
0.0000000000000294
 20
20.999999999999972
 30
0.0
 11
-2.229999999999968
 21
20.999999999999972
 31
0.0
  0
TEXT
  5
18C4
  8
250
 10
12.999999999999989
 20
-4.0714285714285801
 30
0.0
 40
3.0
  1
\U+2205
 50
90.0
1001
ACAD
1000
MTEXTBEGIN
1070
    73
1070
     1
1070
    44
1040
1.0
1070
    74
1070
     0
1000
MTEXTEND
  0
TEXT
  5
18C5
  8
250
 10
12.999999999999989
 20
-1.3571428571428661
 30
0.0
 40
3.0
  1
12
 50
90.0
1001
ACAD
1000
MTEXTBEGIN
1070
    73
1070
     1
1070
    44
1040
1.0
1070
    74
1070
     0
1000
MTEXTEND
  0
LINE
  5
18C6
  8
250
 10
7.371666666666659
 20
4.2299999999999791
 30
0.0
 11
6.999999999999992
 21
1.99999999999998
 31
0.0
  0
LINE
  5
18C7
  8
250
 10
6.6283333333333241
 20
4.2299999999999791
 30
0.0
 11
6.999999999999992
 21
1.99999999999998
 31
0.0
  0
LINE
  5
18C8
  8
250
 10
6.999999999999992
 20
1.99999999999998
 30
0.0
 11
6.999999999999992
 21
4.2299999999999791
 31
0.0
  0
LINE
  5
18C9
  8
250
 10
14.371666666666661
 20
-3.770000000000016
 30
0.0
 11
13.999999999999989
 21
-6.000000000000016
 31
0.0
  0
LINE
  5
18CA
  8
250
 10
13.62833333333332
 20
-3.770000000000016
 30
0.0
 11
13.999999999999989
 21
-6.000000000000016
 31
0.0
  0
LINE
  5
18CB
  8
250
 10
13.999999999999989
 20
-6.000000000000016
 30
0.0
 11
13.999999999999989
 21
-3.770000000000016
 31
0.0
  0
LINE
  5
18CC
  8
250
 10
6.6283333333333241
 20
-4.230000000000012
 30
0.0
 11
6.999999999999992
 21
-2.0000000000000151
 31
0.0
  0
LINE
  5
18CD
  8
250
 10
7.3716666666666573
 20
-4.230000000000012
 30
0.0
 11
6.999999999999992
 21
-2.0000000000000151
 31
0.0
  0
LINE
  5
18CE
  8
250
 10
6.999999999999992
 20
-2.0000000000000151
 30
0.0
 11
6.999999999999992
 21
-4.230000000000012
 31
0.0
  0
LINE
  5
18CF
  8
250
 10
13.62833333333332
 20
3.769999999999996
 30
0.0
 11
13.999999999999989
 21
5.9999999999999938
 31
0.0
  0
LINE
  5
18D0
  8
250
 10
14.371666666666661
 20
3.769999999999996
 30
0.0
 11
13.999999999999989
 21
5.9999999999999938
 31
0.0
  0
LINE
  5
18D1
  8
250
 10
13.999999999999989
 20
5.9999999999999938
 30
0.0
 11
13.999999999999989
 21
3.769999999999996
 31
0.0
  0
INSERT
  5
19C0
  8
240
  2
A$C1B662C1B
 10
0.0
 20
0.0
 30
0.0
  0
VIEWPORT
  5
22
 67
     1
  8
0
 10
261.51769911504419
 20
148.5
 30
0.0
 40
523.0353982300885
 41
297.0
 68
     1
 69
     1
1001
ACAD
1000
MVIEW
1002
{
1070
    16
1010
0.0
1020
0.0
1030
0.0
1010
0.0
1020
0.0
1030
1.0
1040
0.0
1040
297.0
1040
261.51769911504419
1040
148.5
1040
50.0
1040
0.0
1040
0.0
1070
     0
1070
   100
1070
     1
1070
     1
1070
     0
1070
     0
1070
     0
1070
     0
1040
0.0
1040
0.0
1040
0.0
1040
1.0
1040
1.0
1040
10.0
1040
10.0
1070
     0
1002
{
1002
}
1002
}
1001
GENIUS_GENOBJ-N-SDF_13
1002
{
1000
OWNER
1000
GEN
1002
}
1001
GENIUS_GENODEF_13
1002
{
1000
HIER
1070
     0
1002
}
1002
{
1000
MANEDIT
1070
     0
1002
}
1002
{
1000
NOSEL
1070
     0
1002
}
1002
{
1000
BEHIND
1070
     0
1002
}
1002
{
1000
OTHER
1070
     0
1002
}
1002
{
1000
REACTOR
1002
}
1001
GENIUS_GENSCREG_15
1000
PF
1040
1.0
1000
DF
1040
1.0
1000
MIN
1011
0.0
1021
1.8518721170611424E+020
1031
0.0
1021
0.0
1031
0.0
1000
MAX
1011
523.0353982300885
1021
1.8518721170611424E+020
1031
0.0
1021
297.0
1031
0.0
1000
FLAGS
1070
     2
  0
ENDSEC
  0
EOF
