  0
SECTION
  2
HEADER
  9
$ACADVER
  1
AC1009
  9
$INSBASE
 10
0.0
 20
0.0
 30
0.0
  9
$EXTMIN
 10
-141.07496811780391
 20
-30.84679614914489
 30
0.0
  9
$EXTMAX
 10
20.825034691903969
 20
24.03365097362828
 30
0.0
  9
$LIMMIN
 10
0.0
 20
0.0
  9
$LIMMAX
 10
297.0
 20
210.0
  9
$ORTHOMODE
 70
     1
  9
$REGENMODE
 70
     1
  9
$FILLMODE
 70
     1
  9
$QTEXTMODE
 70
     0
  9
$MIRRTEXT
 70
     1
  9
$DRAGMODE
 70
     2
  9
$LTSCALE
 40
10.0
  9
$OSMODE
 70
    39
  9
$ATTMODE
 70
     1
  9
$TEXTSIZE
 40
3.0
  9
$TRACEWID
 40
1.0
  9
$TEXTSTYLE
  7
YOKO
  9
$CLAYER
  8
240
  9
$CELTYPE
  6
BYLAYER
  9
$CECOLOR
 62
   256
  9
$DIMSCALE
 40
1.0
  9
$DIMASZ
 40
2.2299999999999991
  9
$DIMEXO
 40
0.5
  9
$DIMDLI
 40
7.0
  9
$DIMRND
 40
0.0
  9
$DIMDLE
 40
0.0
  9
$DIMEXE
 40
1.0
  9
$DIMTP
 40
0.0
  9
$DIMTM
 40
0.01
  9
$DIMTXT
 40
2.799999999999998
  9
$DIMCEN
 40
0.0
  9
$DIMTSZ
 40
0.0
  9
$DIMTOL
 70
     0
  9
$DIMLIM
 70
     0
  9
$DIMTIH
 70
     0
  9
$DIMTOH
 70
     0
  9
$DIMSE1
 70
     0
  9
$DIMSE2
 70
     0
  9
$DIMTAD
 70
     3
  9
$DIMZIN
 70
     9
  9
$DIMBLK
  1
OPEN
  9
$DIMASO
 70
     1
  9
$DIMSHO
 70
     1
  9
$DIMPOST
  1

  9
$DIMAPOST
  1

  9
$DIMALT
 70
     0
  9
$DIMALTD
 70
     2
  9
$DIMALTF
 40
25.399999999999999
  9
$DIMLFAC
 40
1.0
  9
$DIMTOFL
 70
     1
  9
$DIMTVP
 40
0.0
  9
$DIMTIX
 70
     1
  9
$DIMSOXD
 70
     0
  9
$DIMSAH
 70
     0
  9
$DIMBLK1
  1

  9
$DIMBLK2
  1

  9
$DIMSTYLE
  2
BIGT
  9
$DIMCLRD
 70
   256
  9
$DIMCLRE
 70
   256
  9
$DIMCLRT
 70
    40
  9
$DIMTFAC
 40
1.0
  9
$DIMGAP
 40
1.0
  9
$LUNITS
 70
     2
  9
$LUPREC
 70
     3
  9
$SKETCHINC
 40
1.0
  9
$FILLETRAD
 40
0.2
  9
$AUNITS
 70
     0
  9
$AUPREC
 70
     3
  9
$MENU
  1
.
  9
$ELEVATION
 40
0.0
  9
$PELEVATION
 40
0.0
  9
$THICKNESS
 40
0.0
  9
$LIMCHECK
 70
     0
  9
$BLIPMODE
 70
     0
  9
$CHAMFERA
 40
0.25
  9
$CHAMFERB
 40
0.25
  9
$SKPOLY
 70
     0
  9
$TDCREATE
 40
2454678.6709908452
  9
$TDUPDATE
 40
2456365.6545819682
  9
$TDINDWG
 40
0.0211215856
  9
$TDUSRTIMER
 40
0.0211215856
  9
$USRTIMER
 70
     1
  9
$ANGBASE
 50
0.0
  9
$ANGDIR
 70
     0
  9
$PDMODE
 70
     1
  9
$PDSIZE
 40
0.0
  9
$PLINEWID
 40
0.0
  9
$COORDS
 70
     0
  9
$SPLFRAME
 70
     0
  9
$SPLINETYPE
 70
     6
  9
$SPLINESEGS
 70
     4
  9
$ATTDIA
 70
     1
  9
$ATTREQ
 70
     1
  9
$HANDLING
 70
     1
  9
$HANDSEED
  5
19FB
  9
$SURFTAB1
 70
     6
  9
$SURFTAB2
 70
     6
  9
$SURFTYPE
 70
     6
  9
$SURFU
 70
     6
  9
$SURFV
 70
     6
  9
$UCSNAME
  2

  9
$UCSORG
 10
0.0
 20
0.0
 30
0.0
  9
$UCSXDIR
 10
1.0
 20
0.0
 30
0.0
  9
$UCSYDIR
 10
0.0
 20
1.0
 30
0.0
  9
$PUCSNAME
  2

  9
$PUCSORG
 10
0.0
 20
0.0
 30
0.0
  9
$PUCSXDIR
 10
1.0
 20
0.0
 30
0.0
  9
$PUCSYDIR
 10
0.0
 20
1.0
 30
0.0
  9
$USERI1
 70
     1
  9
$USERI2
 70
     0
  9
$USERI3
 70
     0
  9
$USERI4
 70
     0
  9
$USERI5
 70
     0
  9
$USERR1
 40
0.0
  9
$USERR2
 40
0.0
  9
$USERR3
 40
0.0
  9
$USERR4
 40
0.0
  9
$USERR5
 40
0.0
  9
$WORLDVIEW
 70
     1
  9
$SHADEDGE
 70
     3
  9
$SHADEDIF
 70
    70
  9
$TILEMODE
 70
     1
  9
$MAXACTVP
 70
    16
  9
$PLIMCHECK
 70
     0
  9
$PEXTMIN
 10
1.0000000000000000E+020
 20
1.0000000000000000E+020
 30
1.0000000000000000E+020
  9
$PEXTMAX
 10
-1.0000000000000000E+020
 20
-1.0000000000000000E+020
 30
-1.0000000000000000E+020
  9
$PLIMMIN
 10
0.0
 20
0.0
  9
$PLIMMAX
 10
420.0
 20
297.0
  9
$UNITMODE
 70
     0
  9
$VISRETAIN
 70
     1
  9
$PLINEGEN
 70
     0
  9
$PSLTSCALE
 70
     1
  0
ENDSEC
  0
SECTION
  2
TABLES
  0
TABLE
  2
VPORT
 70
     3
  0
VPORT
  2
*ACTIVE
 70
     0
 10
0.0
 20
0.0
 11
1.0
 21
1.0
 12
-60.124190835543189
 22
-2.0313119329505152
 13
0.0
 23
0.0
 14
7.0
 24
7.0
 15
7.0
 25
7.0
 16
0.0
 26
0.0
 36
1.0
 17
0.0
 27
0.0
 37
0.0
 40
112.2169507629082
 41
1.4501133786848071
 42
50.0
 43
0.0
 44
0.0
 50
0.0
 51
0.0
 71
     0
 72
  2000
 73
     1
 74
     0
 75
     0
 76
     1
 77
     0
 78
     0
  0
ENDTAB
  0
TABLE
  2
LTYPE
 70
    21
  0
LTYPE
  2
CONTINUOUS
 70
     0
  3
Solid line
 72
    65
 73
     0
 40
0.0
  0
LTYPE
  2
CENTER2
 70
     0
  3
___ _ ___ _ ___ _ ___ _ ___ _ ___ _ ___ _ ___ _
 72
    65
 73
     4
 40
1.125
 49
0.75
 49
-0.125
 49
0.125
 49
-0.125
  0
LTYPE
  2
HIDDEN2
 70
     0
  3
_ _ _ _ _ _ _ _ _ _ _ _ _ _ _ _ _ _ _ _ _ _ _ _
 72
    65
 73
     2
 40
0.1875
 49
0.125
 49
-0.0625
  0
LTYPE
  2
PHANTOM2
 70
     0
  3
___ _ _ ___ _ _ ___ _ _ ___ _ _ ___ _ _ ___ _ _
 72
    65
 73
     6
 40
1.25
 49
0.625
 49
-0.125
 49
0.125
 49
-0.125
 49
0.125
 49
-0.125
  0
LTYPE
  2
CENTER
 70
     0
  3
____ _ ____ _ ____ _ ____ _ ____ _ ____ _ ____ 
 72
    65
 73
     4
 40
2.0
 49
1.25
 49
-0.25
 49
0.25
 49
-0.25
  0
LTYPE
  2
AM_ISO02W050
 70
     0
  3
__ __ __ __ __ __ __ __ __ __ __ __ __ __ __
 72
    65
 73
     2
 40
7.5
 49
6.0
 49
-1.5
  0
LTYPE
  2
AMCONSTR
 70
     0
  3
_______________________
 72
    65
 73
     2
 40
9999.0
 49
9999.0
 49
0.0
  0
LTYPE
  2
ACISOWELD
 70
     0
  3
_ _ _ _ _
 72
    65
 73
     2
 40
2.0
 49
2.0
 49
-1.0
  0
LTYPE
  2
ACISOTGB
 70
     0
  3
__ . . __ . .
 72
    65
 73
     6
 40
9.0
 49
4.0
 49
-1.0
 49
1.0
 49
-1.0
 49
1.0
 49
-1.0
  0
LTYPE
  2
ACISOTGL
 70
     0
  3
_ _ _ _ _
 72
    65
 73
     2
 40
3.0
 49
2.0
 49
-1.0
  0
LTYPE
  2
ACJISTGB
 70
     0
  3
__ . . __ . .
 72
    65
 73
     6
 40
9.0
 49
4.0
 49
-1.0
 49
1.0
 49
-1.0
 49
1.0
 49
-1.0
  0
LTYPE
  2
ACJISTGL
 70
     0
  3
_ _ _ _ _
 72
    65
 73
     2
 40
3.0
 49
2.0
 49
-1.0
  0
LTYPE
  2
HIDDEN
 70
     0
  3
Hidden __ __ __ __ __ __ __ __ __ __ __ __ __ _
 72
    65
 73
     2
 40
9.5249999999999986
 49
6.3499999999999979
 49
-3.174999999999998
  0
LTYPE
  2
AM_ISO08W050
 70
     0
  3
____ . ____ . ____ . ____ . ____ . ____ . ____
 72
    65
 73
     4
 40
18.0
 49
12.0
 49
-1.5
 49
3.0
 49
-1.5
  0
LTYPE
  2
AM_ISO09W050
 70
     0
  3
_____ . . _____ . . _____ . . ____ .. ____
 72
    65
 73
     6
 40
22.5
 49
12.0
 49
-1.5
 49
3.0
 49
-1.5
 49
3.0
 49
-1.5
  0
LTYPE
  2
AM_ISO08W050X2
 70
     0
  3
__ . __ . __ . __ . __ . __
 72
    65
 73
     4
 40
9.0
 49
6.0
 49
-0.75
 49
1.5
 49
-0.75
  0
LTYPE
  2
AM_ISO02W050X2
 70
     0
  3
 _ _ _ _ _ _ _ _ _ _ _ _
 72
    65
 73
     2
 40
3.75
 49
3.0
 49
-0.75
  0
LTYPE
  2
AMZIGZAG
 70
     0
  3
/\/-/\/-/\/-/\/-/\/-/\/
 72
    65
 73
     2
 40
11.0001
 49
0.0001
 49
-11.0
  0
LTYPE
  2
AMZIGZAG2
 70
     0
  3
/\/-/\/-/\/-/\/-/\/-/\/
 72
    65
 73
     2
 40
0.4401
 49
0.0001
 49
-0.4400000000000001
  0
LTYPE
  2
ACANSTGB
 70
     0
  3
__ . . __ . .
 72
    65
 73
     6
 40
0.35433070866
 49
0.15748031496
 49
-0.03937007874
 49
0.03937007874
 49
-0.03937007874
 49
0.03937007874
 49
-0.03937007874
  0
LTYPE
  2
ACANSTGL
 70
     0
  3
_ _ _ _ _
 72
    65
 73
     2
 40
0.11811023622
 49
0.07874015748
 49
-0.03937007874
  0
ENDTAB
  0
TABLE
  2
LAYER
 70
     9
  0
LAYER
  2
0
 70
     0
 62
     7
  6
CONTINUOUS
  0
LAYER
  2
240
 70
     0
 62
     4
  6
CONTINUOUS
  0
LAYER
  2
DEFPOINTS
 70
     0
 62
     7
  6
CONTINUOUS
  0
LAYER
  2
245
 70
     0
 62
     2
  6
CENTER2
  0
LAYER
  2
241
 70
     0
 62
   211
  6
CONTINUOUS
  0
LAYER
  2
246
 70
     0
 62
     3
  6
PHANTOM2
  0
LAYER
  2
247
 70
     0
 62
    60
  6
CONTINUOUS
  0
LAYER
  2
250
 70
     0
 62
     3
  6
CONTINUOUS
  0
LAYER
  2
251
 70
     0
 62
    40
  6
CONTINUOUS
  0
ENDTAB
  0
TABLE
  2
STYLE
 70
     9
  0
STYLE
  2
STANDARD
 70
     0
 40
0.0
 41
1.0
 50
0.0
 71
     0
 42
3.0
  3
romans.shx
  4
extfont.shx
  0
STYLE
  2
YOKO
 70
     0
 40
0.0
 41
1.0
 50
0.0
 71
     0
 42
3.0
  3
romans.shx
  4
extfont.shx
  0
STYLE
  2
ACISOTS
 70
     0
 40
1.0
 41
1.0
 50
0.0
 71
     0
 42
3.0
  3
amgdt.shx
  4
extfont.shx
  0
STYLE
  2
ACISOGDT
 70
     0
 40
0.0
 41
1.0
 50
0.0
 71
     0
 42
3.0
  3
amgdt.shx
  4
extfont.shx
  0
STYLE
  2
ACJISTS
 70
     0
 40
1.0
 41
1.0
 50
0.0
 71
     0
 42
3.0
  3
amgdt.shx
  4
extfont.shx
  0
STYLE
  2
ACJISGDT
 70
     0
 40
0.0
 41
1.0
 50
0.0
 71
     0
 42
3.0
  3
amgdt.shx
  4
extfont.shx
  0
STYLE
  2

 70
     1
 40
0.0
 41
1.0
 50
0.0
 71
     0
 42
3.0
  3
ltypeshp.shx
  4

  0
STYLE
  2
ACANSTS
 70
     0
 40
1.0
 41
1.0
 50
0.0
 71
     0
 42
3.0
  3
romans.shx
  4
extfont.shx
  0
STYLE
  2
ACANSGDT
 70
     0
 40
0.0
 41
1.0
 50
0.0
 71
     0
 42
3.0
  3
amgdtans.shx
  4

  0
ENDTAB
  0
TABLE
  2
VIEW
 70
     0
  0
ENDTAB
  0
TABLE
  2
UCS
 70
     0
  0
ENDTAB
  0
TABLE
  2
APPID
 70
    31
  0
APPID
  2
ACAD
 70
     0
  0
APPID
  2
GLOBAL
 70
     0
  0
APPID
  2
DETAIL
 70
     0
  0
APPID
  2
GRPNAME
 70
     0
  0
APPID
  2
GPARA
 70
     0
  0
APPID
  2
MCAD_NO_VIS
 70
     0
  0
APPID
  2
ACAD_TEMP_GRAPHIC
 70
     0
  0
APPID
  2
ACATTRIBSERVICES
 70
     0
  0
APPID
  2
GENIUS_GENSCREG_15
 70
     0
  0
APPID
  2
GENIUS_GENODEF_13
 70
     0
  0
APPID
  2
GENIUS_GENOBJ-N-SDF_13
 70
     0
  0
APPID
  2
GENIUS_GENREC_14
 70
     0
  0
APPID
  2
GENIUS_GENOBJ-N-REC_13
 70
     0
  0
APPID
  2
GENIUS_GENDIMSH_14
 70
     0
  0
APPID
  2
GENIUS_GENOBJ-N-DIM_13
 70
     0
  0
APPID
  2
GENIUS_GENDIM_13
 70
     0
  0
APPID
  2
GENIUS_GENDTOL_13
 70
     0
  0
APPID
  2
GENIUS_GENOLIS_13
 70
     0
  0
APPID
  2
GENIUS_GENOENT_13
 70
     0
  0
APPID
  2
GENIUS_GENOBJ-F-FEM_13
 70
     0
  0
APPID
  2
GENIUS_GENOREF_13
 70
     0
  0
APPID
  2
GENIUS_GEFFEM_13
 70
     0
  0
APPID
  2
GENIUS_GEFFEMP_13
 70
     0
  0
APPID
  2
AD_DRAW
 70
     0
  0
APPID
  2
DESIGNERASSEMBLIES
 70
     0
  0
APPID
  2
ACADM_DIM_EDIT
 70
     0
  0
APPID
  2
AMDT_DM_ADJ
 70
     0
  0
APPID
  2
GENIUS_GENOBJ-N-FIL_13
 70
     0
  0
APPID
  2
HATCH_TYPE
 70
     0
  0
APPID
  2
HATCH_DISPLAY
 70
     0
  0
APPID
  2
HATCH_DISTANCE
 70
     0
  0
ENDTAB
  0
TABLE
  2
DIMSTYLE
 70
    29
  0
DIMSTYLE
  2
BIGT
 70
     0
  3

  4

  5

  6

  7

 40
1.0
 41
2.2299999999999991
 42
0.5
 43
7.0
 44
1.0
 45
0.0
 46
0.0
 47
0.0
 48
0.01
140
2.799999999999998
141
0.0
142
0.0
143
25.399999999999999
144
1.0
145
0.0
146
1.0
147
1.0
 71
     0
 72
     0
 73
     0
 74
     0
 75
     0
 76
     0
 77
     3
 78
     9
170
     0
171
     2
172
     1
173
     0
174
     1
175
     0
176
   256
177
   256
178
    40
  0
DIMSTYLE
  2
AM_ISO
 70
     0
  3

  4
"
  5

  6

  7

 40
1.0
 41
2.5
 42
1.0
 43
10.0
 44
1.0
 45
0.0
 46
0.0
 47
0.1
 48
0.1
140
3.5
141
0.0
142
0.0
143
0.0393701
144
1.0
145
0.0
146
0.71
147
1.5
 71
     0
 72
     0
 73
     0
 74
     0
 75
     0
 76
     0
 77
     1
 78
     8
170
     0
171
     2
172
     1
173
     0
174
     0
175
     0
176
   256
177
   256
178
     2
  0
DIMSTYLE
  2
AM_ISO$3
 70
     0
  3

  4
"
  5

  6

  7

 40
1.0
 41
2.5
 42
1.0
 43
10.0
 44
1.0
 45
0.0
 46
0.0
 47
0.1
 48
0.1
140
3.5
141
0.0
142
0.0
143
0.0393701
144
1.0
145
0.0
146
0.71
147
1.5
 71
     0
 72
     0
 73
     0
 74
     1
 75
     0
 76
     0
 77
     1
 78
     8
170
     0
171
     2
172
     0
173
     0
174
     0
175
     0
176
   256
177
   256
178
     2
  0
DIMSTYLE
  2
AM_ISO$4
 70
     0
  3

  4
"
  5

  6

  7

 40
1.0
 41
2.5
 42
1.0
 43
10.0
 44
1.0
 45
0.0
 46
0.0
 47
0.1
 48
0.1
140
3.5
141
0.0
142
0.0
143
0.0393701
144
1.0
145
0.0
146
0.71
147
1.5
 71
     0
 72
     0
 73
     0
 74
     1
 75
     0
 76
     0
 77
     1
 78
     8
170
     0
171
     2
172
     0
173
     0
174
     0
175
     0
176
   256
177
   256
178
     2
  0
DIMSTYLE
  2
AM_ISO$6
 70
     0
  3

  4
"
  5

  6

  7

 40
1.0
 41
2.5
 42
1.0
 43
10.0
 44
1.0
 45
0.0
 46
0.0
 47
0.1
 48
0.1
140
3.5
141
0.0
142
0.0
143
0.0393701
144
1.0
145
0.0
146
0.71
147
1.5
 71
     0
 72
     0
 73
     0
 74
     0
 75
     0
 76
     0
 77
     0
 78
     8
170
     0
171
     2
172
     1
173
     0
174
     0
175
     0
176
   256
177
   256
178
     2
  0
DIMSTYLE
  2
AM_ISO$7
 70
     0
  3

  4
"
  5

  6

  7

 40
1.0
 41
2.5
 42
1.0
 43
10.0
 44
1.0
 45
0.0
 46
0.0
 47
0.1
 48
0.1
140
5.0
141
0.0
142
0.0
143
0.0393701
144
1.0
145
0.0
146
0.71
147
1.5
 71
     0
 72
     0
 73
     0
 74
     0
 75
     0
 76
     0
 77
     1
 78
     8
170
     0
171
     2
172
     1
173
     0
174
     0
175
     0
176
   256
177
   256
178
     2
  0
DIMSTYLE
  2
AM_ISO$SF
 70
     0
  3

  4
"
  5

  6

  7

 40
1.0
 41
2.5
 42
1.0
 43
10.0
 44
1.0
 45
0.0
 46
0.0
 47
0.1
 48
0.1
140
3.5
141
0.0
142
0.0
143
0.0393701
144
1.0
145
0.0
146
0.71
147
1.5
 71
     0
 72
     0
 73
     0
 74
     0
 75
     1
 76
     1
 77
     1
 78
     8
170
     0
171
     2
172
     1
173
     0
174
     0
175
     0
176
   256
177
   256
178
     2
  0
DIMSTYLE
  2
AM_ISO$SH
 70
     0
  3

  4
"
  5

  6

  7

 40
1.0
 41
2.5
 42
1.0
 43
10.0
 44
1.0
 45
0.0
 46
0.0
 47
0.1
 48
0.1
140
3.5
141
0.0
142
0.0
143
0.0393701
144
2.0
145
0.0
146
0.71
147
1.5
 71
     0
 72
     0
 73
     0
 74
     0
 75
     1
 76
     1
 77
     1
 78
     8
170
     0
171
     2
172
     1
173
     1
174
     0
175
     0
176
   256
177
   256
178
     2
  0
DIMSTYLE
  2
BIGT$2
 70
     0
  3

  4

  5

  6

  7

 40
1.0
 41
2.2299999999999991
 42
0.5
 43
7.0
 44
1.0
 45
0.0
 46
0.0
 47
0.0
 48
0.01
140
2.799999999999998
141
0.0
142
0.0
143
25.399999999999999
144
1.0
145
0.0
146
1.0
147
1.0
 71
     0
 72
     0
 73
     0
 74
     0
 75
     0
 76
     0
 77
     3
 78
     9
170
     0
171
     2
172
     1
173
     0
174
     0
175
     0
176
   256
177
   256
178
    40
  0
DIMSTYLE
  2
BIGT$3
 70
     0
  3

  4

  5

  6

  7

 40
1.0
 41
2.2299999999999991
 42
0.5
 43
2.5
 44
1.0
 45
0.0
 46
0.0
 47
0.0
 48
0.01
140
2.799999999999998
141
0.0
142
0.0
143
25.399999999999999
144
1.0
145
0.0
146
1.0
147
1.0
 71
     0
 72
     0
 73
     0
 74
     0
 75
     0
 76
     0
 77
     3
 78
     9
170
     0
171
     2
172
     1
173
     0
174
     0
175
     0
176
   256
177
   256
178
    40
  0
DIMSTYLE
  2
BIGT$7
 70
     0
  3

  4

  5

  6

  7

 40
0.0
 41
2.2299999999999991
 42
0.5
 43
7.0
 44
1.0
 45
0.0
 46
0.0
 47
0.0
 48
0.01
140
2.799999999999998
141
0.0
142
0.0
143
25.399999999999999
144
1.0
145
0.0
146
1.0
147
1.0
 71
     0
 72
     0
 73
     0
 74
     0
 75
     0
 76
     0
 77
     3
 78
     9
170
     0
171
     2
172
     0
173
     0
174
     0
175
     0
176
   256
177
   256
178
    40
  0
DIMSTYLE
  2
BIGT$6
 70
     0
  3

  4

  5

  6

  7

 40
1.0
 41
2.2299999999999991
 42
0.5
 43
2.5
 44
1.0
 45
0.0
 46
0.0
 47
0.0
 48
0.01
140
2.799999999999998
141
0.0
142
0.0
143
25.399999999999999
144
1.0
145
0.0
146
1.0
147
1.0
 71
     0
 72
     0
 73
     0
 74
     0
 75
     0
 76
     0
 77
     3
 78
     9
170
     0
171
     2
172
     1
173
     0
174
     0
175
     0
176
   256
177
   256
178
    40
  0
DIMSTYLE
  2
BIGT$0
 70
     0
  3

  4

  5

  6

  7

 40
1.0
 41
2.2299999999999991
 42
0.5
 43
7.0
 44
1.0
 45
0.0
 46
0.0
 47
0.0
 48
0.01
140
2.799999999999998
141
0.0
142
0.0
143
25.399999999999999
144
1.0
145
0.0
146
1.0
147
1.0
 71
     0
 72
     0
 73
     0
 74
     0
 75
     0
 76
     0
 77
     3
 78
     9
170
     0
171
     2
172
     1
173
     0
174
     0
175
     0
176
   256
177
   256
178
    40
  0
DIMSTYLE
  2
BIGT$4
 70
     0
  3

  4

  5

  6

  7

 40
1.0
 41
2.2299999999999991
 42
0.5
 43
2.5
 44
1.0
 45
0.0
 46
0.0
 47
0.0
 48
0.01
140
2.799999999999998
141
0.0
142
0.0
143
25.399999999999999
144
1.0
145
0.0
146
1.0
147
1.0
 71
     0
 72
     0
 73
     0
 74
     0
 75
     0
 76
     0
 77
     3
 78
     9
170
     0
171
     2
172
     1
173
     0
174
     0
175
     0
176
   256
177
   256
178
    40
  0
DIMSTYLE
  2
BIGT$SH
 70
     0
  3

  4

  5

  6

  7

 40
1.0
 41
2.2299999999999991
 42
0.5
 43
7.0
 44
1.0
 45
0.0
 46
0.0
 47
0.0
 48
0.0
140
2.799999999999998
141
0.0
142
0.0
143
25.399999999999999
144
1.0
145
0.0
146
1.0
147
1.0
 71
     0
 72
     0
 73
     0
 74
     0
 75
     0
 76
     0
 77
     3
 78
     9
170
     0
171
     2
172
     1
173
     0
174
     0
175
     0
176
   256
177
   256
178
    40
  0
DIMSTYLE
  2
BIGT$SF
 70
     0
  3

  4

  5

  6

  7

 40
1.0
 41
2.2299999999999991
 42
0.5
 43
7.0
 44
1.0
 45
0.0
 46
0.0
 47
0.0
 48
0.0
140
2.799999999999998
141
0.0
142
0.0
143
25.399999999999999
144
1.0
145
0.0
146
1.0
147
1.0
 71
     0
 72
     0
 73
     0
 74
     0
 75
     0
 76
     0
 77
     3
 78
     9
170
     0
171
     2
172
     1
173
     0
174
     0
175
     0
176
   256
177
   256
178
    40
  0
DIMSTYLE
  2
TECHNICAL_OSAKA
 70
     0
  3

  4
"
  5

  6

  7

 40
1.0
 41
2.5
 42
1.0
 43
10.0
 44
1.0
 45
0.0
 46
0.0
 47
0.1
 48
0.1
140
2.799999999999998
141
0.0
142
0.0
143
0.0393701
144
1.0
145
0.0
146
0.71
147
1.5
 71
     0
 72
     0
 73
     0
 74
     0
 75
     0
 76
     0
 77
     3
 78
     8
170
     0
171
     2
172
     1
173
     0
174
     0
175
     0
176
   256
177
   256
178
    40
  0
DIMSTYLE
  2
TECHNICAL_OSAKA$3
 70
     0
  3

  4
"
  5

  6

  7

 40
1.0
 41
2.5
 42
1.0
 43
10.0
 44
1.0
 45
0.0
 46
0.0
 47
0.1
 48
0.1
140
2.799999999999998
141
0.0
142
0.0
143
0.0393701
144
1.0
145
0.0
146
0.71
147
1.5
 71
     0
 72
     0
 73
     0
 74
     1
 75
     0
 76
     0
 77
     3
 78
     8
170
     0
171
     2
172
     0
173
     0
174
     0
175
     0
176
   256
177
   256
178
    40
  0
DIMSTYLE
  2
TECHNICAL_OSAKA$4
 70
     0
  3

  4
"
  5

  6

  7

 40
1.0
 41
2.5
 42
1.0
 43
10.0
 44
1.0
 45
0.0
 46
0.0
 47
0.1
 48
0.1
140
2.799999999999998
141
0.0
142
0.0
143
0.0393701
144
1.0
145
0.0
146
0.71
147
1.5
 71
     0
 72
     0
 73
     0
 74
     1
 75
     0
 76
     0
 77
     3
 78
     8
170
     0
171
     2
172
     0
173
     0
174
     0
175
     0
176
   256
177
   256
178
    40
  0
DIMSTYLE
  2
TECHNICAL_OSAKA$6
 70
     0
  3

  4
"
  5

  6

  7

 40
1.0
 41
2.5
 42
1.0
 43
10.0
 44
1.0
 45
0.0
 46
0.0
 47
0.1
 48
0.1
140
2.799999999999998
141
0.0
142
0.0
143
0.0393701
144
1.0
145
0.0
146
0.71
147
1.5
 71
     0
 72
     0
 73
     0
 74
     0
 75
     0
 76
     0
 77
     0
 78
     8
170
     0
171
     2
172
     1
173
     0
174
     0
175
     0
176
   256
177
   256
178
    40
  0
DIMSTYLE
  2
TECHNICAL_OSAKA$7
 70
     0
  3

  4
"
  5

  6

  7

 40
1.0
 41
2.5
 42
1.0
 43
10.0
 44
1.0
 45
0.0
 46
0.0
 47
0.1
 48
0.1
140
2.799999999999998
141
0.0
142
0.0
143
0.0393701
144
1.0
145
0.0
146
0.71
147
1.5
 71
     0
 72
     0
 73
     0
 74
     0
 75
     0
 76
     0
 77
     3
 78
     8
170
     0
171
     2
172
     1
173
     0
174
     0
175
     0
176
   256
177
   256
178
    40
  0
DIMSTYLE
  2
TECHNICAL_OSAKA$SF
 70
     0
  3

  4
"
  5

  6

  7

 40
1.0
 41
2.5
 42
1.0
 43
10.0
 44
1.0
 45
0.0
 46
0.0
 47
0.1
 48
0.1
140
3.5
141
0.0
142
0.0
143
0.0393701
144
1.0
145
0.0
146
0.71
147
1.5
 71
     0
 72
     0
 73
     0
 74
     0
 75
     1
 76
     1
 77
     3
 78
     8
170
     0
171
     2
172
     1
173
     0
174
     0
175
     0
176
   256
177
   256
178
    40
  0
DIMSTYLE
  2
TECHNICAL_OSAKA$SH
 70
     0
  3

  4
"
  5

  6

  7

 40
1.0
 41
2.5
 42
1.0
 43
10.0
 44
1.0
 45
0.0
 46
0.0
 47
0.1
 48
0.1
140
3.5
141
0.0
142
0.0
143
0.0393701
144
2.0
145
0.0
146
0.71
147
1.5
 71
     0
 72
     0
 73
     0
 74
     0
 75
     1
 76
     1
 77
     3
 78
     8
170
     0
171
     2
172
     1
173
     1
174
     0
175
     0
176
   256
177
   256
178
    40
  0
DIMSTYLE
  2
AM_ANSI
 70
     0
  3

  4
mm
  5

  6

  7

 40
1.0
 41
0.1
 42
0.05
 43
0.5
 44
0.1
 45
0.0
 46
0.0
 47
0.1
 48
0.1
140
0.12
141
0.0
142
0.0
143
25.399999999999999
144
1.0
145
0.0
146
0.71
147
0.06
 71
     0
 72
     0
 73
     1
 74
     1
 75
     0
 76
     0
 77
     0
 78
     7
170
     0
171
     2
172
     0
173
     0
174
     0
175
     0
176
   256
177
   256
178
     2
  0
DIMSTYLE
  2
AM_ANSI$3
 70
     0
  3

  4
mm
  5

  6

  7

 40
1.0
 41
0.1
 42
0.05
 43
0.5
 44
0.1
 45
0.0
 46
0.0
 47
0.1
 48
0.1
140
0.12
141
0.0
142
0.0
143
25.399999999999999
144
1.0
145
0.0
146
0.71
147
0.06
 71
     0
 72
     0
 73
     1
 74
     1
 75
     0
 76
     0
 77
     0
 78
     7
170
     0
171
     2
172
     0
173
     0
174
     0
175
     0
176
   256
177
   256
178
     2
  0
DIMSTYLE
  2
AM_ANSI$4
 70
     0
  3

  4
mm
  5

  6

  7

 40
1.0
 41
0.1
 42
0.05
 43
0.5
 44
0.1
 45
0.0
 46
0.0
 47
0.1
 48
0.1
140
0.12
141
0.0
142
0.0
143
25.399999999999999
144
1.0
145
0.0
146
0.71
147
0.06
 71
     0
 72
     0
 73
     1
 74
     1
 75
     0
 76
     0
 77
     0
 78
     7
170
     0
171
     2
172
     0
173
     0
174
     0
175
     0
176
   256
177
   256
178
     2
  0
DIMSTYLE
  2
AM_ANSI$7
 70
     0
  3

  4
mm
  5

  6

  7

 40
1.0
 41
0.1
 42
0.05
 43
0.5
 44
0.1
 45
0.0
 46
0.0
 47
0.1
 48
0.1
140
0.24
141
0.0
142
0.0
143
25.399999999999999
144
1.0
145
0.0
146
0.71
147
0.06
 71
     0
 72
     0
 73
     1
 74
     1
 75
     0
 76
     0
 77
     0
 78
     7
170
     0
171
     2
172
     0
173
     0
174
     0
175
     0
176
   256
177
   256
178
     2
  0
DIMSTYLE
  2
AM_ANSI$SF
 70
     0
  3

  4
mm
  5

  6

  7

 40
1.0
 41
0.1
 42
0.05
 43
0.5
 44
0.1
 45
0.0
 46
0.0
 47
0.1
 48
0.1
140
0.12
141
0.0
142
0.0
143
25.399999999999999
144
1.0
145
0.0
146
0.71
147
0.06
 71
     0
 72
     0
 73
     1
 74
     1
 75
     1
 76
     1
 77
     0
 78
     7
170
     0
171
     2
172
     0
173
     0
174
     0
175
     0
176
   256
177
   256
178
     2
  0
DIMSTYLE
  2
AM_ANSI$SH
 70
     0
  3

  4
mm
  5

  6
GENAXEH
  7

 40
1.0
 41
0.1
 42
0.05
 43
0.5
 44
0.1
 45
0.0
 46
0.0
 47
0.1
 48
0.1
140
0.12
141
0.0
142
0.0
143
25.399999999999999
144
1.0
145
0.0
146
0.71
147
0.06
 71
     0
 72
     0
 73
     1
 74
     1
 75
     1
 76
     1
 77
     0
 78
     7
170
     0
171
     2
172
     0
173
     1
174
     0
175
     0
176
   256
177
   256
178
     2
  0
ENDTAB
  0
ENDSEC
  0
SECTION
  2
BLOCKS
  0
BLOCK
  8
0
  2
$MODEL_SPACE
 70
     0
 10
0.0
 20
0.0
 30
0.0
  3
$MODEL_SPACE
  1

  0
ENDBLK
  5
1847
  8
0
  0
BLOCK
 67
     1
  8
0
  2
$PAPER_SPACE
 70
     0
 10
0.0
 20
0.0
 30
0.0
  3
$PAPER_SPACE
  1

  0
ENDBLK
  5
1843
 67
     1
  8
0
  0
BLOCK
  8
0
  2
_OPEN
 70
     0
 10
0.0
 20
0.0
 30
0.0
  3
_OPEN
  1

  0
LINE
  5
595
  8
0
  6
BYBLOCK
 62
     0
 10
-1.0
 20
0.1666666666666666
 30
0.0
 11
0.0
 21
0.0
 31
0.0
  0
LINE
  5
596
  8
0
  6
BYBLOCK
 62
     0
 10
-1.0
 20
-0.1666666666666666
 30
0.0
 11
0.0
 21
0.0
 31
0.0
  0
LINE
  5
597
  8
0
  6
BYBLOCK
 62
     0
 10
0.0
 20
0.0
 30
0.0
 11
-1.0
 21
0.0
 31
0.0
  0
ENDBLK
  5
599
  8
0
  0
BLOCK
  8
0
  2
GENAXEH
 70
     0
 10
0.0
 20
0.0
 30
0.0
  3
GENAXEH
  1

  0
LINE
  5
6E8
  8
0
 10
-1.0
 20
0.0
 30
0.0
 11
1.0
 21
0.0
 31
0.0
  0
ENDBLK
  5
6EA
  8
0
  0
BLOCK
  8
0
  2
_OPEN30
 70
     0
 10
0.0
 20
0.0
 30
0.0
  3
_OPEN30
  1

  0
LINE
  5
E8F
  8
0
  6
BYBLOCK
 62
     0
 10
-1.0
 20
0.26794919
 30
0.0
 11
0.0
 21
0.0
 31
0.0
  0
LINE
  5
E90
  8
0
  6
BYBLOCK
 62
     0
 10
0.0
 20
0.0
 30
0.0
 11
-1.0
 21
-0.26794919
 31
0.0
  0
LINE
  5
E91
  8
0
  6
BYBLOCK
 62
     0
 10
0.0
 20
0.0
 30
0.0
 11
-1.0
 21
0.0
 31
0.0
  0
ENDBLK
  5
E93
  8
0
  0
BLOCK
  8
0
  2
*X5
 70
     1
 10
0.0
 20
0.0
 30
0.0
  3
*X5
  1

  0
LINE
  5
16E1
  8
0
 62
     0
 10
4.2731626460786929
 20
-5.8571670211471281
 30
0.0
 11
3.510115154589633
 21
-5.094119529658065
 31
0.0
  0
LINE
  5
16E2
  8
0
 62
     0
 10
3.4940719416106631
 20
-5.3367076929658772
 30
0.0
 11
3.188391765925398
 21
-5.03102751728062
 31
0.0
  0
LINE
  5
16E3
  8
0
 62
     0
 10
4.336254658456145
 20
-6.1788904098113671
 30
0.0
 11
4.030574482770878
 21
-5.8732102341260974
 31
0.0
  0
LINE
  5
16E4
  8
0
 62
     0
 10
3.161466872339401
 20
-5.2627339999814282
 30
0.0
 11
2.940339387738502
 21
-5.0416065153805283
 31
0.0
  0
LINE
  5
16E5
  8
0
 62
     0
 10
4.3383903626899851
 20
-6.4396574903320083
 30
0.0
 11
4.1045481757553324
 21
-6.2058153033973564
 31
0.0
  0
LINE
  5
16E6
  8
0
 62
     0
 10
2.9211994892945912
 20
-5.281097993223403
 30
0.0
 11
2.7312050109658839
 21
-5.091103514894697
 31
0.0
  0
LINE
  5
16E7
  8
0
 62
     0
 10
4.338390362689978
 20
-6.6982888666187872
 30
0.0
 11
4.105585681181485
 21
-6.4654841851102951
 31
0.0
  0
LINE
  5
16E8
  8
0
 62
     0
 10
2.7241461983551192
 20
-5.342676078570725
 30
0.0
 11
2.549611000613679
 21
-5.1681408808292844
 31
0.0
  0
LINE
  5
16E9
  8
0
 62
     0
 10
4.338390362689978
 20
-6.9569202429055821
 30
0.0
 11
4.105585681181485
 21
-6.7241155613970891
 31
0.0
  0
LINE
  5
16EA
  8
0
 62
     0
 10
2.5574155323842751
 20
-5.4345767888866652
 30
0.0
 11
2.3904879894348241
 21
-5.2676492459372142
 31
0.0
  0
LINE
  5
16EB
  8
0
 62
     0
 10
4.3383903626899851
 20
-7.2155516191923716
 30
0.0
 11
4.105585681181485
 21
-6.9827469376838751
 31
0.0
  0
LINE
  5
16EC
  8
0
 62
     0
 10
2.4161255819181502
 20
-5.5519182147073352
 30
0.0
 11
2.251507783582793
 21
-5.3873004163719713
 31
0.0
  0
LINE
  5
16ED
  8
0
 62
     0
 10
4.3383903626899851
 20
-7.4741829954791603
 30
0.0
 11
4.105585681181493
 21
-7.2413783139706691
 31
0.0
  0
LINE
  5
16EE
  8
0
 62
     0
 10
2.2989457159389901
 20
-5.6933697250149731
 30
0.0
 11
2.1319866093836382
 21
-5.526410618459618
 31
0.0
  0
LINE
  5
16EF
  8
0
 62
     0
 10
4.3383903626899851
 20
-7.7328143717659659
 30
0.0
 11
4.105585681181477
 21
-7.5000096902574622
 31
0.0
  0
LINE
  5
16F0
  8
0
 62
     0
 10
2.207225207815394
 20
-5.8602805931781683
 30
0.0
 11
2.03261766024983
 21
-5.6856730456126012
 31
0.0
  0
LINE
  5
16F1
  8
0
 62
     0
 10
4.338390362689978
 20
-7.9914457480527474
 30
0.0
 11
4.105585681181485
 21
-7.758641066544258
 31
0.0
  0
LINE
  5
16F2
  8
0
 62
     0
 10
2.1458777492053511
 20
-6.0575645108549052
 30
0.0
 11
1.955742399326019
 21
-5.8674291609755747
 31
0.0
  0
LINE
  5
16F3
  8
0
 62
     0
 10
4.338390362689978
 20
-8.2500771243395317
 30
0.0
 11
4.105585681181485
 21
-8.0172724428310431
 31
0.0
  0
LINE
  5
16F4
  8
0
 62
     0
 10
2.127884606905837
 20
-6.298202744842186
 30
0.0
 11
1.9064556573934901
 21
-6.0767737953298466
 31
0.0
  0
LINE
  5
16F5
  8
0
 62
     0
 10
4.3383903626899851
 20
-8.5087085006263337
 30
0.0
 11
4.105585681181485
 21
-8.2759038191178362
 31
0.0
  0
LINE
  5
16F6
  8
0
 62
     0
 10
2.0859571237484991
 20
-6.514906637971646
 30
0.0
 11
1.896203437136684
 21
-6.325152951359831
 31
0.0
  0
LINE
  5
16F7
  8
0
 62
     0
 10
4.338390362689978
 20
-8.7673398769131232
 30
0.0
 11
4.105585681181485
 21
-8.5345351954046365
 31
0.0
  0
LINE
  5
16F8
  8
0
 62
     0
 10
4.338390362689978
 20
-9.0259712531999217
 30
0.0
 11
4.105585681181485
 21
-8.7931665716914225
 31
0.0
  0
LINE
  5
16F9
  8
0
 62
     0
 10
4.338390362689978
 20
-9.2846026294867023
 30
0.0
 11
4.105585681181485
 21
-9.0517979479782156
 31
0.0
  0
LINE
  5
16FA
  8
0
 62
     0
 10
4.338390362689978
 20
-9.5432340057735008
 30
0.0
 11
4.105585681181485
 21
-9.3104293242650016
 31
0.0
  0
LINE
  5
16FB
  8
0
 62
     0
 10
4.3383903626899851
 20
-9.8018653820602886
 30
0.0
 11
4.105585681181485
 21
-9.5690607005517911
 31
0.0
  0
LINE
  5
16FC
  8
0
 62
     0
 10
4.3383903626899851
 20
-10.06049675834708
 30
0.0
 11
4.105585681181493
 21
-9.8276920768385896
 31
0.0
  0
LINE
  5
16FD
  8
0
 62
     0
 10
4.338390362689978
 20
-10.31912813463388
 30
0.0
 11
4.105585681181485
 21
-10.086323453125379
 31
0.0
  0
LINE
  5
16FE
  8
0
 62
     0
 10
4.338390362689978
 20
-10.577759510920661
 30
0.0
 11
4.105585681181485
 21
-10.34495482941217
 31
0.0
  0
LINE
  5
16FF
  8
0
 62
     0
 10
4.338390362689978
 20
-10.836390887207459
 30
0.0
 11
4.105585681181485
 21
-10.60358620569896
 31
0.0
  0
LINE
  5
1700
  8
0
 62
     0
 10
4.3331743680063184
 20
-11.08980626881058
 30
0.0
 11
4.105585681181485
 21
-10.862217581985741
 31
0.0
  0
LINE
  5
1701
  8
0
 62
     0
 10
4.2927234683474307
 20
-11.30798674543848
 30
0.0
 11
4.0963826280125373
 21
-11.11164590510359
 31
0.0
  0
LINE
  5
1702
  8
0
 62
     0
 10
4.2225300722551111
 20
-11.496424725632959
 30
0.0
 11
4.0447379717610339
 21
-11.31863262513888
 31
0.0
  0
LINE
  5
1703
  8
0
 62
     0
 10
4.1288343457024572
 20
-11.661360375367099
 30
0.0
 11
3.960418835935497
 21
-11.492944865600141
 31
0.0
  0
LINE
  5
1704
  8
0
 62
     0
 10
4.0145495478446014
 20
-11.80570695379603
 30
0.0
 11
3.849766277175481
 21
-11.640923683126911
 31
0.0
  0
LINE
  5
1705
  8
0
 62
     0
 10
3.880757097170298
 20
-11.93054587940852
 30
0.0
 11
3.7149104705198961
 21
-11.76469925275811
 31
0.0
  0
LINE
  5
1706
  8
0
 62
     0
 10
3.7271431977453031
 20
-12.03556335627032
 30
0.0
 11
3.555244829520197
 21
-11.86366498804521
 31
0.0
  0
LINE
  5
1707
  8
0
 62
     0
 10
2.1267631408982761
 20
-10.69381467571009
 30
0.0
 11
1.9433546960822801
 21
-10.51040623089408
 31
0.0
  0
LINE
  5
1708
  8
0
 62
     0
 10
3.551878254361716
 20
-12.11892978917353
 30
0.0
 11
3.367040741413724
 21
-11.93409227622552
 31
0.0
  0
LINE
  5
1709
  8
0
 62
     0
 10
2.1267631408982761
 20
-10.95244605199688
 30
0.0
 11
1.8939584533982801
 21
-10.719641364496891
 31
0.0
  0
LINE
  5
170A
  8
0
 62
     0
 10
3.3508120748548631
 20
-12.17649498595347
 30
0.0
 11
3.140443698089034
 21
-11.96612660918764
 31
0.0
  0
LINE
  5
170B
  8
0
 62
     0
 10
2.1649602340683489
 20
-11.24927452145374
 30
0.0
 11
1.893959103096269
 21
-10.978273390481659
 31
0.0
  0
LINE
  5
170C
  8
0
 62
     0
 10
3.1149140586925621
 20
-12.19922834607795
 30
0.0
 11
2.8439129277204782
 21
-11.928227215105871
 31
0.0
  0
LINE
  5
170D
  8
0
 62
     0
 10
2.8198068968923562
 20
-12.162752560564529
 30
0.0
 11
1.930434888609696
 21
-11.27338055228187
 31
0.0
  0
ENDBLK
  5
170E
  8
0
  0
BLOCK
  8
0
  2
*X6
 70
     1
 10
0.0
 20
0.0
 30
0.0
  3
*X6
  1

  0
LINE
  5
1711
  8
0
 62
     0
 10
3.9891833374314549
 20
-8.6767642279413888
 30
0.0
 11
3.9699999022341181
 21
-8.6575807927440565
 31
0.0
  0
LINE
  5
1712
  8
0
 62
     0
 10
3.9891833374314549
 20
-8.9353956042281784
 30
0.0
 11
3.6073930521298831
 21
-8.5536053189266141
 31
0.0
  0
LINE
  5
1713
  8
0
 62
     0
 10
3.9748178468112911
 20
-9.179661489894805
 30
0.0
 11
3.2447862020256362
 21
-8.4496298451091505
 31
0.0
  0
LINE
  5
1714
  8
0
 62
     0
 10
3.6122095777595682
 20
-9.0756845971298823
 30
0.0
 11
2.8821793519213919
 21
-8.3456543712917011
 31
0.0
  0
LINE
  5
1715
  8
0
 62
     0
 10
3.249601308707851
 20
-8.9717077043649454
 30
0.0
 11
2.5195725018171511
 21
-8.2416788974742428
 31
0.0
  0
LINE
  5
1716
  8
0
 62
     0
 10
2.8869930396561161
 20
-8.8677308116000084
 30
0.0
 11
2.1569656517128979
 21
-8.1377034236567951
 31
0.0
  0
LINE
  5
1717
  8
0
 62
     0
 10
2.52438477060439
 20
-8.763753918835075
 30
0.0
 11
1.8939584533982801
 21
-8.1333276016289702
 31
0.0
  0
LINE
  5
1718
  8
0
 62
     0
 10
2.1617765015526582
 20
-8.659777026070131
 30
0.0
 11
1.8939584533982901
 21
-8.3919589779157633
 31
0.0
  0
LINE
  5
1719
  8
0
 62
     0
 10
1.918015068738405
 20
-8.674646969542664
 30
0.0
 11
1.8939584533982801
 21
-8.6505903542025422
 31
0.0
  0
ENDBLK
  5
171A
  8
0
  0
BLOCK
  8
0
  2
*X7
 70
     1
 10
0.0
 20
0.0
 30
0.0
  3
*X7
  1

  0
LINE
  5
171D
  8
0
 62
     0
 10
3.868211204180473
 20
-7.0040038369696571
 30
0.0
 11
3.649960323505288
 21
-6.7857529562944654
 31
0.0
  0
LINE
  5
171E
  8
0
 62
     0
 10
3.9856529491582982
 20
-7.380076958234282
 30
0.0
 11
3.2873524678243831
 21
-6.6817764769003682
 31
0.0
  0
LINE
  5
171F
  8
0
 62
     0
 10
3.617185728354428
 20
-7.2702411137172014
 30
0.0
 11
2.924744612143483
 21
-6.5777999975062524
 31
0.0
  0
LINE
  5
1720
  8
0
 62
     0
 10
3.9698966386926511
 20
-7.6229520240554223
 30
0.0
 11
3.6965801245195551
 21
-7.3496355098823214
 31
0.0
  0
LINE
  5
1721
  8
0
 62
     0
 10
3.2412377906756031
 20
-7.1529245523251603
 30
0.0
 11
2.8018861877732841
 21
-6.7135729494228391
 31
0.0
  0
LINE
  5
1722
  8
0
 62
     0
 10
3.899258026677503
 20
-7.8109447883270624
 30
0.0
 11
3.6959786603753511
 21
-7.6076654220249154
 31
0.0
  0
LINE
  5
1723
  8
0
 62
     0
 10
3.034690875273276
 20
-7.2050090132096241
 30
0.0
 11
2.8018861877732761
 21
-6.9722043257096251
 31
0.0
  0
LINE
  5
1724
  8
0
 62
     0
 10
3.792131315773708
 20
-7.9624494537100619
 30
0.0
 11
3.5455738235496872
 21
-7.7158919614860322
 31
0.0
  0
LINE
  5
1725
  8
0
 62
     0
 10
2.202988506504409
 20
-6.6319380207275582
 30
0.0
 11
2.1787499076577741
 21
-6.6076994218809206
 31
0.0
  0
LINE
  5
1726
  8
0
 62
     0
 10
3.6531656331833751
 20
-8.082115147406526
 30
0.0
 11
3.2290805876554312
 21
-7.658030101878575
 31
0.0
  0
LINE
  5
1727
  8
0
 62
     0
 10
2.2677871082174681
 20
-6.9553679987274011
 30
0.0
 11
1.982121972154764
 21
-6.669702862664697
 31
0.0
  0
LINE
  5
1728
  8
0
 62
     0
 10
3.4804499382598562
 20
-8.168030828769794
 30
0.0
 11
2.8664723785437469
 21
-7.5540532690536812
 31
0.0
  0
LINE
  5
1729
  8
0
 62
     0
 10
2.1576583608831101
 20
-7.1038706276798393
 30
0.0
 11
1.983335797400418
 21
-6.929548064197145
 31
0.0
  0
LINE
  5
172A
  8
0
 62
     0
 10
3.262962952369413
 20
-8.2091752191661413
 30
0.0
 11
2.503864169432068
 21
-7.4500764362287972
 31
0.0
  0
LINE
  5
172B
  8
0
 62
     0
 10
2.9676848492862362
 20
-8.1725284923697501
 30
0.0
 11
1.9129553288231691
 21
-7.1177989719066872
 31
0.0
  0
LINE
  5
172C
  8
0
 62
     0
 10
2.623189712588176
 20
-8.0866647319584857
 30
0.0
 11
1.8976699797883021
 21
-7.3611449991586113
 31
0.0
  0
ENDBLK
  5
172D
  8
0
  0
BLOCK
  8
0
  2
A$C7987684B
 70
     0
 10
0.0
 20
0.0
 30
0.0
  3
A$C7987684B
  1

  0
TEXT
  5
172F
  8
247
 10
-114.6078233883561
 20
-4.192101795415577
 30
0.0
 40
2.0
  1
ST12-CM12-45B-53
 41
0.7
  7
YOKO
 11
-114.6078233883561
 21
-4.192101795415577
 31
0.0
 73
     1
  0
INSERT
  5
1730
  8
247
  6
CONTINUOUS
  2
*X5
 10
-110.6078233883559
 20
-0.1505001566498381
 30
0.0
 50
270.0
1001
ACAD
1000
HATCH
1002
{
1070
    19
1000
ANSI31
1040
0.0576
1040
6.2831853071795827
1002
}
  0
INSERT
  5
1731
  8
247
  6
CONTINUOUS
  2
*X6
 10
-110.6078233883559
 20
-0.1505001566498381
 30
0.0
 50
270.0
1001
ACAD
1000
HATCH
1002
{
1070
    19
1000
ANSI31
1040
0.0576
1040
6.2831853071795827
1002
}
  0
INSERT
  5
1732
  8
247
  6
CONTINUOUS
  2
*X7
 10
-110.6078233883559
 20
-0.1505001566498381
 30
0.0
 50
270.0
1001
ACAD
1000
HATCH
1002
{
1070
    19
1000
ANSI31
1040
0.0576
1040
6.2831853071795827
1002
}
  0
LINE
  5
1733
  8
247
 10
-119.2755719153819
 20
-2.044458610048121
 30
0.0
 11
-118.6701109778819
 21
-2.044458610048121
 31
0.0
  0
POLYLINE
  5
1734
  8
247
 66
     1
 10
0.0
 20
0.0
 30
0.0
 70
     1
1001
HATCH_DISTANCE
1040
1.0
1001
HATCH_DISPLAY
1070
     0
1001
HATCH_TYPE
1070
     7
  0
VERTEX
  5
1735
  8
247
 10
-119.2755719153819
 20
-2.044458610048121
 30
0.0
  0
VERTEX
  5
1736
  8
247
 10
-119.3490045325694
 20
-2.3005367350481079
 30
0.0
  0
VERTEX
  5
1737
  8
247
 10
-119.2642340247569
 20
-2.3005367350481079
 30
0.0
  0
VERTEX
  5
1738
  8
247
 10
-119.7916041419444
 20
-4.1396834940812921
 30
0.0
  0
VERTEX
  5
1739
  8
247
 10
-119.27090492319439
 20
-4.1396834940812921
 30
0.0
  0
VERTEX
  5
173A
  8
247
 10
-118.6701109778819
 20
-2.044458610048121
 30
0.0
  0
SEQEND
  5
173B
  8
247
  0
POLYLINE
  5
173C
  8
247
 66
     1
 10
0.0
 20
0.0
 30
0.0
 70
     1
  0
VERTEX
  5
173D
  8
247
 10
-119.2755719153819
 20
-2.044458610048121
 30
0.0
  0
VERTEX
  5
173E
  8
247
 10
-119.3490045325694
 20
-2.3005367350481079
 30
0.0
  0
VERTEX
  5
173F
  8
247
 10
-119.2642340247569
 20
-2.3005367350481079
 30
0.0
  0
VERTEX
  5
1740
  8
247
 10
-119.7916041419444
 20
-4.1396834940812921
 30
0.0
  0
VERTEX
  5
1741
  8
247
 10
-119.27090492319439
 20
-4.1396834940812921
 30
0.0
  0
VERTEX
  5
1742
  8
247
 10
-118.6701109778819
 20
-2.044458610048121
 30
0.0
  0
SEQEND
  5
1743
  8
247
  0
LINE
  5
1744
  8
247
 10
-119.27090492319439
 20
-4.1396834940812921
 30
0.0
 11
-118.6701109778819
 21
-2.044458610048121
 31
0.0
  0
LINE
  5
1745
  8
247
 10
-121.58483656381929
 20
-4.4888905193398161
 30
0.0
 11
-116.8589312903819
 21
-4.4888905193398161
 31
0.0
  0
LINE
  5
1746
  8
247
 10
-121.58483656381929
 20
-4.256085837831316
 30
0.0
 11
-116.8589312903819
 21
-4.256085837831316
 31
0.0
  0
ARC
  5
1747
  8
247
 10
-118.0609937903819
 20
-3.383076774110616
 30
0.0
 40
0.756615234375
 50
163.99975070172931
 51
304.96387329163002
  0
ARC
  5
1748
  8
247
 10
-121.58483656381929
 20
-3.2666744303606201
 30
0.0
 40
0.9894111328124999
 50
90.0
 51
270.0
  0
ARC
  5
1749
  8
247
 10
-121.58483656381929
 20
-3.2666744303606201
 30
0.0
 40
1.2222158203124971
 50
90.0
 51
270.0
  0
LINE
  5
174A
  8
247
 10
-119.7916041419444
 20
-4.1396834940812921
 30
0.0
 11
-119.27090492319439
 21
-4.1396834940812921
 31
0.0
  0
LINE
  5
174B
  8
247
 10
-120.2754772372751
 20
-4.0960476099119587
 30
0.0
 11
-119.9582163139555
 21
-3.7787866865923929
 31
0.0
  0
LINE
  5
174C
  8
247
 10
-121.3536386265916
 20
-4.1396834940812921
 30
0.0
 11
-120.69159773825859
 21
-3.4776426057483261
 31
0.0
  0
LINE
  5
174D
  8
247
 10
-121.0950072503049
 20
-4.1396834940812921
 30
0.0
 11
-120.7955685382114
 21
-3.8402447819878871
 31
0.0
  0
LINE
  5
174E
  8
247
 10
-120.5777444977313
 20
-4.1396834940813214
 30
0.0
 11
-119.91958484279959
 21
-3.4815238391495971
 31
0.0
  0
LINE
  5
174F
  8
247
 10
-120.6161594010666
 20
-3.2145484942270839
 30
0.0
 11
-120.80694336385569
 21
-3.8799149252862808
 31
0.0
  0
ARC
  5
1750
  8
247
 10
-120.7563092200694
 20
-3.534398063173096
 30
0.0
 40
0.3492072715759277
 50
261.66285421114719
 51
66.338192159113618
  0
LINE
  5
1751
  8
247
 10
-120.8363758740181
 20
-4.1396834940812921
 30
0.0
 11
-119.9821625442073
 21
-3.2854701642706439
 31
0.0
  0
LINE
  5
1752
  8
247
 10
-121.46267738413189
 20
-4.1396834940812921
 30
0.0
 11
-120.4965836341318
 21
-4.1396834940812921
 31
0.0
  0
LINE
  5
1753
  8
247
 10
-121.4025374819159
 20
-3.9299509731188591
 30
0.0
 11
-120.4175164478636
 21
-2.9449299390664221
 31
0.0
  0
LINE
  5
1754
  8
247
 10
-121.298561324468
 20
-3.5673434393841701
 30
0.0
 11
-120.48364481559651
 21
-2.7524269305125522
 31
0.0
  0
ARC
  5
1755
  8
247
 10
-120.4965836341318
 20
-3.557680289735639
 30
0.0
 40
0.5820029296875
 50
270.0
 51
40.329840654167107
  0
LINE
  5
1756
  8
247
 10
-120.4151558345812
 20
-3.459832078357731
 30
0.0
 11
-119.6517794434659
 21
-2.6964556872423882
 31
0.0
  0
LINE
  5
1757
  8
247
 10
-119.3490045325694
 20
-2.3005367350481079
 30
0.0
 11
-119.2755719153819
 21
-2.044458610048121
 31
0.0
  0
LINE
  5
1758
  8
247
 10
-119.3490045325694
 20
-2.3005367350481079
 30
0.0
 11
-119.2642340247569
 21
-2.3005367350481079
 31
0.0
  0
LINE
  5
1759
  8
247
 10
-120.29975379033711
 20
-2.309904528966495
 30
0.0
 11
-120.059655885978
 21
-2.069806624607319
 31
0.0
  0
LINE
  5
175A
  8
247
 10
-121.0430066877792
 20
-2.277263297548171
 30
0.0
 11
-120.8102020002792
 21
-2.0444586100481761
 31
0.0
  0
LINE
  5
175B
  8
247
 10
-121.1040660560069
 20
-2.044458610048121
 30
0.0
 11
-121.1708189856943
 21
-2.2772632975481142
 31
0.0
  0
LINE
  5
175C
  8
247
 10
-120.9829791419442
 20
-2.044458610048121
 30
0.0
 11
-121.04973207163211
 21
-2.2772632975481142
 31
0.0
  0
LINE
  5
175D
  8
247
 10
-120.9829791419442
 20
-2.044458610048121
 30
0.0
 11
-120.23196202026649
 21
-2.0444586100482049
 31
0.0
  0
LINE
  5
175E
  8
247
 10
-121.58483656381929
 20
-2.044458610048121
 30
0.0
 11
-121.1040660560069
 21
-2.044458610048121
 31
0.0
  0
LINE
  5
175F
  8
247
 10
-120.1773858265753
 20
-2.4461679414914479
 30
0.0
 11
-119.8870955864142
 21
-2.155877701330307
 31
0.0
  0
LINE
  5
1760
  8
247
 10
-121.04973207163211
 20
-2.2772632975481142
 30
0.0
 11
-120.9286363685071
 21
-2.2772632975488518
 31
0.0
  0
LINE
  5
1761
  8
247
 10
-121.58483656381929
 20
-2.2772632975481142
 30
0.0
 11
-121.1708189856943
 21
-2.2772632975481142
 31
0.0
  0
LINE
  5
1762
  8
247
 10
-120.9866328521243
 20
-2.4795208381799889
 30
0.0
 11
-120.5515706239925
 21
-2.0444586100481761
 31
0.0
  0
LINE
  5
1763
  8
247
 10
-120.1475468754261
 20
-2.674960366629004
 30
0.0
 11
-119.75797070577541
 21
-2.2853841969782822
 31
0.0
  0
ARC
  5
1764
  8
247
 10
-120.22956312631941
 20
-2.6264615397356121
 30
0.0
 40
0.5820078735351563
 50
287.66957754739968
 51
90.236159842671626
  0
LINE
  5
1765
  8
247
 10
-121.0906090095722
 20
-2.8421283719147361
 30
0.0
 11
-120.2929392477056
 21
-2.0444586100482049
 31
0.0
  0
LINE
  5
1766
  8
247
 10
-120.5054364232418
 20
-3.2914812907315629
 30
0.0
 11
-119.6723497998053
 21
-2.4583946672949351
 31
0.0
  0
LINE
  5
1767
  8
247
 10
-119.7916041419444
 20
-4.1396834940812921
 30
0.0
 11
-119.2642340247569
 21
-2.3005367350481079
 31
0.0
  0
LINE
  5
1768
  8
247
 10
-120.3491416718206
 20
-2.283348223493828
 30
0.0
 11
-120.5399224960241
 21
-2.9486949197053711
 31
0.0
  0
ARC
  5
1769
  8
247
 10
-120.48928871225679
 20
-2.6031881022356438
 30
0.0
 40
0.349197280883789
 50
261.6626016879294
 51
66.338155095189762
  0
LINE
  5
176A
  8
247
 10
-121.19458516702009
 20
-3.2047359056494238
 30
0.0
 11
-120.3796720901156
 21
-2.3898228287449501
 31
0.0
  0
LINE
  5
176B
  8
247
 10
-121.46267738413189
 20
-4.1396834940812921
 30
0.0
 11
-120.9286363685071
 21
-2.2772632975488518
 31
0.0
  0
ARC
  5
176C
  8
247
 10
-116.8589312903819
 20
-3.2666744303606201
 30
0.0
 40
1.2222158203124971
 50
270.0
 51
104.7707939660941
  0
ARC
  5
176D
  8
247
 10
-116.8589312903819
 20
-3.2666744303606201
 30
0.0
 40
0.9894111328124999
 50
270.0
 51
104.1274364964102
  0
LINE
  5
176E
  8
247
 10
-117.8510142981944
 20
-3.7065318522356092
 30
0.0
 11
-117.7015211341318
 21
-3.185191031923106
 31
0.0
  0
LINE
  5
176F
  8
247
 10
-117.8952672278819
 20
-3.185191031923106
 30
0.0
 11
-117.7015211341318
 21
-3.185191031923106
 31
0.0
  0
LINE
  5
1770
  8
247
 10
-117.6274117591319
 20
-4.003127830018836
 30
0.0
 11
-117.4908473060069
 21
-4.1396834940812921
 31
0.0
  0
LINE
  5
1771
  8
247
 10
-117.8952672278819
 20
-3.185191031923106
 30
0.0
 11
-117.82851429819441
 21
-2.9523863444231151
 31
0.0
  0
LINE
  5
1772
  8
247
 10
-117.82851429819441
 20
-2.9523863444231151
 30
0.0
 11
-117.1503941810069
 21
-2.9523863444231151
 31
0.0
  0
LINE
  5
1773
  8
247
 10
-117.4908473060069
 20
-4.1396834940812921
 30
0.0
 11
-117.1503941810069
 21
-2.9523863444231151
 31
0.0
  0
POLYLINE
  5
1774
  8
247
 66
     1
 10
0.0
 20
0.0
 30
0.0
 70
     1
1001
HATCH_DISTANCE
1040
1.0
1001
HATCH_DISPLAY
1070
     0
1001
HATCH_TYPE
1070
     7
  0
VERTEX
  5
1775
  8
247
 10
-117.10042836069439
 20
-2.3071812662981119
 30
0.0
  0
VERTEX
  5
1776
  8
247
 10
-117.1705387122569
 20
-2.084844352235629
 30
0.0
  0
VERTEX
  5
1777
  8
247
 10
-117.1705387122569
 20
-2.084844352235629
 30
0.0
  0
VERTEX
  5
1778
  8
247
 10
-117.10042836069439
 20
-2.3071812662981119
 30
0.0
  0
SEQEND
  5
1779
  8
247
  0
POLYLINE
  5
177A
  8
247
 66
     1
 10
0.0
 20
0.0
 30
0.0
 70
     1
  0
VERTEX
  5
177B
  8
247
 10
-117.10042836069439
 20
-2.3071812662981119
 30
0.0
  0
VERTEX
  5
177C
  8
247
 10
-117.1705387122569
 20
-2.084844352235629
 30
0.0
  0
VERTEX
  5
177D
  8
247
 10
-117.1705387122569
 20
-2.084844352235629
 30
0.0
  0
VERTEX
  5
177E
  8
247
 10
-117.10042836069439
 20
-2.3071812662981119
 30
0.0
  0
SEQEND
  5
177F
  8
247
  0
LINE
  5
1780
  8
247
 10
-117.10042836069439
 20
-2.3071812662981119
 30
0.0
 11
-117.1705387122569
 21
-2.084844352235629
 31
0.0
  0
POLYLINE
  5
1781
  8
247
 66
     1
 10
0.0
 20
0.0
 30
0.0
 70
     1
1001
HATCH_DISTANCE
1040
1.0
1001
HATCH_DISPLAY
1070
     0
1001
HATCH_TYPE
1070
     7
  0
VERTEX
  5
1782
  8
247
 10
-117.10042836069439
 20
-2.3071812662981119
 30
0.0
  0
VERTEX
  5
1783
  8
247
 10
-117.1705387122569
 20
-2.084844352235629
 30
0.0
  0
VERTEX
  5
1784
  8
247
 10
-117.1705387122569
 20
-2.084844352235629
 30
0.0
  0
VERTEX
  5
1785
  8
247
 10
-117.10042836069439
 20
-2.3071812662981119
 30
0.0
  0
SEQEND
  5
1786
  8
247
  0
POLYLINE
  5
1787
  8
247
 66
     1
 10
0.0
 20
0.0
 30
0.0
 70
     1
  0
VERTEX
  5
1788
  8
247
 10
-117.10042836069439
 20
-2.3071812662981119
 30
0.0
  0
VERTEX
  5
1789
  8
247
 10
-117.1705387122569
 20
-2.084844352235629
 30
0.0
  0
VERTEX
  5
178A
  8
247
 10
-117.1705387122569
 20
-2.084844352235629
 30
0.0
  0
VERTEX
  5
178B
  8
247
 10
-117.10042836069439
 20
-2.3071812662981119
 30
0.0
  0
SEQEND
  5
178C
  8
247
  0
LINE
  5
178D
  8
247
 10
-117.2114430091319
 20
-2.342188102235621
 30
0.0
 11
-117.2815533606944
 21
-2.119851188173083
 31
0.0
  0
ARC
  5
178E
  8
247
 10
-116.8589312903819
 20
-3.2666744303606201
 30
0.0
 40
1.222216369628905
 50
110.22964506332001
 51
118.57168892371681
  0
ARC
  5
178F
  8
247
 10
-117.7722379310069
 20
-2.5449869303606181
 30
0.0
 40
0.2444448051452637
 50
1.710121382062735
 51
163.9983983544472
  0
ARC
  5
1790
  8
247
 10
-116.8589312903819
 20
-3.2666744303606201
 30
0.0
 40
0.9894138793945311
 50
110.8721834020737
 51
132.54194893738779
  0
ARC
  5
1791
  8
247
 10
-116.82396839975679
 20
-3.4228560709856111
 30
0.0
 40
1.9799648437499999
 50
155.2051773698411
 51
172.79482596205219
  0
ARC
  5
1792
  8
247
 10
-118.08598988413191
 20
-3.6391548991106322
 30
0.0
 40
0.2444446334838867
 50
164.00027305718189
 51
344.00027305718248
  0
LINE
  5
1793
  8
247
 10
-118.3209654700694
 20
-3.5717779459856271
 30
0.0
 11
-118.0072135169444
 21
-2.477601188173121
 31
0.0
  0
ARC
  5
1794
  8
247
 10
-117.89410707163179
 20
-2.801065055360604
 30
0.0
 40
0.7566075439453125
 50
53.444012197057511
 51
164.00018438768521
  0
LINE
  5
1795
  8
240
 10
-0.2531358191361617
 20
2.844061612812562
 30
0.0
 11
-0.0590232694408839
 21
3.0381741625078411
 31
0.0
  0
LINE
  5
1796
  8
241
 10
-5.3182652455887833
 20
4.8499999999999091
 30
0.0
 11
-6.847248368831635
 21
3.3210168767756181
 31
0.0
  0
LINE
  5
1797
  8
241
 10
-55.531815475576529
 20
-5.0000000000000844
 30
0.0
 11
-55.531815475576529
 21
-2.8870890253511421
 31
0.0
  0
ARC
  5
1798
  8
241
 10
32.526105572085989
 20
14.77176815655015
 30
0.0
 40
37.099607732946403
 50
201.5827828294168
 51
207.92677728383569
  0
CIRCLE
  5
1799
  8
246
 10
-3.4531358204807741
 20
3.1795955182873441
 30
0.0
 40
2.5000000006269589
  0
ARC
  5
179A
  8
241
 10
-3.4531358191750021
 20
-0.0730956747516699
 30
0.0
 40
0.2
 50
224.99999998386761
 51
315.00000000034339
1001
GENIUS_GENODEF_13
1002
{
1000
HIER
1070
     0
1002
}
1002
{
1000
MANEDIT
1070
     0
1002
}
1002
{
1000
NOSEL
1070
     0
1002
}
1002
{
1000
BEHIND
1070
     0
1002
}
1002
{
1000
OTHER
1070
     0
1002
}
1002
{
1000
REACTOR
1002
}
1001
GENIUS_GENOBJ-N-FIL_13
1002
{
1000
OWNER
1000
GEN
1002
}
  0
ARC
  5
179B
  8
240
 10
-0.2004446256781939
 20
3.1795955187451499
 30
0.0
 40
0.2
 50
315.00000000000028
 51
45.00000001578519
1001
GENIUS_GENOBJ-N-FIL_13
1002
{
1000
OWNER
1000
GEN
1002
}
1001
GENIUS_GENODEF_13
1002
{
1000
HIER
1070
     0
1002
}
1002
{
1000
MANEDIT
1070
     0
1002
}
1002
{
1000
NOSEL
1070
     0
1002
}
1002
{
1000
BEHIND
1070
     0
1002
}
1002
{
1000
OTHER
1070
     0
1002
}
1002
{
1000
REACTOR
1002
}
  0
ARC
  5
179C
  8
240
 10
-3.4531358209287042
 20
6.4322867121644398
 30
0.0
 40
0.2
 50
45.000000000000497
 51
134.99999998386491
1001
GENIUS_GENODEF_13
1002
{
1000
HIER
1070
     0
1002
}
1002
{
1000
MANEDIT
1070
     0
1002
}
1002
{
1000
NOSEL
1070
     0
1002
}
1002
{
1000
BEHIND
1070
     0
1002
}
1002
{
1000
OTHER
1070
     0
1002
}
1002
{
1000
REACTOR
1002
}
1001
GENIUS_GENOBJ-N-FIL_13
1002
{
1000
OWNER
1000
GEN
1002
}
  0
ARC
  5
179D
  8
241
 10
-6.7058270125943249
 20
3.179595520538308
 30
0.0
 40
0.2
 50
135.00000000000031
 51
225.0000000000002
1001
GENIUS_GENOBJ-N-FIL_13
1002
{
1000
OWNER
1000
GEN
1002
}
1001
GENIUS_GENODEF_13
1002
{
1000
HIER
1070
     0
1002
}
1002
{
1000
MANEDIT
1070
     0
1002
}
1002
{
1000
NOSEL
1070
     0
1002
}
1002
{
1000
BEHIND
1070
     0
1002
}
1002
{
1000
OTHER
1070
     0
1002
}
1002
{
1000
REACTOR
1002
}
  0
ARC
  5
179E
  8
241
 10
-37.6696296441851
 20
-2.7923570449359238
 30
0.0
 40
17.862437034830219
 50
175.40455671462689
 51
180.30386492594039
  0
ARC
  5
179F
  8
241
 10
-51.09557063231609
 20
-1.531768636434889
 30
0.0
 40
4.3823925115313909
 50
159.5415553184956
 51
177.7697323376068
  0
ARC
  5
17A0
  8
241
 10
-53.712019926012111
 20
-0.6876493274881331
 30
0.0
 40
1.6405959450276011
 50
79.409416954282776
 51
155.2193135347907
  0
LINE
  5
17A1
  8
245
 10
-129.88687925324149
 20
-0.000000000000056
 30
0.0
 11
1.8346042923699311
 21
0.0000000000000009
 31
0.0
  0
LINE
  5
17A2
  8
240
 10
-55.80313581913618
 20
5.9999999999998872
 30
0.0
 11
-124.8531358191361
 21
5.9999999999998872
 31
0.0
  0
LINE
  5
17A3
  8
240
 10
-124.8531358191361
 20
-6.000000000000111
 30
0.0
 11
-55.80313581913618
 21
-6.000000000000111
 31
0.0
  0
LINE
  5
17A4
  8
240
 10
-125.8531358191361
 20
-5.000000000000111
 30
0.0
 11
-125.8531358191361
 21
4.9999999999998872
 31
0.0
  0
ARC
  5
17A5
  8
240
 10
-124.8531358191361
 20
-5.000000000000111
 30
0.0
 40
1.0
 50
180.0
 51
270.0
  0
ARC
  5
17A6
  8
240
 10
-124.8531358191361
 20
4.9999999999998872
 30
0.0
 40
1.0
 50
90.0
 51
180.0
  0
LINE
  5
17A7
  8
245
 10
1.8346042923699311
 20
1.8499999999998229
 30
0.0
 11
-57.771778258352697
 21
1.8500000000000509
 31
0.0
  0
LINE
  5
17A8
  8
241
 10
-53.410495132016877
 20
0.9249999999998984
 30
0.0
 11
-4.7340742063625312
 21
0.9249999999998987
 31
0.0
  0
LINE
  5
17A9
  8
240
 10
-5.3182652437753433
 20
4.8499999999999091
 30
0.0
 11
-53.410495132016877
 21
4.8499999999999091
 31
0.0
  0
LINE
  5
17AA
  8
240
 10
-53.531815475576529
 20
-3.000000000000111
 30
0.0
 11
-0.2531358191361617
 21
-3.000000000000111
 31
0.0
  0
LINE
  5
17AB
  8
241
 10
-54.653135819136182
 20
5.1194608366267849
 30
0.0
 11
-54.653135819136182
 21
0.7174371029393009
 31
0.0
  0
LINE
  5
17AC
  8
241
 10
-55.80313581913618
 20
-0.0000000000001128
 30
0.0
 11
-55.80313581913618
 21
5.9999999999998872
 31
0.0
  0
LINE
  5
17AD
  8
241
 10
-55.80313581913618
 20
-6.000000000000111
 30
0.0
 11
-55.80313581913618
 21
-0.0000000000001128
 31
0.0
  0
ARC
  5
17AE
  8
240
 10
-53.531815475576529
 20
-5.0000000000000844
 30
0.0
 40
2.0
 50
90.0
 51
180.0
  0
LINE
  5
17AF
  8
240
 10
-55.531815475576529
 20
-5.7286796564404741
 30
0.0
 11
-55.531815475576529
 21
-5.0000000000000844
 31
0.0
  0
LINE
  5
17B0
  8
240
 10
-55.80313581913618
 20
-6.000000000000111
 30
0.0
 11
-55.531815475576529
 21
-5.7286796564404741
 31
0.0
  0
ARC
  5
17B1
  8
240
 10
-53.410495132016877
 20
7.8499999999999091
 30
0.0
 40
3.0000000000000231
 50
224.9999999999996
 51
270.0
  0
LINE
  5
17B2
  8
240
 10
-55.531815475576529
 20
5.7286796564402493
 30
0.0
 11
-55.80313581913618
 21
5.9999999999998872
 31
0.0
  0
LINE
  5
17B3
  8
240
 10
-3.5945571771261871
 20
6.573708068441575
 30
0.0
 11
-5.3182652455887833
 21
4.8499999999999091
 31
0.0
  0
LINE
  5
17B4
  8
240
 10
-0.0590232694798466
 20
3.3210168750214222
 30
0.0
 11
-3.311714464691395
 21
6.5737080684017508
 31
0.0
  0
LINE
  5
17B5
  8
241
 10
-6.8472483688316341
 20
3.0381741643009992
 30
0.0
 11
-3.594557175452131
 21
-0.2145170309491602
 31
0.0
  0
LINE
  5
17B6
  8
240
 10
-0.2531358191361617
 20
2.844061612773598
 30
0.0
 11
-0.2531358191361617
 21
-3.000000000000111
 31
0.0
  0
LINE
  5
17B7
  8
241
 10
-3.3117144629368438
 20
-0.2145170309881319
 30
0.0
 11
-0.2531358191361617
 21
2.844061612812562
 31
0.0
  0
ENDBLK
  5
17BA
  8
0
  0
BLOCK
  8
0
  2
*U9
 70
     1
 10
0.0
 20
0.0
 30
0.0
  3
*U9
  1

  0
TEXT
  5
17D5
  8
250
 62
    40
 10
198.00000280970769
 20
49.561081863430729
 30
0.0
 40
3.0
  1
\U+2205
 50
90.0
  0
TEXT
  5
17D6
  8
250
 62
    40
 10
198.00000280970769
 20
52.275367577716459
 30
0.0
 40
3.0
  1
13.4
 50
90.0
  0
ENDBLK
  5
17D8
  8
0
  0
BLOCK
  8
0
  2
*U10
 70
     1
 10
0.0
 20
0.0
 30
0.0
  3
*U10
  1

  0
TEXT
  5
17DA
  8
250
 62
    40
 10
170.06113514485909
 20
69.444018960564364
 30
0.0
 40
3.0
  1
45üï
 50
20.703594083046809
  0
ENDBLK
  5
17DC
  8
0
  0
BLOCK
  8
0
  2
*U11
 70
     1
 10
0.0
 20
0.0
 30
0.0
  3
*U11
  1

  0
TEXT
  5
17DE
  8
250
 62
    40
 10
132.00000305217279
 20
38.481081863430852
 30
0.0
 40
3.0
  1
\U+2205
 50
90.0
  0
TEXT
  5
17DF
  8
250
 62
    40
 10
132.00000305217279
 20
41.195367577716567
 30
0.0
 40
3.0
  1
9.7
 50
90.0
  0
ENDBLK
  5
17E1
  8
0
  0
BLOCK
  8
0
  2
*U12
 70
     1
 10
0.0
 20
0.0
 30
0.0
  3
*U12
  1

  0
TEXT
  5
17E3
  8
250
 62
    40
 10
139.0000000000002
 20
65.491081863430296
 30
0.0
 40
3.0
  1
\U+2205
 50
90.0
  0
TEXT
  5
17E4
  8
250
 62
    40
 10
139.0000000000002
 20
68.205367577716032
 30
0.0
 40
3.0
  1
9.7
 50
90.0
  0
ENDBLK
  5
17E6
  8
0
  0
BLOCK
  8
0
  2
*U13
 70
     1
 10
0.0
 20
0.0
 30
0.0
  3
*U13
  1

  0
TEXT
  5
17E8
  8
250
 62
    40
 10
109.6769716368072
 20
27.000000000000089
 30
0.0
 40
3.0
  1
125.9
  0
ENDBLK
  5
17EA
  8
0
  0
BLOCK
  8
0
  2
*U14
 70
     1
 10
0.0
 20
0.0
 30
0.0
  3
*U14
  1

  0
TEXT
  5
17EC
  8
250
 62
    40
 10
83.921832298667724
 20
34.000000000000092
 30
0.0
 40
3.0
  1
71.2
  0
ENDBLK
  5
17EE
  8
0
  0
BLOCK
  8
0
  2
*U15
 70
     1
 10
0.0
 20
0.0
 30
0.0
  3
*U15
  1

  0
TEXT
  5
17F0
  8
250
 62
    40
 10
40.999999999999957
 20
51.775367577716381
 30
0.0
 40
3.0
  1
\U+2205
 50
90.0
  0
TEXT
  5
17F1
  8
250
 62
    40
 10
40.999999999999957
 20
54.489653292002089
 30
0.0
 40
3.0
  1
12
 50
90.0
  0
ENDBLK
  5
17F3
  8
0
  0
BLOCK
  8
0
  2
*U16
 70
     1
 10
0.0
 20
0.0
 30
0.0
  3
*U16
  1

  0
TEXT
  5
17F5
  8
250
 62
    40
 10
146.8484002082358
 20
34.000000000000092
 30
0.0
 40
3.0
  1
54.7
  0
ENDBLK
  5
17F7
  8
0
  0
BLOCK
  8
0
  2
*U17
 70
     1
 10
0.0
 20
0.0
 30
0.0
  3
*U17
  1

  0
TEXT
  5
17F9
  8
250
 62
    40
 10
190.99999999999989
 20
40.81536757771643
 30
0.0
 40
3.0
  1
1.85
 50
90.0
  0
ENDBLK
  5
17FB
  8
0
  0
BLOCK
  8
0
  2
*U18
 70
     1
 10
0.0
 20
0.0
 30
0.0
  3
*U18
  1

  0
TEXT
  5
17FD
  8
250
 62
    40
 10
-31.993234576234769
 20
-21.8467961491449
 30
0.0
 40
2.799999999999998
  1
54.7
  0
ENDBLK
  5
17FF
  8
0
  0
BLOCK
  8
0
  2
*U19
 70
     1
 10
0.0
 20
0.0
 30
0.0
  3
*U19
  1

  0
TEXT
  5
1801
  8
250
 62
    40
 10
-47.174965065631042
 20
-17.141904761904591
 30
0.0
 40
3.0
  1
\U+2205
 50
90.0
  0
TEXT
  5
1802
  8
250
 62
    40
 10
-47.274965065631037
 20
-14.427619047618879
 30
0.0
 40
2.799999999999998
  1
9.7
 50
90.0
  0
ENDBLK
  5
1804
  8
0
  0
BLOCK
  8
0
  2
*U20
 70
     1
 10
0.0
 20
0.0
 30
0.0
  3
*U20
  1

  0
TEXT
  5
1806
  8
250
 62
    40
 10
-138.1749681178039
 20
-3.8952380952381551
 30
0.0
 40
3.0
  1
\U+2205
 50
90.0
  0
TEXT
  5
1807
  8
250
 62
    40
 10
-138.27496811780381
 20
-1.18095238095244
 30
0.0
 40
2.799999999999998
  1
12
 50
90.0
  0
ENDBLK
  5
1809
  8
0
  0
BLOCK
  8
0
  2
*U21
 70
     1
 10
0.0
 20
0.0
 30
0.0
  3
*U21
  1

  0
TEXT
  5
180B
  8
250
 62
    40
 10
-94.919802485802862
 20
-21.8467961491449
 30
0.0
 40
2.799999999999998
  1
71.2
  0
ENDBLK
  5
180D
  8
0
  0
BLOCK
  8
0
  2
*U22
 70
     1
 10
0.0
 20
0.0
 30
0.0
  3
*U22
  1

  0
TEXT
  5
180F
  8
250
 62
    40
 10
-69.059901242901404
 20
-28.84679614914489
 30
0.0
 40
2.799999999999998
  1
125.9
  0
ENDBLK
  5
1811
  8
0
  0
BLOCK
  8
0
  2
*U23
 70
     1
 10
0.0
 20
0.0
 30
0.0
  3
*U23
  1

  0
TEXT
  5
1813
  8
250
 62
    40
 10
-8.8100435892298936
 20
13.71203703147391
 30
0.0
 40
2.799999999999998
  1
45üï
 50
20.703594083047051
  0
ENDBLK
  5
1815
  8
0
  0
BLOCK
  8
0
  2
*U24
 70
     1
 10
0.0
 20
0.0
 30
0.0
  3
*U24
  1

  0
TEXT
  5
1817
  8
250
 62
    40
 10
-40.174968117803701
 20
9.8680952380948472
 30
0.0
 40
3.0
  1
\U+2205
 50
90.0
  0
TEXT
  5
1818
  8
250
 62
    40
 10
-40.274968117803688
 20
12.582380952380561
 30
0.0
 40
2.799999999999998
  1
9.7
 50
90.0
  0
ENDBLK
  5
181A
  8
0
  0
BLOCK
  8
0
  2
*U25
 70
     1
 10
0.0
 20
0.0
 30
0.0
  3
*U25
  1

  0
TEXT
  5
181C
  8
250
 62
    40
 10
18.825034691903959
 20
-5.9619047619047123
 30
0.0
 40
3.0
  1
\U+2205
 50
90.0
  0
TEXT
  5
181D
  8
250
 62
    40
 10
18.725034691903961
 20
-3.247619047618997
 30
0.0
 40
2.799999999999998
  1
13.4
 50
90.0
  0
ENDBLK
  5
181F
  8
0
  0
BLOCK
  8
0
  2
*U26
 70
     1
 10
0.0
 20
0.0
 30
0.0
  3
*U26
  1

  0
TEXT
  5
1821
  8
250
 62
    40
 10
11.82503188219601
 20
-14.68380952380949
 30
0.0
 40
2.799999999999998
  1
1.85
 50
90.0
  0
ENDBLK
  5
1823
  8
0
  0
ENDSEC
  0
SECTION
  2
ENTITIES
  0
TEXT
  5
1458
  8
251
 62
    40
 10
-126.6760062065418
 20
21.033650973628252
 30
0.0
 40
3.0
  1
ST12-CM12-45B-53
  7
YOKO
 11
-126.6760062065418
 21
21.033650973628252
 31
0.0
 73
     1
  0
LINE
  5
168B
  8
250
 10
0.0
 20
3.7619936055029091
 30
0.0
 11
0.0000000000000011
 21
16.151838362947931
 31
0.0
  0
LINE
  5
168C
  8
250
 10
-3.665806004448938
 20
6.9277996099517853
 30
0.0
 11
-9.1144966364313156
 21
12.37649024193407
 31
0.0
  0
ARC
  5
168D
  8
250
 10
0.0000000000000004
 20
3.2619936055029091
 30
0.0
 40
11.889844757445021
 50
100.7619240004983
 51
124.2380759995022
  0
LINE
  5
1691
  8
250
 10
-125.8531358191362
 20
-5.5000000000000551
 30
0.0
 11
-125.8531358191362
 21
-30.84679614914489
 31
0.0
  0
LINE
  5
1692
  8
250
 10
0.0000000000000002
 20
2.679595518706321
 30
0.0
 11
-0.0000000000000019
 21
-30.84679614914489
 31
0.0
  0
LINE
  5
1693
  8
250
 10
-123.6231358191361
 20
-29.84679614914489
 30
0.0
 11
-2.2300000000000022
 21
-29.84679614914489
 31
0.0
  0
LINE
  5
1697
  8
250
 10
-54.653135819136182
 20
0.217437102939301
 30
0.0
 11
-54.653135819136182
 21
-23.84679614914489
 31
0.0
  0
LINE
  5
1698
  8
250
 10
0.0000000000000002
 20
2.679595518706321
 30
0.0
 11
-0.0000000000000015
 21
-23.84679614914489
 31
0.0
  0
LINE
  5
1699
  8
250
 10
-52.423135819136199
 20
-22.84679614914489
 30
0.0
 11
-2.23
 21
-22.84679614914489
 31
0.0
  0
LINE
  5
169D
  8
250
 10
-125.3531358191362
 20
-6.0000000000000551
 30
0.0
 11
-138.1749681178039
 21
-6.0000000000000497
 31
0.0
  0
LINE
  5
169E
  8
250
 10
-125.3531358191362
 20
5.9999999999999707
 30
0.0
 11
-138.1749681178039
 21
5.999999999999976
 31
0.0
  0
LINE
  5
169F
  8
250
 10
-137.1749681178039
 20
-3.7700000000000511
 30
0.0
 11
-137.1749681178039
 21
3.769999999999976
 31
0.0
  0
LINE
  5
16A3
  8
250
 10
2.3346042923699311
 20
0.0000000000000007
 30
0.0
 11
13.82503188219601
 21
-0.0000000000000025
 31
0.0
  0
LINE
  5
16A4
  8
250
 10
2.3346042923699311
 20
1.8499999999998229
 30
0.0
 11
13.82503188219601
 21
1.84999999999982
 31
0.0
  0
LINE
  5
16A5
  8
250
 10
12.82503188219602
 20
4.0799999999998198
 30
0.0
 11
12.82503188219602
 21
6.3099999999998211
 31
0.0
  0
LINE
  5
16A6
  8
250
 10
12.82503188219601
 20
-2.2300000000000022
 30
0.0
 11
12.82503188219601
 21
-14.883809523809489
 31
0.0
  0
LINE
  5
16A7
  8
250
 10
12.82503188219601
 20
1.84999999999982
 30
0.0
 11
12.82503188219601
 21
-0.0000000000000022
 31
0.0
  0
LINE
  5
16AB
  8
250
 10
-2.9531358191362069
 20
6.6999999999999877
 30
0.0
 11
20.825034691903969
 21
6.6999999999999824
 31
0.0
  0
LINE
  5
16AC
  8
250
 10
19.825034691903959
 20
4.4699999999999811
 30
0.0
 11
19.825034691903959
 21
-6.6761904761904276
 31
0.0
  0
TEXT
  5
16AF
  8
250
 10
18.825034691903959
 20
-5.9619047619047123
 30
0.0
 40
3.0
  1
\U+2205
 50
90.0
  0
TEXT
  5
16B0
  8
250
 10
18.725034691903961
 20
-3.247619047618997
 30
0.0
 40
2.799999999999998
  1
13.4
 50
90.0
  0
LINE
  5
16B1
  8
250
 10
19.4533680252373
 20
4.4699999999999811
 30
0.0
 11
19.825034691903959
 21
6.6999999999999824
 31
0.0
  0
LINE
  5
16B2
  8
250
 10
20.196701358570628
 20
4.4699999999999811
 30
0.0
 11
19.825034691903959
 21
6.6999999999999824
 31
0.0
  0
LINE
  5
16B3
  8
250
 10
19.825034691903959
 20
6.6999999999999824
 30
0.0
 11
19.825034691903959
 21
4.4699999999999811
 31
0.0
  0
TEXT
  5
16B4
  8
250
 10
11.82503188219601
 20
-14.68380952380949
 30
0.0
 40
2.799999999999998
  1
1.85
 50
90.0
  0
LINE
  5
16B5
  8
250
 10
12.453365215529351
 20
-2.2300000000000022
 30
0.0
 11
12.82503188219601
 21
-0.0000000000000022
 31
0.0
  0
LINE
  5
16B6
  8
250
 10
13.196698548862679
 20
-2.2300000000000022
 30
0.0
 11
12.82503188219601
 21
-0.0000000000000022
 31
0.0
  0
LINE
  5
16B7
  8
250
 10
12.82503188219601
 20
-0.0000000000000022
 30
0.0
 11
12.82503188219601
 21
-2.2300000000000022
 31
0.0
  0
LINE
  5
16B8
  8
250
 10
13.196698548862679
 20
4.0799999999998198
 30
0.0
 11
12.82503188219601
 21
1.84999999999982
 31
0.0
  0
LINE
  5
16B9
  8
250
 10
12.453365215529351
 20
4.0799999999998198
 30
0.0
 11
12.82503188219601
 21
1.84999999999982
 31
0.0
  0
LINE
  5
16BA
  8
250
 10
12.82503188219601
 20
1.84999999999982
 30
0.0
 11
12.82503188219601
 21
4.0799999999998198
 31
0.0
  0
TEXT
  5
16BB
  8
250
 10
-8.8100435892298936
 20
13.71203703147391
 30
0.0
 40
2.799999999999998
  1
45üï
 50
20.703594083047051
  0
LINE
  5
16BC
  8
250
 10
-6.4526133423149368
 20
12.80511445689452
 30
0.0
 11
-8.4073898552447623
 21
11.669383460747531
 31
0.0
  0
LINE
  5
16BD
  8
250
 10
-6.926622125548004
 20
13.37770516399895
 30
0.0
 11
-8.4073898552447623
 21
11.669383460747531
 31
0.0
  0
LINE
  5
16BE
  8
250
 10
-8.4073898552447623
 20
11.669383460747531
 30
0.0
 11
-6.6896177339314722
 21
13.091409810446731
 31
0.0
  0
LINE
  5
16BF
  8
250
 10
-2.255026763848015
 20
15.31274332073435
 30
0.0
 11
0.0000000000000011
 21
15.151838362947929
 31
0.0
  0
LINE
  5
16C0
  8
250
 10
-2.185318816976153
 20
14.57268572393032
 30
0.0
 11
0.0000000000000011
 21
15.151838362947929
 31
0.0
  0
LINE
  5
16C1
  8
250
 10
0.0000000000000011
 20
15.151838362947929
 30
0.0
 11
-2.220172790412084
 21
14.94271452233234
 31
0.0
  0
TEXT
  5
16C2
  8
250
 10
-31.993234576234769
 20
-21.8467961491449
 30
0.0
 40
2.799999999999998
  1
54.7
  0
LINE
  5
16C3
  8
250
 10
-2.23
 20
-22.475129482478231
 30
0.0
 11
-0.0000000000000014
 21
-22.84679614914489
 31
0.0
  0
LINE
  5
16C4
  8
250
 10
-2.23
 20
-23.218462815811559
 30
0.0
 11
-0.0000000000000014
 21
-22.84679614914489
 31
0.0
  0
LINE
  5
16C5
  8
250
 10
-0.0000000000000014
 20
-22.84679614914489
 30
0.0
 11
-2.23
 21
-22.84679614914489
 31
0.0
  0
LINE
  5
16C6
  8
250
 10
-52.423135819136199
 20
-23.218462815811559
 30
0.0
 11
-54.653135819136182
 21
-22.84679614914489
 31
0.0
  0
LINE
  5
16C7
  8
250
 10
-52.423135819136199
 20
-22.475129482478231
 30
0.0
 11
-54.653135819136182
 21
-22.84679614914489
 31
0.0
  0
LINE
  5
16C8
  8
250
 10
-54.653135819136182
 20
-22.84679614914489
 30
0.0
 11
-52.423135819136199
 21
-22.84679614914489
 31
0.0
  0
TEXT
  5
16C9
  8
250
 10
-69.059901242901404
 20
-28.84679614914489
 30
0.0
 40
2.799999999999998
  1
125.9
  0
LINE
  5
16CA
  8
250
 10
-2.2300000000000022
 20
-29.475129482478231
 30
0.0
 11
-0.0000000000000018
 21
-29.84679614914489
 31
0.0
  0
LINE
  5
16CB
  8
250
 10
-2.2300000000000022
 20
-30.218462815811559
 30
0.0
 11
-0.0000000000000018
 21
-29.84679614914489
 31
0.0
  0
LINE
  5
16CC
  8
250
 10
-0.0000000000000018
 20
-29.84679614914489
 30
0.0
 11
-2.2300000000000022
 21
-29.84679614914489
 31
0.0
  0
LINE
  5
16CD
  8
250
 10
-123.6231358191361
 20
-30.218462815811559
 30
0.0
 11
-125.8531358191362
 21
-29.84679614914489
 31
0.0
  0
LINE
  5
16CE
  8
250
 10
-123.6231358191361
 20
-29.475129482478231
 30
0.0
 11
-125.8531358191362
 21
-29.84679614914489
 31
0.0
  0
LINE
  5
16CF
  8
250
 10
-125.8531358191362
 20
-29.84679614914489
 30
0.0
 11
-123.6231358191361
 21
-29.84679614914489
 31
0.0
  0
TEXT
  5
16D0
  8
250
 10
-138.1749681178039
 20
-3.8952380952381529
 30
0.0
 40
3.0
  1
\U+2205
 50
90.0
  0
TEXT
  5
16D1
  8
250
 10
-138.27496811780381
 20
-1.1809523809524389
 30
0.0
 40
2.799999999999998
  1
12
 50
90.0
  0
LINE
  5
16D2
  8
250
 10
-137.5466347844706
 20
3.769999999999976
 30
0.0
 11
-137.1749681178039
 21
5.999999999999976
 31
0.0
  0
LINE
  5
16D3
  8
250
 10
-136.8033014511372
 20
3.769999999999976
 30
0.0
 11
-137.1749681178039
 21
5.999999999999976
 31
0.0
  0
LINE
  5
16D4
  8
250
 10
-137.1749681178039
 20
5.999999999999976
 30
0.0
 11
-137.1749681178039
 21
3.769999999999976
 31
0.0
  0
LINE
  5
16D5
  8
250
 10
-136.8033014511372
 20
-3.7700000000000511
 30
0.0
 11
-137.1749681178039
 21
-6.0000000000000524
 31
0.0
  0
LINE
  5
16D6
  8
250
 10
-137.5466347844706
 20
-3.7700000000000511
 30
0.0
 11
-137.1749681178039
 21
-6.0000000000000524
 31
0.0
  0
LINE
  5
16D7
  8
250
 10
-137.1749681178039
 20
-6.0000000000000524
 30
0.0
 11
-137.1749681178039
 21
-3.7700000000000511
 31
0.0
  0
TEXT
  5
1961
  8
247
 10
-114.6078233883561
 20
-4.192101795415577
 30
0.0
 40
2.0
  1
ST12-CM12-45B-53
 41
0.7
  7
YOKO
 11
-114.6078233883561
 21
-4.192101795415577
 31
0.0
 73
     1
  0
INSERT
  5
1962
  8
247
  6
CONTINUOUS
  2
*X5
 10
-110.6078233883559
 20
-0.1505001566498381
 30
0.0
 50
270.0
1001
ACAD
1000
HATCH
1002
{
1070
    19
1000
ANSI31
1040
0.0576
1040
6.2831853071795827
1002
}
  0
INSERT
  5
1963
  8
247
  6
CONTINUOUS
  2
*X6
 10
-110.6078233883559
 20
-0.1505001566498381
 30
0.0
 50
270.0
1001
ACAD
1000
HATCH
1002
{
1070
    19
1000
ANSI31
1040
0.0576
1040
6.2831853071795827
1002
}
  0
INSERT
  5
1964
  8
247
  6
CONTINUOUS
  2
*X7
 10
-110.6078233883559
 20
-0.1505001566498381
 30
0.0
 50
270.0
1001
ACAD
1000
HATCH
1002
{
1070
    19
1000
ANSI31
1040
0.0576
1040
6.2831853071795827
1002
}
  0
LINE
  5
1965
  8
247
 10
-119.2755719153819
 20
-2.044458610048121
 30
0.0
 11
-118.6701109778819
 21
-2.044458610048121
 31
0.0
  0
POLYLINE
  5
1966
  8
247
 66
     1
 10
0.0
 20
0.0
 30
0.0
 70
     1
1001
HATCH_DISTANCE
1040
1.0
1001
HATCH_DISPLAY
1070
     0
1001
HATCH_TYPE
1070
     7
  0
VERTEX
  5
1967
  8
247
 10
-119.2755719153819
 20
-2.044458610048121
 30
0.0
  0
VERTEX
  5
1968
  8
247
 10
-119.3490045325694
 20
-2.3005367350481079
 30
0.0
  0
VERTEX
  5
1969
  8
247
 10
-119.2642340247569
 20
-2.3005367350481079
 30
0.0
  0
VERTEX
  5
196A
  8
247
 10
-119.7916041419444
 20
-4.1396834940812921
 30
0.0
  0
VERTEX
  5
196B
  8
247
 10
-119.27090492319439
 20
-4.1396834940812921
 30
0.0
  0
VERTEX
  5
196C
  8
247
 10
-118.6701109778819
 20
-2.044458610048121
 30
0.0
  0
SEQEND
  5
196D
  8
247
  0
POLYLINE
  5
196E
  8
247
 66
     1
 10
0.0
 20
0.0
 30
0.0
 70
     1
  0
VERTEX
  5
196F
  8
247
 10
-119.2755719153819
 20
-2.044458610048121
 30
0.0
  0
VERTEX
  5
1970
  8
247
 10
-119.3490045325694
 20
-2.3005367350481079
 30
0.0
  0
VERTEX
  5
1971
  8
247
 10
-119.2642340247569
 20
-2.3005367350481079
 30
0.0
  0
VERTEX
  5
1972
  8
247
 10
-119.7916041419444
 20
-4.1396834940812921
 30
0.0
  0
VERTEX
  5
1973
  8
247
 10
-119.27090492319439
 20
-4.1396834940812921
 30
0.0
  0
VERTEX
  5
1974
  8
247
 10
-118.6701109778819
 20
-2.044458610048121
 30
0.0
  0
SEQEND
  5
1975
  8
247
  0
LINE
  5
1976
  8
247
 10
-119.27090492319439
 20
-4.1396834940812921
 30
0.0
 11
-118.6701109778819
 21
-2.044458610048121
 31
0.0
  0
LINE
  5
1977
  8
247
 10
-121.58483656381929
 20
-4.4888905193398161
 30
0.0
 11
-116.8589312903819
 21
-4.4888905193398161
 31
0.0
  0
LINE
  5
1978
  8
247
 10
-121.58483656381929
 20
-4.256085837831316
 30
0.0
 11
-116.8589312903819
 21
-4.256085837831316
 31
0.0
  0
ARC
  5
1979
  8
247
 10
-118.0609937903819
 20
-3.383076774110616
 30
0.0
 40
0.756615234375
 50
163.99975070172931
 51
304.96387329163002
  0
ARC
  5
197A
  8
247
 10
-121.58483656381929
 20
-3.2666744303606201
 30
0.0
 40
0.9894111328124999
 50
90.0
 51
270.0
  0
ARC
  5
197B
  8
247
 10
-121.58483656381929
 20
-3.2666744303606201
 30
0.0
 40
1.2222158203124971
 50
90.0
 51
270.0
  0
LINE
  5
197C
  8
247
 10
-119.7916041419444
 20
-4.1396834940812921
 30
0.0
 11
-119.27090492319439
 21
-4.1396834940812921
 31
0.0
  0
LINE
  5
197D
  8
247
 10
-120.2754772372751
 20
-4.0960476099119587
 30
0.0
 11
-119.9582163139555
 21
-3.7787866865923929
 31
0.0
  0
LINE
  5
197E
  8
247
 10
-121.3536386265916
 20
-4.1396834940812921
 30
0.0
 11
-120.69159773825859
 21
-3.4776426057483261
 31
0.0
  0
LINE
  5
197F
  8
247
 10
-121.0950072503049
 20
-4.1396834940812921
 30
0.0
 11
-120.7955685382114
 21
-3.8402447819878871
 31
0.0
  0
LINE
  5
1980
  8
247
 10
-120.5777444977313
 20
-4.1396834940813214
 30
0.0
 11
-119.91958484279959
 21
-3.4815238391495971
 31
0.0
  0
LINE
  5
1981
  8
247
 10
-120.6161594010666
 20
-3.2145484942270839
 30
0.0
 11
-120.80694336385569
 21
-3.8799149252862808
 31
0.0
  0
ARC
  5
1982
  8
247
 10
-120.7563092200694
 20
-3.534398063173096
 30
0.0
 40
0.3492072715759277
 50
261.66285421114719
 51
66.338192159113618
  0
LINE
  5
1983
  8
247
 10
-120.8363758740181
 20
-4.1396834940812921
 30
0.0
 11
-119.9821625442073
 21
-3.2854701642706439
 31
0.0
  0
LINE
  5
1984
  8
247
 10
-121.46267738413189
 20
-4.1396834940812921
 30
0.0
 11
-120.4965836341318
 21
-4.1396834940812921
 31
0.0
  0
LINE
  5
1985
  8
247
 10
-121.4025374819159
 20
-3.9299509731188591
 30
0.0
 11
-120.4175164478636
 21
-2.9449299390664221
 31
0.0
  0
LINE
  5
1986
  8
247
 10
-121.298561324468
 20
-3.5673434393841701
 30
0.0
 11
-120.48364481559651
 21
-2.7524269305125522
 31
0.0
  0
ARC
  5
1987
  8
247
 10
-120.4965836341318
 20
-3.557680289735639
 30
0.0
 40
0.5820029296875
 50
270.0
 51
40.329840654167107
  0
LINE
  5
1988
  8
247
 10
-120.4151558345812
 20
-3.459832078357731
 30
0.0
 11
-119.6517794434659
 21
-2.6964556872423882
 31
0.0
  0
LINE
  5
1989
  8
247
 10
-119.3490045325694
 20
-2.3005367350481079
 30
0.0
 11
-119.2755719153819
 21
-2.044458610048121
 31
0.0
  0
LINE
  5
198A
  8
247
 10
-119.3490045325694
 20
-2.3005367350481079
 30
0.0
 11
-119.2642340247569
 21
-2.3005367350481079
 31
0.0
  0
LINE
  5
198B
  8
247
 10
-120.29975379033711
 20
-2.309904528966495
 30
0.0
 11
-120.059655885978
 21
-2.069806624607319
 31
0.0
  0
LINE
  5
198C
  8
247
 10
-121.0430066877792
 20
-2.277263297548171
 30
0.0
 11
-120.8102020002792
 21
-2.0444586100481761
 31
0.0
  0
LINE
  5
198D
  8
247
 10
-121.1040660560069
 20
-2.044458610048121
 30
0.0
 11
-121.1708189856943
 21
-2.2772632975481142
 31
0.0
  0
LINE
  5
198E
  8
247
 10
-120.9829791419442
 20
-2.044458610048121
 30
0.0
 11
-121.04973207163211
 21
-2.2772632975481142
 31
0.0
  0
LINE
  5
198F
  8
247
 10
-120.9829791419442
 20
-2.044458610048121
 30
0.0
 11
-120.23196202026649
 21
-2.0444586100482049
 31
0.0
  0
LINE
  5
1990
  8
247
 10
-121.58483656381929
 20
-2.044458610048121
 30
0.0
 11
-121.1040660560069
 21
-2.044458610048121
 31
0.0
  0
LINE
  5
1991
  8
247
 10
-120.1773858265753
 20
-2.4461679414914479
 30
0.0
 11
-119.8870955864142
 21
-2.155877701330307
 31
0.0
  0
LINE
  5
1992
  8
247
 10
-121.04973207163211
 20
-2.2772632975481142
 30
0.0
 11
-120.9286363685071
 21
-2.2772632975488518
 31
0.0
  0
LINE
  5
1993
  8
247
 10
-121.58483656381929
 20
-2.2772632975481142
 30
0.0
 11
-121.1708189856943
 21
-2.2772632975481142
 31
0.0
  0
LINE
  5
1994
  8
247
 10
-120.9866328521243
 20
-2.4795208381799889
 30
0.0
 11
-120.5515706239925
 21
-2.0444586100481761
 31
0.0
  0
LINE
  5
1995
  8
247
 10
-120.1475468754261
 20
-2.674960366629004
 30
0.0
 11
-119.75797070577541
 21
-2.2853841969782822
 31
0.0
  0
ARC
  5
1996
  8
247
 10
-120.22956312631941
 20
-2.6264615397356121
 30
0.0
 40
0.5820078735351563
 50
287.66957754739968
 51
90.236159842671583
  0
LINE
  5
1997
  8
247
 10
-121.0906090095722
 20
-2.8421283719147361
 30
0.0
 11
-120.2929392477056
 21
-2.0444586100482049
 31
0.0
  0
LINE
  5
1998
  8
247
 10
-120.5054364232418
 20
-3.2914812907315629
 30
0.0
 11
-119.6723497998053
 21
-2.4583946672949351
 31
0.0
  0
LINE
  5
1999
  8
247
 10
-119.7916041419444
 20
-4.1396834940812921
 30
0.0
 11
-119.2642340247569
 21
-2.3005367350481079
 31
0.0
  0
LINE
  5
199A
  8
247
 10
-120.3491416718206
 20
-2.283348223493828
 30
0.0
 11
-120.5399224960241
 21
-2.9486949197053711
 31
0.0
  0
ARC
  5
199B
  8
247
 10
-120.48928871225679
 20
-2.6031881022356438
 30
0.0
 40
0.349197280883789
 50
261.6626016879294
 51
66.338155095189762
  0
LINE
  5
199C
  8
247
 10
-121.19458516702009
 20
-3.2047359056494238
 30
0.0
 11
-120.3796720901156
 21
-2.3898228287449501
 31
0.0
  0
LINE
  5
199D
  8
247
 10
-121.46267738413189
 20
-4.1396834940812921
 30
0.0
 11
-120.9286363685071
 21
-2.2772632975488518
 31
0.0
  0
ARC
  5
199E
  8
247
 10
-116.8589312903819
 20
-3.2666744303606201
 30
0.0
 40
1.2222158203124971
 50
270.0
 51
104.7707939660941
  0
ARC
  5
199F
  8
247
 10
-116.8589312903819
 20
-3.2666744303606201
 30
0.0
 40
0.9894111328124999
 50
270.0
 51
104.1274364964101
  0
LINE
  5
19A0
  8
247
 10
-117.8510142981944
 20
-3.7065318522356092
 30
0.0
 11
-117.7015211341318
 21
-3.185191031923106
 31
0.0
  0
LINE
  5
19A1
  8
247
 10
-117.8952672278819
 20
-3.185191031923106
 30
0.0
 11
-117.7015211341318
 21
-3.185191031923106
 31
0.0
  0
LINE
  5
19A2
  8
247
 10
-117.6274117591319
 20
-4.003127830018836
 30
0.0
 11
-117.4908473060069
 21
-4.1396834940812921
 31
0.0
  0
LINE
  5
19A3
  8
247
 10
-117.8952672278819
 20
-3.185191031923106
 30
0.0
 11
-117.82851429819441
 21
-2.9523863444231151
 31
0.0
  0
LINE
  5
19A4
  8
247
 10
-117.82851429819441
 20
-2.9523863444231151
 30
0.0
 11
-117.1503941810069
 21
-2.9523863444231151
 31
0.0
  0
LINE
  5
19A5
  8
247
 10
-117.4908473060069
 20
-4.1396834940812921
 30
0.0
 11
-117.1503941810069
 21
-2.9523863444231151
 31
0.0
  0
POLYLINE
  5
19A6
  8
247
 66
     1
 10
0.0
 20
0.0
 30
0.0
 70
     1
1001
HATCH_DISTANCE
1040
1.0
1001
HATCH_DISPLAY
1070
     0
1001
HATCH_TYPE
1070
     7
  0
VERTEX
  5
19A7
  8
247
 10
-117.10042836069439
 20
-2.3071812662981119
 30
0.0
  0
VERTEX
  5
19A8
  8
247
 10
-117.1705387122569
 20
-2.084844352235629
 30
0.0
  0
VERTEX
  5
19A9
  8
247
 10
-117.1705387122569
 20
-2.084844352235629
 30
0.0
  0
VERTEX
  5
19AA
  8
247
 10
-117.10042836069439
 20
-2.3071812662981119
 30
0.0
  0
SEQEND
  5
19AB
  8
247
  0
POLYLINE
  5
19AC
  8
247
 66
     1
 10
0.0
 20
0.0
 30
0.0
 70
     1
  0
VERTEX
  5
19AD
  8
247
 10
-117.10042836069439
 20
-2.3071812662981119
 30
0.0
  0
VERTEX
  5
19AE
  8
247
 10
-117.1705387122569
 20
-2.084844352235629
 30
0.0
  0
VERTEX
  5
19AF
  8
247
 10
-117.1705387122569
 20
-2.084844352235629
 30
0.0
  0
VERTEX
  5
19B0
  8
247
 10
-117.10042836069439
 20
-2.3071812662981119
 30
0.0
  0
SEQEND
  5
19B1
  8
247
  0
LINE
  5
19B2
  8
247
 10
-117.10042836069439
 20
-2.3071812662981119
 30
0.0
 11
-117.1705387122569
 21
-2.084844352235629
 31
0.0
  0
POLYLINE
  5
19B3
  8
247
 66
     1
 10
0.0
 20
0.0
 30
0.0
 70
     1
1001
HATCH_DISTANCE
1040
1.0
1001
HATCH_DISPLAY
1070
     0
1001
HATCH_TYPE
1070
     7
  0
VERTEX
  5
19B4
  8
247
 10
-117.10042836069439
 20
-2.3071812662981119
 30
0.0
  0
VERTEX
  5
19B5
  8
247
 10
-117.1705387122569
 20
-2.084844352235629
 30
0.0
  0
VERTEX
  5
19B6
  8
247
 10
-117.1705387122569
 20
-2.084844352235629
 30
0.0
  0
VERTEX
  5
19B7
  8
247
 10
-117.10042836069439
 20
-2.3071812662981119
 30
0.0
  0
SEQEND
  5
19B8
  8
247
  0
POLYLINE
  5
19B9
  8
247
 66
     1
 10
0.0
 20
0.0
 30
0.0
 70
     1
  0
VERTEX
  5
19BA
  8
247
 10
-117.10042836069439
 20
-2.3071812662981119
 30
0.0
  0
VERTEX
  5
19BB
  8
247
 10
-117.1705387122569
 20
-2.084844352235629
 30
0.0
  0
VERTEX
  5
19BC
  8
247
 10
-117.1705387122569
 20
-2.084844352235629
 30
0.0
  0
VERTEX
  5
19BD
  8
247
 10
-117.10042836069439
 20
-2.3071812662981119
 30
0.0
  0
SEQEND
  5
19BE
  8
247
  0
LINE
  5
19BF
  8
247
 10
-117.2114430091319
 20
-2.342188102235621
 30
0.0
 11
-117.2815533606944
 21
-2.119851188173083
 31
0.0
  0
ARC
  5
19C0
  8
247
 10
-116.8589312903819
 20
-3.2666744303606201
 30
0.0
 40
1.222216369628905
 50
110.22964506332001
 51
118.57168892371681
  0
ARC
  5
19C1
  8
247
 10
-117.7722379310069
 20
-2.5449869303606181
 30
0.0
 40
0.2444448051452637
 50
1.7101213820627359
 51
163.9983983544472
  0
ARC
  5
19C2
  8
247
 10
-116.8589312903819
 20
-3.2666744303606201
 30
0.0
 40
0.9894138793945311
 50
110.8721834020737
 51
132.54194893738779
  0
ARC
  5
19C3
  8
247
 10
-116.82396839975679
 20
-3.4228560709856111
 30
0.0
 40
1.9799648437499999
 50
155.2051773698411
 51
172.79482596205219
  0
ARC
  5
19C4
  8
247
 10
-118.08598988413191
 20
-3.6391548991106322
 30
0.0
 40
0.2444446334838867
 50
164.00027305718189
 51
344.00027305718248
  0
LINE
  5
19C5
  8
247
 10
-118.3209654700694
 20
-3.5717779459856271
 30
0.0
 11
-118.0072135169444
 21
-2.477601188173121
 31
0.0
  0
ARC
  5
19C6
  8
247
 10
-117.89410707163179
 20
-2.801065055360604
 30
0.0
 40
0.7566075439453125
 50
53.444012197057511
 51
164.00018438768521
  0
LINE
  5
19C7
  8
240
 10
-0.2531358191361617
 20
2.844061612812562
 30
0.0
 11
-0.0590232694408839
 21
3.0381741625078411
 31
0.0
  0
LINE
  5
19C8
  8
241
 10
-5.3182652455887833
 20
4.8499999999999091
 30
0.0
 11
-6.847248368831635
 21
3.3210168767756181
 31
0.0
  0
LINE
  5
19C9
  8
241
 10
-55.531815475576529
 20
-5.0000000000000844
 30
0.0
 11
-55.531815475576529
 21
-2.8870890253511421
 31
0.0
  0
ARC
  5
19CA
  8
241
 10
32.526105572085989
 20
14.77176815655015
 30
0.0
 40
37.099607732946403
 50
201.5827828294168
 51
207.92677728383569
  0
CIRCLE
  5
19CB
  8
246
 10
-3.4531358204807741
 20
3.1795955182873441
 30
0.0
 40
2.5000000006269589
  0
ARC
  5
19CC
  8
241
 10
-3.4531358191750021
 20
-0.0730956747516699
 30
0.0
 40
0.2
 50
224.99999998386761
 51
315.00000000034339
1001
GENIUS_GENODEF_13
1002
{
1000
HIER
1070
     0
1002
}
1002
{
1000
MANEDIT
1070
     0
1002
}
1002
{
1000
NOSEL
1070
     0
1002
}
1002
{
1000
BEHIND
1070
     0
1002
}
1002
{
1000
OTHER
1070
     0
1002
}
1002
{
1000
REACTOR
1002
}
1001
GENIUS_GENOBJ-N-FIL_13
1002
{
1000
OWNER
1000
GEN
1002
}
  0
ARC
  5
19CD
  8
240
 10
-0.2004446256781939
 20
3.1795955187451499
 30
0.0
 40
0.2
 50
315.00000000000028
 51
45.00000001578519
1001
GENIUS_GENOBJ-N-FIL_13
1002
{
1000
OWNER
1000
GEN
1002
}
1001
GENIUS_GENODEF_13
1002
{
1000
HIER
1070
     0
1002
}
1002
{
1000
MANEDIT
1070
     0
1002
}
1002
{
1000
NOSEL
1070
     0
1002
}
1002
{
1000
BEHIND
1070
     0
1002
}
1002
{
1000
OTHER
1070
     0
1002
}
1002
{
1000
REACTOR
1002
}
  0
ARC
  5
19CE
  8
240
 10
-3.4531358209287042
 20
6.4322867121644398
 30
0.0
 40
0.2
 50
45.000000000000497
 51
134.99999998386491
1001
GENIUS_GENODEF_13
1002
{
1000
HIER
1070
     0
1002
}
1002
{
1000
MANEDIT
1070
     0
1002
}
1002
{
1000
NOSEL
1070
     0
1002
}
1002
{
1000
BEHIND
1070
     0
1002
}
1002
{
1000
OTHER
1070
     0
1002
}
1002
{
1000
REACTOR
1002
}
1001
GENIUS_GENOBJ-N-FIL_13
1002
{
1000
OWNER
1000
GEN
1002
}
  0
ARC
  5
19CF
  8
241
 10
-6.7058270125943249
 20
3.179595520538308
 30
0.0
 40
0.2
 50
135.00000000000031
 51
225.0000000000002
1001
GENIUS_GENOBJ-N-FIL_13
1002
{
1000
OWNER
1000
GEN
1002
}
1001
GENIUS_GENODEF_13
1002
{
1000
HIER
1070
     0
1002
}
1002
{
1000
MANEDIT
1070
     0
1002
}
1002
{
1000
NOSEL
1070
     0
1002
}
1002
{
1000
BEHIND
1070
     0
1002
}
1002
{
1000
OTHER
1070
     0
1002
}
1002
{
1000
REACTOR
1002
}
  0
ARC
  5
19D0
  8
241
 10
-37.6696296441851
 20
-2.7923570449359238
 30
0.0
 40
17.862437034830219
 50
175.40455671462689
 51
180.30386492594039
  0
ARC
  5
19D1
  8
241
 10
-51.09557063231609
 20
-1.531768636434889
 30
0.0
 40
4.3823925115313909
 50
159.5415553184956
 51
177.7697323376068
  0
ARC
  5
19D2
  8
241
 10
-53.712019926012111
 20
-0.6876493274881331
 30
0.0
 40
1.6405959450276011
 50
79.409416954282776
 51
155.2193135347907
  0
LINE
  5
19D3
  8
245
 10
-129.88687925324149
 20
-0.000000000000056
 30
0.0
 11
1.8346042923699311
 21
0.0000000000000009
 31
0.0
  0
LINE
  5
19D4
  8
240
 10
-55.80313581913618
 20
5.9999999999998872
 30
0.0
 11
-124.8531358191361
 21
5.9999999999998872
 31
0.0
  0
LINE
  5
19D5
  8
240
 10
-124.8531358191361
 20
-6.000000000000111
 30
0.0
 11
-55.80313581913618
 21
-6.000000000000111
 31
0.0
  0
LINE
  5
19D6
  8
240
 10
-125.8531358191361
 20
-5.000000000000111
 30
0.0
 11
-125.8531358191361
 21
4.9999999999998872
 31
0.0
  0
ARC
  5
19D7
  8
240
 10
-124.8531358191361
 20
-5.000000000000111
 30
0.0
 40
1.0
 50
180.0
 51
270.0
  0
ARC
  5
19D8
  8
240
 10
-124.8531358191361
 20
4.9999999999998872
 30
0.0
 40
1.0
 50
90.0
 51
180.0
  0
LINE
  5
19D9
  8
245
 10
1.8346042923699311
 20
1.8499999999998229
 30
0.0
 11
-57.771778258352697
 21
1.8500000000000509
 31
0.0
  0
LINE
  5
19DA
  8
241
 10
-53.410495132016877
 20
0.9249999999998984
 30
0.0
 11
-4.7340742063625312
 21
0.9249999999998987
 31
0.0
  0
LINE
  5
19DB
  8
240
 10
-5.3182652437753433
 20
4.8499999999999091
 30
0.0
 11
-53.410495132016877
 21
4.8499999999999091
 31
0.0
  0
LINE
  5
19DC
  8
240
 10
-53.531815475576529
 20
-3.000000000000111
 30
0.0
 11
-0.2531358191361617
 21
-3.000000000000111
 31
0.0
  0
LINE
  5
19DD
  8
241
 10
-54.653135819136182
 20
5.1194608366267849
 30
0.0
 11
-54.653135819136182
 21
0.7174371029393009
 31
0.0
  0
LINE
  5
19DE
  8
241
 10
-55.80313581913618
 20
-0.0000000000001128
 30
0.0
 11
-55.80313581913618
 21
5.9999999999998872
 31
0.0
  0
LINE
  5
19DF
  8
241
 10
-55.80313581913618
 20
-6.000000000000111
 30
0.0
 11
-55.80313581913618
 21
-0.0000000000001128
 31
0.0
  0
ARC
  5
19E0
  8
240
 10
-53.531815475576529
 20
-5.0000000000000844
 30
0.0
 40
2.0
 50
90.0
 51
180.0
  0
LINE
  5
19E1
  8
240
 10
-55.531815475576529
 20
-5.7286796564404741
 30
0.0
 11
-55.531815475576529
 21
-5.0000000000000844
 31
0.0
  0
LINE
  5
19E2
  8
240
 10
-55.80313581913618
 20
-6.000000000000111
 30
0.0
 11
-55.531815475576529
 21
-5.7286796564404741
 31
0.0
  0
ARC
  5
19E3
  8
240
 10
-53.410495132016877
 20
7.8499999999999091
 30
0.0
 40
3.0000000000000231
 50
224.9999999999996
 51
270.0
  0
LINE
  5
19E4
  8
240
 10
-55.531815475576529
 20
5.7286796564402493
 30
0.0
 11
-55.80313581913618
 21
5.9999999999998872
 31
0.0
  0
LINE
  5
19E5
  8
240
 10
-3.5945571771261871
 20
6.573708068441575
 30
0.0
 11
-5.3182652455887833
 21
4.8499999999999091
 31
0.0
  0
LINE
  5
19E6
  8
240
 10
-0.0590232694798466
 20
3.3210168750214222
 30
0.0
 11
-3.311714464691395
 21
6.5737080684017508
 31
0.0
  0
LINE
  5
19E7
  8
241
 10
-6.8472483688316341
 20
3.0381741643009992
 30
0.0
 11
-3.594557175452131
 21
-0.2145170309491602
 31
0.0
  0
LINE
  5
19E8
  8
240
 10
-0.2531358191361617
 20
2.844061612773598
 30
0.0
 11
-0.2531358191361617
 21
-3.000000000000111
 31
0.0
  0
LINE
  5
19E9
  8
241
 10
-3.3117144629368438
 20
-0.2145170309881319
 30
0.0
 11
-0.2531358191361617
 21
2.844061612812562
 31
0.0
  0
VIEWPORT
  5
22
 67
     1
  8
0
 10
261.51769911504419
 20
148.5
 30
0.0
 40
523.0353982300885
 41
297.0
 68
     1
 69
     1
1001
ACAD
1000
MVIEW
1002
{
1070
    16
1010
0.0
1020
0.0
1030
0.0
1010
0.0
1020
0.0
1030
1.0
1040
0.0
1040
297.0
1040
261.51769911504419
1040
148.5
1040
50.0
1040
0.0
1040
0.0
1070
     0
1070
   100
1070
     1
1070
     1
1070
     0
1070
     0
1070
     0
1070
     0
1040
0.0
1040
0.0
1040
0.0
1040
1.0
1040
1.0
1040
10.0
1040
10.0
1070
     0
1002
{
1002
}
1002
}
1001
GENIUS_GENODEF_13
1002
{
1000
HIER
1070
     0
1002
}
1002
{
1000
MANEDIT
1070
     0
1002
}
1002
{
1000
NOSEL
1070
     0
1002
}
1002
{
1000
BEHIND
1070
     0
1002
}
1002
{
1000
OTHER
1070
     0
1002
}
1002
{
1000
REACTOR
1002
}
1001
GENIUS_GENOBJ-N-SDF_13
1002
{
1000
OWNER
1000
GEN
1002
}
1001
GENIUS_GENSCREG_15
1000
PF
1040
1.0
1000
DF
1040
1.0
1000
MIN
1011
0.0
1021
0.0
1031
-0.0000016725006725
1021
0.0
1031
0.0
1000
MAX
1011
523.0353982300885
1021
0.0
1031
-0.0000016725006725
1021
297.0
1031
0.0
1000
FLAGS
1070
     2
  0
ENDSEC
  0
EOF
