  0
SECTION
  2
HEADER
  9
$ACADVER
  1
AC1009
  9
$INSBASE
 10
0.0
 20
0.0
 30
0.0
  9
$EXTMIN
 10
-15.697711618350271
 20
-34.846796149144843
 30
0.0
  9
$EXTMAX
 10
120.1022628903703
 20
23.848148288905101
 30
0.0
  9
$LIMMIN
 10
0.0
 20
0.0
  9
$LIMMAX
 10
297.0
 20
210.0
  9
$ORTHOMODE
 70
     1
  9
$REGENMODE
 70
     1
  9
$FILLMODE
 70
     1
  9
$QTEXTMODE
 70
     0
  9
$MIRRTEXT
 70
     1
  9
$DRAGMODE
 70
     2
  9
$LTSCALE
 40
10.0
  9
$OSMODE
 70
     0
  9
$ATTMODE
 70
     1
  9
$TEXTSIZE
 40
3.0
  9
$TRACEWID
 40
1.0
  9
$TEXTSTYLE
  7
YOKO
  9
$CLAYER
  8
240
  9
$CELTYPE
  6
BYLAYER
  9
$CECOLOR
 62
   256
  9
$DIMSCALE
 40
1.0
  9
$DIMASZ
 40
2.2299999999999991
  9
$DIMEXO
 40
0.5
  9
$DIMDLI
 40
7.0
  9
$DIMRND
 40
0.0
  9
$DIMDLE
 40
0.0
  9
$DIMEXE
 40
1.0
  9
$DIMTP
 40
0.0
  9
$DIMTM
 40
0.01
  9
$DIMTXT
 40
2.799999999999998
  9
$DIMCEN
 40
0.0
  9
$DIMTSZ
 40
0.0
  9
$DIMTOL
 70
     0
  9
$DIMLIM
 70
     0
  9
$DIMTIH
 70
     0
  9
$DIMTOH
 70
     0
  9
$DIMSE1
 70
     0
  9
$DIMSE2
 70
     0
  9
$DIMTAD
 70
     3
  9
$DIMZIN
 70
     9
  9
$DIMBLK
  1
OPEN
  9
$DIMASO
 70
     1
  9
$DIMSHO
 70
     1
  9
$DIMPOST
  1

  9
$DIMAPOST
  1

  9
$DIMALT
 70
     0
  9
$DIMALTD
 70
     2
  9
$DIMALTF
 40
25.399999999999999
  9
$DIMLFAC
 40
1.0
  9
$DIMTOFL
 70
     1
  9
$DIMTVP
 40
0.0
  9
$DIMTIX
 70
     1
  9
$DIMSOXD
 70
     0
  9
$DIMSAH
 70
     0
  9
$DIMBLK1
  1

  9
$DIMBLK2
  1

  9
$DIMSTYLE
  2
BIGT
  9
$DIMCLRD
 70
   256
  9
$DIMCLRE
 70
   256
  9
$DIMCLRT
 70
    40
  9
$DIMTFAC
 40
1.0
  9
$DIMGAP
 40
1.0
  9
$LUNITS
 70
     2
  9
$LUPREC
 70
     3
  9
$SKETCHINC
 40
1.0
  9
$FILLETRAD
 40
0.2
  9
$AUNITS
 70
     0
  9
$AUPREC
 70
     3
  9
$MENU
  1
.
  9
$ELEVATION
 40
0.0
  9
$PELEVATION
 40
0.0
  9
$THICKNESS
 40
0.0
  9
$LIMCHECK
 70
     0
  9
$BLIPMODE
 70
     0
  9
$CHAMFERA
 40
0.25
  9
$CHAMFERB
 40
0.25
  9
$SKPOLY
 70
     0
  9
$TDCREATE
 40
2454679.469636505
  9
$TDUPDATE
 40
2460320.4585602661
  9
$TDINDWG
 40
0.0943829861
  9
$TDUSRTIMER
 40
0.0943827431
  9
$USRTIMER
 70
     1
  9
$ANGBASE
 50
0.0
  9
$ANGDIR
 70
     0
  9
$PDMODE
 70
     1
  9
$PDSIZE
 40
0.0
  9
$PLINEWID
 40
0.0
  9
$COORDS
 70
     1
  9
$SPLFRAME
 70
     0
  9
$SPLINETYPE
 70
     6
  9
$SPLINESEGS
 70
     4
  9
$ATTDIA
 70
     1
  9
$ATTREQ
 70
     1
  9
$HANDLING
 70
     1
  9
$HANDSEED
  5
2E11
  9
$SURFTAB1
 70
     6
  9
$SURFTAB2
 70
     6
  9
$SURFTYPE
 70
     6
  9
$SURFU
 70
     6
  9
$SURFV
 70
     6
  9
$UCSNAME
  2

  9
$UCSORG
 10
0.0
 20
0.0
 30
0.0
  9
$UCSXDIR
 10
1.0
 20
0.0
 30
0.0
  9
$UCSYDIR
 10
0.0
 20
1.0
 30
0.0
  9
$PUCSNAME
  2

  9
$PUCSORG
 10
0.0
 20
0.0
 30
0.0
  9
$PUCSXDIR
 10
1.0
 20
0.0
 30
0.0
  9
$PUCSYDIR
 10
0.0
 20
1.0
 30
0.0
  9
$USERI1
 70
     1
  9
$USERI2
 70
     0
  9
$USERI3
 70
     0
  9
$USERI4
 70
     0
  9
$USERI5
 70
     0
  9
$USERR1
 40
0.0
  9
$USERR2
 40
0.0
  9
$USERR3
 40
0.0
  9
$USERR4
 40
0.0
  9
$USERR5
 40
0.0
  9
$WORLDVIEW
 70
     1
  9
$SHADEDGE
 70
     3
  9
$SHADEDIF
 70
    70
  9
$TILEMODE
 70
     1
  9
$MAXACTVP
 70
    16
  9
$PLIMCHECK
 70
     0
  9
$PEXTMIN
 10
1.0000000000000000E+020
 20
1.0000000000000000E+020
 30
1.0000000000000000E+020
  9
$PEXTMAX
 10
-1.0000000000000000E+020
 20
-1.0000000000000000E+020
 30
-1.0000000000000000E+020
  9
$PLIMMIN
 10
0.0
 20
0.0
  9
$PLIMMAX
 10
420.0
 20
297.0
  9
$UNITMODE
 70
     0
  9
$VISRETAIN
 70
     1
  9
$PLINEGEN
 70
     0
  9
$PSLTSCALE
 70
     1
  0
ENDSEC
  0
SECTION
  2
TABLES
  0
TABLE
  2
VPORT
 70
     1
  0
VPORT
  2
*ACTIVE
 70
     0
 10
0.0
 20
0.0
 11
1.0
 21
1.0
 12
52.10074729398832
 22
-1.875596829054984
 13
0.0
 23
0.0
 14
7.0
 24
7.0
 15
7.0
 25
7.0
 16
0.0
 26
0.0
 36
1.0
 17
0.0
 27
0.0
 37
0.0
 40
136.47636816531951
 41
1.8473372781065081
 42
50.0
 43
0.0
 44
0.0
 50
0.0
 51
0.0
 71
     0
 72
  2000
 73
     1
 74
     0
 75
     0
 76
     1
 77
     0
 78
     0
  0
ENDTAB
  0
TABLE
  2
LTYPE
 70
    16
  0
LTYPE
  2
CONTINUOUS
 70
     0
  3
Solid line
 72
    65
 73
     0
 40
0.0
  0
LTYPE
  2
CENTER2
 70
     0
  3
___ _ ___ _ ___ _ ___ _ ___ _ ___ _ ___ _ ___ _
 72
    65
 73
     4
 40
1.125
 49
0.75
 49
-0.125
 49
0.125
 49
-0.125
  0
LTYPE
  2
HIDDEN2
 70
     0
  3
_ _ _ _ _ _ _ _ _ _ _ _ _ _ _ _ _ _ _ _ _ _ _ _
 72
    65
 73
     2
 40
0.1875
 49
0.125
 49
-0.0625
  0
LTYPE
  2
PHANTOM2
 70
     0
  3
___ _ _ ___ _ _ ___ _ _ ___ _ _ ___ _ _ ___ _ _
 72
    65
 73
     6
 40
1.25
 49
0.625
 49
-0.125
 49
0.125
 49
-0.125
 49
0.125
 49
-0.125
  0
LTYPE
  2
CENTER
 70
     0
  3
____ _ ____ _ ____ _ ____ _ ____ _ ____ _ ____ 
 72
    65
 73
     4
 40
2.0
 49
1.25
 49
-0.25
 49
0.25
 49
-0.25
  0
LTYPE
  2
AMCONSTR
 70
     0
  3
_______________________
 72
    65
 73
     2
 40
9999.0
 49
9999.0
 49
0.0
  0
LTYPE
  2
HIDDEN
 70
     0
  3
Hidden __ __ __ __ __ __ __ __ __ __ __ __ __ _
 72
    65
 73
     2
 40
9.5249999999999986
 49
6.349999999999997
 49
-3.174999999999998
  0
LTYPE
  2
ACANSTGB
 70
     0
  3
__ . . __ . .
 72
    65
 73
     6
 40
0.35433070866
 49
0.15748031496
 49
-0.03937007874
 49
0.03937007874
 49
-0.03937007874
 49
0.03937007874
 49
-0.03937007874
  0
LTYPE
  2
ACANSTGL
 70
     0
  3
_ _ _ _ _
 72
    65
 73
     2
 40
0.11811023622
 49
0.07874015748
 49
-0.03937007874
  0
LTYPE
  2
AMZIGZAG2
 70
     0
  3
/\/-/\/-/\/-/\/-/\/-/\/
 72
    65
 73
     2
 40
0.4401
 49
0.0001
 49
-0.4400000000000003
  0
ENDTAB
  0
TABLE
  2
LAYER
 70
    10
  0
LAYER
  2
0
 70
     0
 62
     7
  6
CONTINUOUS
  0
LAYER
  2
240
 70
     0
 62
     4
  6
CONTINUOUS
  0
LAYER
  2
DEFPOINTS
 70
     0
 62
     7
  6
CONTINUOUS
  0
LAYER
  2
245
 70
     0
 62
     2
  6
CENTER2
  0
LAYER
  2
241
 70
     0
 62
   211
  6
CONTINUOUS
  0
LAYER
  2
246
 70
     0
 62
     3
  6
PHANTOM2
  0
LAYER
  2
247
 70
     0
 62
    60
  6
CONTINUOUS
  0
LAYER
  2
250
 70
     0
 62
     3
  6
CONTINUOUS
  0
ENDTAB
  0
TABLE
  2
STYLE
 70
     7
  0
STYLE
  2
STANDARD
 70
     0
 40
0.0
 41
1.0
 50
0.0
 71
     0
 42
3.0
  3
romans.shx
  4
extfont.shx
  0
STYLE
  2
YOKO
 70
     0
 40
0.0
 41
1.0
 50
0.0
 71
     0
 42
3.0
  3
romans.shx
  4
extfont.shx
  0
STYLE
  2
ACANSGDT
 70
     0
 40
0.0
 41
1.0
 50
0.0
 71
     0
 42
3.0
  3
amgdt.shx
  4

  0
STYLE
  2
ACJISTS
 70
     0
 40
1.0
 41
1.0
 50
0.0
 71
     0
 42
3.0
  3
amgdt.shx
  4
extfont.shx
  0
ENDTAB
  0
TABLE
  2
VIEW
 70
     0
  0
ENDTAB
  0
TABLE
  2
UCS
 70
     0
  0
ENDTAB
  0
TABLE
  2
APPID
 70
    43
  0
APPID
  2
ACAD
 70
     0
  0
APPID
  2
ACADANNOTATIVE
 70
     0
  0
APPID
  2
GLOBAL
 70
     0
  0
APPID
  2
DETAIL
 70
     0
  0
APPID
  2
GRPNAME
 70
     0
  0
APPID
  2
GPARA
 70
     0
  0
APPID
  2
MCAD_NO_VIS
 70
     0
  0
APPID
  2
ACAD_TEMP_GRAPHIC
 70
     0
  0
APPID
  2
ACATTRIBSERVICES
 70
     0
  0
APPID
  2
GENIUS_GENSCREG_15
 70
     0
  0
APPID
  2
GENIUS_GENODEF_13
 70
     0
  0
APPID
  2
GENIUS_GENOBJ-N-SDF_13
 70
     0
  0
APPID
  2
GENIUS_GENREC_14
 70
     0
  0
APPID
  2
GENIUS_GENOBJ-N-REC_13
 70
     0
  0
APPID
  2
GENIUS_GENDIMSH_14
 70
     0
  0
APPID
  2
GENIUS_GENOBJ-N-DIM_13
 70
     0
  0
APPID
  2
GENIUS_GENDIM_13
 70
     0
  0
APPID
  2
GENIUS_GENDTOL_13
 70
     0
  0
APPID
  2
GENIUS_GENOLIS_13
 70
     0
  0
APPID
  2
GENIUS_GENOENT_13
 70
     0
  0
APPID
  2
GENIUS_GENOBJ-F-FEM_13
 70
     0
  0
APPID
  2
GENIUS_GENOREF_13
 70
     0
  0
APPID
  2
GENIUS_GEFFEM_13
 70
     0
  0
APPID
  2
GENIUS_GEFFEMP_13
 70
     0
  0
APPID
  2
AD_DRAW
 70
     0
  0
APPID
  2
DESIGNERASSEMBLIES
 70
     0
  0
APPID
  2
ACADM_DIM_EDIT
 70
     0
  0
APPID
  2
AMDT_DM_ADJ
 70
     0
  0
APPID
  2
ITEMNAME
 70
     0
  0
APPID
  2
GENIUS_GENOBJ-N-FIL_13
 70
     0
  0
APPID
  2
HATCH_TYPE
 70
     0
  0
APPID
  2
HATCH_DISPLAY
 70
     0
  0
APPID
  2
HATCH_DISTANCE
 70
     0
  0
APPID
  2
ACAD_DSTYLE_DIMBREAK
 70
     0
  0
APPID
  2
ACAD_DSTYLE_DIMJAG
 70
     0
  0
APPID
  2
ACAD_NAV_VCDISPLAY
 70
     0
  0
APPID
  2
ACAECLAYERSTANDARD
 70
     0
  0
APPID
  2
ACAD_MLEADERVER
 70
     0
  0
APPID
  2
ACAD_EXEMPT_FROM_CAD_STANDARDS
 70
     0
  0
APPID
  2
ACAD_DSTYLE_DIMINSPECT
 70
     0
  0
APPID
  2
ACAD_DSTYLE_DIMANGULAR_EXT
 70
     0
  0
APPID
  2
ACAD_DSTYLE_DIMRADIAL_EXTENSION
 70
     0
  0
APPID
  2
ACAD_DSTYLE_DIMANGULAR_EX0
 70
     0
  0
ENDTAB
  0
TABLE
  2
DIMSTYLE
 70
    10
  0
DIMSTYLE
  2
STANDARD
 70
     0
  3

  4

  5

  6

  7

 40
1.0
 41
0.18
 42
0.0625
 43
0.38
 44
0.18
 45
0.0
 46
0.0
 47
0.0
 48
0.0
140
0.18
141
0.09
142
0.0
143
25.399999999999999
144
1.0
145
0.0
146
1.0
147
0.09
 71
     0
 72
     0
 73
     1
 74
     1
 75
     0
 76
     0
 77
     0
 78
     0
170
     0
171
     2
172
     0
173
     0
174
     0
175
     0
176
     0
177
     0
178
     0
  0
DIMSTYLE
  2
BIGT
 70
     0
  3

  4

  5

  6

  7

 40
1.0
 41
2.2299999999999991
 42
0.5
 43
7.0
 44
1.0
 45
0.0
 46
0.0
 47
0.0
 48
0.01
140
2.799999999999998
141
0.0
142
0.0
143
25.399999999999999
144
1.0
145
0.0
146
1.0
147
1.0
 71
     0
 72
     0
 73
     0
 74
     0
 75
     0
 76
     0
 77
     3
 78
     9
170
     0
171
     2
172
     1
173
     0
174
     1
175
     0
176
   256
177
   256
178
    40
  0
DIMSTYLE
  2
AM_ANSI
 70
     0
  3

  4
mm
  5

  6

  7

 40
1.0
 41
0.1
 42
0.05
 43
0.5
 44
0.1
 45
0.0
 46
0.0
 47
0.1
 48
0.1
140
0.12
141
0.0
142
0.0
143
25.399999999999999
144
1.0
145
0.0
146
0.71
147
0.06
 71
     0
 72
     0
 73
     1
 74
     1
 75
     0
 76
     0
 77
     0
 78
     7
170
     0
171
     2
172
     0
173
     0
174
     0
175
     0
176
   256
177
   256
178
     2
  0
DIMSTYLE
  2
AM_ANSI$3
 70
     0
  3

  4
mm
  5

  6

  7

 40
1.0
 41
0.1
 42
0.05
 43
0.5
 44
0.1
 45
0.0
 46
0.0
 47
0.1
 48
0.1
140
0.12
141
0.0
142
0.0
143
25.399999999999999
144
1.0
145
0.0
146
0.71
147
0.06
 71
     0
 72
     0
 73
     1
 74
     1
 75
     0
 76
     0
 77
     0
 78
     7
170
     0
171
     2
172
     0
173
     0
174
     0
175
     0
176
   256
177
   256
178
     2
  0
DIMSTYLE
  2
AM_ANSI$4
 70
     0
  3

  4
mm
  5

  6

  7

 40
1.0
 41
0.1
 42
0.05
 43
0.5
 44
0.1
 45
0.0
 46
0.0
 47
0.1
 48
0.1
140
0.12
141
0.0
142
0.0
143
25.399999999999999
144
1.0
145
0.0
146
0.71
147
0.06
 71
     0
 72
     0
 73
     1
 74
     1
 75
     0
 76
     0
 77
     0
 78
     7
170
     0
171
     2
172
     0
173
     0
174
     0
175
     0
176
   256
177
   256
178
     2
  0
DIMSTYLE
  2
AM_ANSI$7
 70
     0
  3

  4
mm
  5

  6

  7

 40
1.0
 41
0.1
 42
0.05
 43
0.5
 44
0.1
 45
0.0
 46
0.0
 47
0.1
 48
0.1
140
0.24
141
0.0
142
0.0
143
25.399999999999999
144
1.0
145
0.0
146
0.71
147
0.06
 71
     0
 72
     0
 73
     1
 74
     1
 75
     0
 76
     0
 77
     0
 78
     7
170
     0
171
     2
172
     0
173
     0
174
     0
175
     0
176
   256
177
   256
178
     2
  0
DIMSTYLE
  2
AM_ANSI$SF
 70
     0
  3

  4
mm
  5

  6

  7

 40
1.0
 41
0.1
 42
0.05
 43
0.5
 44
0.1
 45
0.0
 46
0.0
 47
0.1
 48
0.1
140
0.12
141
0.0
142
0.0
143
25.399999999999999
144
1.0
145
0.0
146
0.71
147
0.06
 71
     0
 72
     0
 73
     1
 74
     1
 75
     1
 76
     1
 77
     0
 78
     7
170
     0
171
     2
172
     0
173
     0
174
     0
175
     0
176
   256
177
   256
178
     2
  0
DIMSTYLE
  2
AM_ANSI$SH
 70
     0
  3

  4
mm
  5

  6

  7

 40
1.0
 41
0.1
 42
0.05
 43
0.5
 44
0.1
 45
0.0
 46
0.0
 47
0.1
 48
0.1
140
0.12
141
0.0
142
0.0
143
25.399999999999999
144
1.0
145
0.0
146
0.71
147
0.06
 71
     0
 72
     0
 73
     1
 74
     1
 75
     1
 76
     1
 77
     0
 78
     7
170
     0
171
     2
172
     0
173
     1
174
     0
175
     0
176
   256
177
   256
178
     2
  0
ENDTAB
  0
ENDSEC
  0
SECTION
  2
BLOCKS
  0
BLOCK
  8
0
  2
$MODEL_SPACE
 70
     0
 10
0.0
 20
0.0
 30
0.0
  3
$MODEL_SPACE
  1

  0
ENDBLK
  5
2C8E
  8
0
  0
BLOCK
 67
     1
  8
0
  2
$PAPER_SPACE
 70
     0
 10
0.0
 20
0.0
 30
0.0
  3
$PAPER_SPACE
  1

  0
ENDBLK
  5
2C8A
 67
     1
  8
0
  0
BLOCK
  8
0
  2
_OPEN
 70
     0
 10
0.0
 20
0.0
 30
0.0
  3
_OPEN
  1

  0
LINE
  5
595
  8
0
  6
BYBLOCK
 62
     0
 10
-1.0
 20
0.1666666666666666
 30
0.0
 11
0.0
 21
0.0
 31
0.0
  0
LINE
  5
596
  8
0
  6
BYBLOCK
 62
     0
 10
-1.0
 20
-0.1666666666666666
 30
0.0
 11
0.0
 21
0.0
 31
0.0
  0
LINE
  5
597
  8
0
  6
BYBLOCK
 62
     0
 10
0.0
 20
0.0
 30
0.0
 11
-1.0
 21
0.0
 31
0.0
  0
ENDBLK
  5
599
  8
0
  0
BLOCK
  8
0
  2
_ACMFILLEDHALF
 70
     0
 10
0.0
 20
0.0
 30
0.0
  3
_ACMFILLEDHALF
  1

  0
TRACE
  5
1E72
  8
240
 62
     0
 10
-0.8
 20
0.0
 30
0.0
 11
-1.0
 21
0.166666666
 31
0.0
 12
0.0
 22
0.0
 32
0.0
 13
0.0
 23
0.0
 33
0.0
  0
LINE
  5
1E73
  8
240
 62
     0
 10
-1.0
 20
0.0
 30
0.0
 11
-0.8
 21
0.0
 31
0.0
  0
ENDBLK
  5
1E71
  8
0
  0
ENDSEC
  0
SECTION
  2
ENTITIES
  0
TEXT
  5
1515
  8
241
  6
CONTINUOUS
 10
-0.6049094923176597
 20
20.848148288905069
 30
0.0
 40
3.0
  1
ST12-C1012-45B-20
  7
YOKO
1001
ITEMNAME
1000
DI010
  0
LINE
  5
158C
  8
250
  6
CONTINUOUS
 10
71.500000000000014
 20
-5.2694608366265641
 30
0.0
 11
71.500000000000014
 21
-27.84679614914484
 31
0.0
  0
LINE
  5
158D
  8
250
  6
CONTINUOUS
 10
93.0
 20
1.7457236627964221
 30
0.0
 11
93.0
 21
-27.84679614914484
 31
0.0
  0
LINE
  5
158E
  8
250
  6
CONTINUOUS
 10
73.730000000000032
 20
-26.84679614914484
 30
0.0
 11
90.725484118156928
 21
-26.84679614914484
 31
0.0
  0
LINE
  5
1592
  8
250
  6
CONTINUOUS
 10
0.0
 20
-6.2645653171120443
 30
0.0
 11
0.0
 21
-34.846796149144843
 31
0.0
  0
LINE
  5
1593
  8
250
  6
CONTINUOUS
 10
93.0
 20
1.7457236627964221
 30
0.0
 11
93.0
 21
-34.846796149144843
 31
0.0
  0
LINE
  5
1594
  8
250
  6
CONTINUOUS
 10
2.2300000000000031
 20
-33.846796149144843
 30
0.0
 11
90.725484118156928
 21
-33.846796149144843
 31
0.0
  0
TEXT
  5
15B4
  8
250
  6
CONTINUOUS
 10
43.81107539241178
 20
-32.846796149144843
 30
0.0
 40
2.799999999999998
  1
93
  0
LINE
  5
15B5
  8
250
  6
CONTINUOUS
 10
90.769999999999996
 20
-33.475129482478181
 30
0.0
 11
93.0
 21
-33.846796149144843
 31
0.0
  0
LINE
  5
15B6
  8
250
  6
CONTINUOUS
 10
90.769999999999996
 20
-34.21846281581152
 30
0.0
 11
93.0
 21
-33.846796149144843
 31
0.0
  0
LINE
  5
15B7
  8
250
  6
CONTINUOUS
 10
93.0
 20
-33.846796149144843
 30
0.0
 11
90.769999999999996
 21
-33.846796149144843
 31
0.0
  0
LINE
  5
15B8
  8
250
  6
CONTINUOUS
 10
2.2300000000000031
 20
-34.21846281581152
 30
0.0
 11
0.0
 21
-33.846796149144843
 31
0.0
  0
LINE
  5
15B9
  8
250
  6
CONTINUOUS
 10
2.2300000000000031
 20
-33.475129482478181
 30
0.0
 11
0.0
 21
-33.846796149144843
 31
0.0
  0
LINE
  5
15BA
  8
250
  6
CONTINUOUS
 10
0.0
 20
-33.846796149144843
 30
0.0
 11
2.2300000000000031
 21
-33.846796149144843
 31
0.0
  0
TEXT
  5
15BB
  8
250
  6
CONTINUOUS
 10
77.561075392411809
 20
-25.84679614914484
 30
0.0
 40
2.799999999999998
  1
21.5
  0
LINE
  5
15BC
  8
250
  6
CONTINUOUS
 10
90.769999999999996
 20
-26.47512948247817
 30
0.0
 11
93.0
 21
-26.84679614914484
 31
0.0
  0
LINE
  5
15BD
  8
250
  6
CONTINUOUS
 10
90.769999999999996
 20
-27.21846281581151
 30
0.0
 11
93.0
 21
-26.84679614914484
 31
0.0
  0
LINE
  5
15BE
  8
250
  6
CONTINUOUS
 10
93.0
 20
-26.84679614914484
 30
0.0
 11
90.769999999999996
 21
-26.84679614914484
 31
0.0
  0
LINE
  5
15BF
  8
250
  6
CONTINUOUS
 10
73.730000000000032
 20
-27.21846281581151
 30
0.0
 11
71.500000000000014
 21
-26.84679614914484
 31
0.0
  0
LINE
  5
15C0
  8
250
  6
CONTINUOUS
 10
73.730000000000032
 20
-26.47512948247817
 30
0.0
 11
71.500000000000014
 21
-26.84679614914484
 31
0.0
  0
LINE
  5
15C1
  8
250
  6
CONTINUOUS
 10
71.500000000000014
 20
-26.84679614914484
 30
0.0
 11
73.730000000000032
 21
-26.84679614914484
 31
0.0
  0
LINE
  5
1E9E
  8
241
  6
CONTINUOUS
 10
71.500000000000014
 20
-4.7694608366265641
 30
0.0
 11
71.500000000000014
 21
4.7694608366265641
 31
0.0
  0
LINE
  5
1E9F
  8
241
  6
CONTINUOUS
 10
69.999999999999972
 20
5.9999999999999432
 30
0.0
 11
69.999999999999972
 21
-5.9999999999999432
 31
0.0
  0
LINE
  5
1EA1
  8
245
  6
CENTER2
 10
-1.70677810676706
 20
0.0
 30
0.0
 11
94.126477495837733
 21
0.0
 31
0.0
  0
LINE
  5
1EA4
  8
240
  6
CONTINUOUS
 10
0.0
 20
-6.000000000000056
 30
0.0
 11
0.0
 21
5.9999999999999432
 31
0.0
  0
LINE
  5
1EA6
  8
240
  6
CONTINUOUS
 10
70.621320343559631
 20
5.378679656440311
 30
0.0
 11
69.999999999999972
 21
5.9999999999999432
 31
0.0
  0
LINE
  5
1EA7
  8
240
  6
CONTINUOUS
 10
69.999999999999972
 20
-6.000000000000056
 30
0.0
 11
70.621320343559631
 21
-5.3786796564403971
 31
0.0
  0
LINE
  5
1EA9
  8
240
  6
CONTINUOUS
 10
0.0
 20
-6.000000000000056
 30
0.0
 11
69.999999999999972
 21
-6.000000000000056
 31
0.0
  0
LINE
  5
1EAA
  8
240
  6
CONTINUOUS
 10
69.999999999999972
 20
5.9999999999999432
 30
0.0
 11
0.0
 21
5.9999999999999432
 31
0.0
  0
LINE
  5
1EAD
  8
240
  6
CONTINUOUS
 10
88.793094245744612
 20
4.4999999999999432
 30
0.0
 11
72.742640687119291
 21
4.4999999999999432
 31
0.0
  0
LINE
  5
1EB0
  8
240
  6
CONTINUOUS
 10
92.599999999999994
 20
-2.7912210627138521
 30
0.0
 11
92.599999999999994
 21
2.1027981121777151
 31
0.0
  0
LINE
  5
1EB1
  8
241
  6
CONTINUOUS
 10
88.950000000000017
 20
-1.482991103195729
 30
0.0
 11
88.950000000000017
 21
0.9503433588131478
 31
0.0
  0
LINE
  5
1EB3
  8
241
  6
CONTINUOUS
 10
89.212613179756445
 20
-4.5383014429015134
 30
0.0
 11
89.212613179756445
 21
-1.616094484688628
 31
0.0
  0
LINE
  5
1EB4
  8
240
  6
CONTINUOUS
 10
72.742640687119291
 20
-4.500000000000056
 30
0.0
 11
89.019333915356313
 21
-4.500000000000056
 31
0.0
  0
ARC
  5
1EB7
  8
240
  6
CONTINUOUS
 10
72.742640687119291
 20
-7.5000000000000284
 30
0.0
 40
3.0000000000000031
 50
90.0
 51
135.0000000000002
  0
ARC
  5
1EB8
  8
240
  6
CONTINUOUS
 10
72.742640687119291
 20
7.4999999999999423
 30
0.0
 40
3.0000000000000031
 50
224.9999999999998
 51
270.0
  0
LINE
  5
1EB9
  8
241
  6
CONTINUOUS
 10
92.599999999999994
 20
1.8942975417121199
 30
0.0
 11
88.950000000000017
 21
0.9503433588131478
 31
0.0
  0
LINE
  5
1EC1
  8
241
  6
CONTINUOUS
 10
92.599999999999994
 20
-0.6342379668354498
 30
0.0
 11
92.117571346837124
 21
-1.499493391838933
 31
0.0
  0
LINE
  5
1EC2
  8
241
  6
CONTINUOUS
 10
92.117571346837124
 20
-1.499493391838933
 30
0.0
 11
90.800000000000026
 21
-2.1672277632982282
 31
0.0
  0
LINE
  5
1EC3
  8
241
  6
CONTINUOUS
 10
90.800000000000026
 20
-2.1672277632982282
 30
0.0
 11
90.30000000000004
 21
-2.1672277632982282
 31
0.0
  0
LINE
  5
1EC4
  8
241
  6
CONTINUOUS
 10
90.30000000000004
 20
-2.1672277632982282
 30
0.0
 11
88.950000000000017
 21
-1.482991103195729
 31
0.0
  0
LINE
  5
1EC5
  8
240
  6
CONTINUOUS
 10
92.599999999999994
 20
-2.791221062713872
 30
0.0
 11
92.117571346837124
 21
-4.4984553150325981
 31
0.0
  0
LINE
  5
1EC6
  8
240
  6
CONTINUOUS
 10
92.117571346837124
 20
-4.4984553150325981
 30
0.0
 11
91.927401196077
 21
-4.66904668974726
 31
0.0
  0
LINE
  5
1EC7
  8
240
  6
CONTINUOUS
 10
91.927401196076872
 20
-4.669046689747244
 30
0.0
 11
91.751635411418235
 21
-4.6579954191639921
 31
0.0
  0
LINE
  5
1ECC
  8
240
  6
CONTINUOUS
 10
90.299999999999983
 20
-5.3026661262206867
 30
0.0
 11
90.799999999999983
 21
-5.3026661262206831
 31
0.0
  0
LINE
  5
2094
  8
247
  6
CONTINUOUS
 10
4.25
 20
-4.0000000000000551
 30
0.0
 11
8.8846153843300328
 21
-4.0000000000000551
 31
0.0
  0
LINE
  5
2095
  8
247
  6
CONTINUOUS
 10
5.0451065000120252
 20
-1.5000000000000551
 30
0.0
 11
4.4429411899426707
 21
-3.5999999999160641
 31
0.0
  0
LINE
  5
2096
  8
247
  6
CONTINUOUS
 10
5.6748485964809969
 20
-2.4961538461139381
 30
0.0
 11
4.7594639811329671
 21
-2.4961538461139381
 31
0.0
  0
ARC
  5
2097
  8
247
  6
CONTINUOUS
 10
5.9127365980531854
 20
-1.8847190672941561
 30
0.0
 40
0.3876715809326743
 50
342.9978896752952
 51
82.924166218513577
  0
ARC
  5
2098
  8
247
  6
CONTINUOUS
 10
5.617522443195865
 20
-1.8052231310280711
 30
0.0
 40
0.6933047965358772
 50
274.74293685219902
 51
343.84922627326688
1001
GENIUS_GENOBJ-N-FIL_13
1002
{
1000
OWNER
1000
GEN
1002
}
1001
GENIUS_GENODEF_13
1002
{
1000
HIER
1070
     0
1002
}
1002
{
1000
MANEDIT
1070
     0
1002
}
1002
{
1000
NOSEL
1070
     0
1002
}
1002
{
1000
BEHIND
1070
     0
1002
}
1002
{
1000
OTHER
1070
     0
1002
}
1002
{
1000
REACTOR
1002
}
  0
LINE
  5
2099
  8
247
  6
CONTINUOUS
 10
5.3583258052906171
 20
-3.5999999999160641
 30
0.0
 11
4.4429411899426707
 21
-3.5999999999160641
 31
0.0
  0
LINE
  5
209A
  8
247
  6
CONTINUOUS
 10
5.0451065000120252
 20
-1.5000000000000551
 30
0.0
 11
5.960491115360071
 21
-1.5000000000000551
 31
0.0
  0
ARC
  5
209B
  8
247
  6
CONTINUOUS
 10
5.6216935237331409
 20
-2.8874169627679862
 30
0.0
 40
0.394857301075386
 50
335.99094165252171
 51
82.263443459069066
  0
ARC
  5
209C
  8
247
  6
CONTINUOUS
 10
5.2875533895730751
 20
-2.8912003273326832
 30
0.0
 40
0.7123241612361686
 50
275.70198516425648
 51
347.27733843682199
1001
GENIUS_GENOBJ-N-FIL_13
1002
{
1000
OWNER
1000
GEN
1002
}
1001
GENIUS_GENODEF_13
1002
{
1000
HIER
1070
     0
1002
}
1002
{
1000
MANEDIT
1070
     0
1002
}
1002
{
1000
NOSEL
1070
     0
1002
}
1002
{
1000
BEHIND
1070
     0
1002
}
1002
{
1000
OTHER
1070
     0
1002
}
1002
{
1000
REACTOR
1002
}
  0
LINE
  5
209D
  8
247
  6
CONTINUOUS
 10
6.3160181129366322
 20
-3.5999999999160641
 30
0.0
 11
6.9181834230060399
 21
-1.5000000000000551
 31
0.0
  0
LINE
  5
209E
  8
247
  6
CONTINUOUS
 10
8.4143372690920302
 20
-1.5000000000000551
 30
0.0
 11
8.0183216356964504
 21
-1.5000000000000551
 31
0.0
  0
LINE
  5
209F
  8
247
  6
CONTINUOUS
 10
7.3912603460560291
 20
-3.5999999999160641
 30
0.0
 11
7.8220295768080756
 21
-3.5999999999160641
 31
0.0
  0
ARC
  5
20A0
  8
247
  6
CONTINUOUS
 10
8.6181834229300307
 20
-2.958299595083473
 30
0.0
 40
1.576855057639547
 50
112.3594881415293
 51
164.99324854284629
  0
ARC
  5
20A1
  8
247
  6
CONTINUOUS
 10
8.1524886338668239
 20
-2.065818858538079
 30
0.0
 40
0.6234706797009447
 50
4.9945893190753363
 51
65.166328957307655
1001
GENIUS_GENOBJ-N-FIL_13
1002
{
1000
OWNER
1000
GEN
1002
}
1001
GENIUS_GENODEF_13
1002
{
1000
HIER
1070
     0
1002
}
1002
{
1000
MANEDIT
1070
     0
1002
}
1002
{
1000
NOSEL
1070
     0
1002
}
1002
{
1000
BEHIND
1070
     0
1002
}
1002
{
1000
OTHER
1070
     0
1002
}
1002
{
1000
REACTOR
1002
}
  0
ARC
  5
20A2
  8
247
  6
CONTINUOUS
 10
7.5558160489672419
 20
-2.6621021219694381
 30
0.0
 40
0.9749472149106983
 50
285.84609655578407
 51
352.32513700416217
  0
ARC
  5
20A3
  8
247
  6
CONTINUOUS
 10
7.964788361227761
 20
-2.8714704019710662
 30
0.0
 40
0.9271945638692009
 50
159.71360167048971
 51
231.78874565641519
1001
GENIUS_GENOBJ-N-FIL_13
1002
{
1000
OWNER
1000
GEN
1002
}
1001
GENIUS_GENODEF_13
1002
{
1000
HIER
1070
     0
1002
}
1002
{
1000
MANEDIT
1070
     0
1002
}
1002
{
1000
NOSEL
1070
     0
1002
}
1002
{
1000
BEHIND
1070
     0
1002
}
1002
{
1000
OTHER
1070
     0
1002
}
1002
{
1000
REACTOR
1002
}
  0
LINE
  5
20A4
  8
247
  6
CONTINUOUS
 10
8.0374141921840163
 20
-2.792307692255974
 30
0.0
 11
8.522029576780028
 21
-2.792307692255974
 31
0.0
  0
ARC
  5
20A5
  8
247
  6
CONTINUOUS
 10
4.25
 20
-2.7500000000000551
 30
0.0
 40
1.25
 50
90.0
 51
270.0
  0
LINE
  5
20A6
  8
247
  6
CONTINUOUS
 10
4.25
 20
-1.5000000000000551
 30
0.0
 11
4.696153846086033
 21
-1.5000000000000551
 31
0.0
  0
ARC
  5
20A7
  8
247
  6
CONTINUOUS
 10
8.8846153843300328
 20
-2.7500000000000551
 30
0.0
 40
1.25
 50
270.0
 51
90.0
  0
LINE
  5
22B0
  8
250
  6
CONTINUOUS
 10
-15.697711618350271
 20
-16.640976637173701
 30
0.0
 11
-3.564378285016927
 21
-16.640976637173701
 31
0.0
  0
LINE
  5
22B1
  8
250
  6
CONTINUOUS
 10
-3.564378285016927
 20
-16.640976637173701
 30
0.0
 11
1.9829752117278181
 21
-7.883833459012294
 31
0.0
  0
LINE
  5
22B2
  8
250
  6
CONTINUOUS
 10
1.9829752117278181
 20
-7.883833459012294
 30
0.0
 11
3.176319880591647
 21
-6.0
 31
0.0
  0
LINE
  5
22B3
  8
250
  6
CONTINUOUS
 10
2.230986590538917
 20
-8.0409402644498886
 30
0.0
 11
3.176319880591647
 21
-6.0
 31
0.0
  0
LINE
  5
22B4
  8
250
  6
CONTINUOUS
 10
3.176319880591647
 20
-6.0
 30
0.0
 11
1.734963832916719
 21
-7.7267266535747012
 31
0.0
  0
TEXT
  5
22B5
  8
250
  6
CONTINUOUS
 10
-16.0977116183502
 20
-15.240976637173731
 30
0.0
 40
2.799999999999998
  1
ST12
  7
ACJISTS
  0
LINE
  5
26A1
  8
250
  6
CONTINUOUS
 10
91.049999999514498
 20
6.349999999999941
 30
0.0
 11
104.4445711930904
 21
6.349999999999941
 31
0.0
  0
TEXT
  5
26A2
  8
250
  6
CONTINUOUS
 10
102.3445711930904
 20
-3.111328563952771
 30
0.0
 40
2.799999999999998
  1
12.7
 50
90.0
  0
TEXT
  5
26A3
  8
250
  6
CONTINUOUS
 10
102.4445711930904
 20
-5.8256142782384952
 30
0.0
 40
3.0
  1
\U+2205
 50
90.0
  0
LINE
  5
26A4
  8
250
  6
CONTINUOUS
 10
103.4445711930903
 20
6.349999999999941
 30
0.0
 11
103.4445711930903
 21
4.119999999999937
 31
0.0
  0
LINE
  5
26A5
  8
250
  6
CONTINUOUS
 10
103.816237859757
 20
4.119999999999937
 30
0.0
 11
103.4445711930903
 21
6.349999999999941
 31
0.0
  0
LINE
  5
26A6
  8
250
  6
CONTINUOUS
 10
103.0729045264237
 20
4.119999999999937
 30
0.0
 11
103.4445711930903
 21
6.349999999999941
 31
0.0
  0
LINE
  5
26A7
  8
250
  6
CONTINUOUS
 10
103.4445711930903
 20
4.119999999999937
 30
0.0
 11
103.4445711930903
 21
-6.5398999925242238
 31
0.0
  0
LINE
  5
2A2B
  8
240
 10
90.613830404566002
 20
2.2735286810385049
 30
0.0
 11
90.613830404566002
 21
2.2735286810385049
 31
0.0
  0
CIRCLE
  5
2A2F
  8
246
  6
PHANTOM2
 10
90.613830404566002
 20
3.62562879116396
 30
0.0
 40
1.9850000000000001
  0
LINE
  5
2A4B
  8
240
  6
CONTINUOUS
 10
92.393532716819593
 20
4.6531404002209911
 30
0.0
 11
90.755251760803304
 21
6.2914213562372492
 31
0.0
  0
LINE
  5
2A4C
  8
240
  6
CONTINUOUS
 10
88.834128092312426
 20
4.6531404002209538
 30
0.0
 11
90.472409048328728
 21
6.2914213562372492
 31
0.0
  0
LINE
  5
2A4D
  8
240
  6
CONTINUOUS
 10
88.834128092312426
 20
4.6531404002209538
 30
0.0
 11
88.234475643874205
 21
2.4152069957664821
 31
0.0
  0
LINE
  5
2A4E
  8
240
  6
CONTINUOUS
 10
90.613830404566002
 20
1.570605573049938
 30
0.0
 11
88.375897000111522
 21
2.1702580214881579
 31
0.0
  0
LINE
  5
2A4F
  8
240
  6
CONTINUOUS
 10
90.613830404566002
 20
1.570605573049938
 30
0.0
 11
92.851763809020525
 21
2.1702580214881442
 31
0.0
  0
LINE
  5
2A50
  8
240
  6
CONTINUOUS
 10
92.393532716819593
 20
4.6531404002209911
 30
0.0
 11
92.993185165257785
 21
2.415206995766467
 31
0.0
  0
ARC
  5
2A51
  8
240
  6
CONTINUOUS
 10
90.613830404566002
 20
6.14999999999994
 30
0.0
 40
0.2
 50
44.999999999999723
 51
135.0000000000002
1001
GENIUS_GENODEF_13
1002
{
1000
HIER
1070
     0
1002
}
1002
{
1000
MANEDIT
1070
     0
1002
}
1002
{
1000
NOSEL
1070
     0
1002
}
1002
{
1000
BEHIND
1070
     0
1002
}
1002
{
1000
OTHER
1070
     0
1002
}
1002
{
1000
REACTOR
1002
}
1001
GENIUS_GENOBJ-N-FIL_13
1002
{
1000
OWNER
1000
GEN
1002
}
  0
ARC
  5
2A52
  8
240
  6
CONTINUOUS
 10
92.799999999999983
 20
2.3634431867459602
 30
0.0
 40
0.2
 50
285.0000000000004
 51
14.99999999999998
1001
GENIUS_GENODEF_13
1002
{
1000
HIER
1070
     0
1002
}
1002
{
1000
MANEDIT
1070
     0
1002
}
1002
{
1000
NOSEL
1070
     0
1002
}
1002
{
1000
BEHIND
1070
     0
1002
}
1002
{
1000
OTHER
1070
     0
1002
}
1002
{
1000
REACTOR
1002
}
1001
GENIUS_GENOBJ-N-FIL_13
1002
{
1000
OWNER
1000
GEN
1002
}
  0
ARC
  5
2A53
  8
240
  6
CONTINUOUS
 10
88.427660809132021
 20
2.363443186745974
 30
0.0
 40
0.2
 50
165.0
 51
254.99999999999969
1001
GENIUS_GENODEF_13
1002
{
1000
HIER
1070
     0
1002
}
1002
{
1000
MANEDIT
1070
     0
1002
}
1002
{
1000
NOSEL
1070
     0
1002
}
1002
{
1000
BEHIND
1070
     0
1002
}
1002
{
1000
OTHER
1070
     0
1002
}
1002
{
1000
REACTOR
1002
}
1001
GENIUS_GENOBJ-N-FIL_13
1002
{
1000
OWNER
1000
GEN
1002
}
  0
LINE
  5
2AA4
  8
240
 10
89.019333915356313
 20
-4.500000000000056
 30
0.0
 11
90.299999999999983
 21
-5.3026661262206867
 31
0.0
  0
LINE
  5
2AA5
  8
240
 10
90.799999999999983
 20
-5.3026661262206813
 30
0.0
 11
91.751635411418235
 21
-4.6579954191639921
 31
0.0
  0
LINE
  5
2B40
  8
250
  6
CONTINUOUS
 10
90.825962438922005
 20
6.6449747468305231
 30
0.0
 11
95.529438499988288
 21
11.348450807896819
 31
0.0
  0
LINE
  5
2B41
  8
250
  6
CONTINUOUS
 10
88.793094245744612
 20
5.112106553653156
 30
0.0
 11
88.793094245744612
 21
14.13873595881863
 31
0.0
  0
ARC
  5
2B42
  8
250
  6
CONTINUOUS
 10
88.793094245744612
 20
4.612106553653156
 30
0.0
 40
8.5266294051654725
 50
60.027809408904382
 51
74.97219059109527
  0
LINE
  5
2B46
  8
250
  6
CONTINUOUS
 10
93.0
 20
4.5466731170405827
 30
0.0
 11
93.0
 21
18.352222268754701
 31
0.0
  0
LINE
  5
2B47
  8
250
  6
CONTINUOUS
 10
90.401698370210056
 20
6.6449747468305231
 30
0.0
 11
82.884449186225467
 21
14.162223930815101
 31
0.0
  0
ARC
  5
2B48
  8
250
  6
CONTINUOUS
 10
93.0
 20
4.0466731170405827
 30
0.0
 40
13.30554915171413
 50
99.614004084472043
 51
125.3859959155278
  0
TEXT
  5
2B4C
  8
250
  6
CONTINUOUS
 10
89.482362981347435
 20
14.638151458474001
 30
0.0
 40
2.799999999999998
  1
45\U+00B0
 50
337.5
  0
LINE
  5
2B4D
  8
250
  6
CONTINUOUS
 10
90.955343924139811
 20
12.478650782957899
 30
0.0
 11
88.793094245744612
 21
13.13873595881863
 31
0.0
  0
LINE
  5
2B4E
  8
250
  6
CONTINUOUS
 10
91.052547241802984
 20
13.215601228700161
 30
0.0
 11
88.793094245744612
 21
13.13873595881863
 31
0.0
  0
LINE
  5
2B4F
  8
250
  6
CONTINUOUS
 10
88.793094245744612
 20
13.13873595881863
 30
0.0
 11
91.003945582971369
 21
12.847126005829031
 31
0.0
  0
LINE
  5
2B50
  8
250
  6
CONTINUOUS
 10
93.279009137087584
 20
12.29337051556638
 30
0.0
 11
94.822331718801735
 21
10.64134402671027
 31
0.0
  0
LINE
  5
2B51
  8
250
  6
CONTINUOUS
 10
92.826639604578261
 20
11.7035347329101
 30
0.0
 11
94.822331718801735
 21
10.64134402671027
 31
0.0
  0
LINE
  5
2B52
  8
250
  6
CONTINUOUS
 10
94.822331718801735
 20
10.64134402671027
 30
0.0
 11
93.052824370832923
 21
11.99845262423824
 31
0.0
  0
TEXT
  5
2B53
  8
250
  6
CONTINUOUS
 10
84.569088844718408
 20
16.03869019607518
 30
0.0
 40
2.799999999999998
  1
45\U+00B0
 50
22.500000000000011
  0
LINE
  5
2B54
  8
250
  6
CONTINUOUS
 10
85.534857415329199
 20
14.610372789577619
 30
0.0
 11
83.591555967412006
 21
13.45511714962856
 31
0.0
  0
LINE
  5
2B55
  8
250
  6
CONTINUOUS
 10
85.05513658897182
 20
15.17818646782378
 30
0.0
 11
83.591555967412006
 21
13.45511714962856
 31
0.0
  0
LINE
  5
2B56
  8
250
  6
CONTINUOUS
 10
83.591555967412006
 20
13.45511714962856
 30
0.0
 11
85.29499700215051
 21
14.8942796287007
 31
0.0
  0
LINE
  5
2B57
  8
250
  6
CONTINUOUS
 10
90.746698218331503
 20
17.535708485786881
 30
0.0
 11
93.0
 21
17.352222268754701
 31
0.0
  0
LINE
  5
2B58
  8
250
  6
CONTINUOUS
 10
90.808989271276147
 20
16.79498973405483
 30
0.0
 11
93.0
 21
17.352222268754701
 31
0.0
  0
LINE
  5
2B59
  8
250
  6
CONTINUOUS
 10
93.0
 20
17.352222268754701
 30
0.0
 11
90.777843744803846
 21
17.16534910992085
 31
0.0
  0
VIEWPORT
  5
22
 67
     1
  8
0
 10
261.51769911504419
 20
148.5
 30
0.0
 40
523.0353982300885
 41
297.0
 68
     1
 69
     1
1001
ACAD
1000
MVIEW
1002
{
1070
    16
1010
0.0
1020
0.0
1030
0.0
1010
0.0
1020
0.0
1030
1.0
1040
0.0
1040
297.0
1040
261.51769911504419
1040
148.5
1040
50.0
1040
0.0
1040
0.0
1070
     0
1070
   100
1070
     1
1070
     1
1070
     0
1070
     0
1070
     0
1070
     0
1040
0.0
1040
0.0
1040
0.0
1040
1.0
1040
1.0
1040
10.0
1040
10.0
1070
     0
1002
{
1002
}
1002
}
1001
GENIUS_GENODEF_13
1002
{
1000
HIER
1070
     0
1002
}
1002
{
1000
MANEDIT
1070
     0
1002
}
1002
{
1000
NOSEL
1070
     0
1002
}
1002
{
1000
BEHIND
1070
     0
1002
}
1002
{
1000
OTHER
1070
     0
1002
}
1002
{
1000
REACTOR
1002
}
1001
GENIUS_GENOBJ-N-SDF_13
1002
{
1000
OWNER
1000
GEN
1002
}
1001
GENIUS_GENSCREG_15
1000
PF
1040
1.0
1000
DF
1040
1.0
1000
MIN
1011
0.0
1021
0.0
1031
0.0
1021
0.0
1031
0.0
1000
MAX
1011
523.0353982300885
1021
0.0
1031
0.0
1021
297.0
1031
0.0
1000
FLAGS
1070
     4
  0
ENDSEC
  0
EOF
