  0
SECTION
  2
HEADER
  9
$ACADVER
  1
AC1009
  9
$INSBASE
 10
0.0
 20
0.0
 30
0.0
  9
$EXTMIN
 10
-135.182374293603
 20
-28.191202929437171
 30
-0.0000000349181948
  9
$EXTMAX
 10
22.027607795705421
 20
47.004500138224962
 30
0.0000000814935747
  9
$LIMMIN
 10
0.0
 20
0.0
  9
$LIMMAX
 10
297.0
 20
210.0
  9
$ORTHOMODE
 70
     1
  9
$REGENMODE
 70
     1
  9
$FILLMODE
 70
     1
  9
$QTEXTMODE
 70
     0
  9
$MIRRTEXT
 70
     1
  9
$DRAGMODE
 70
     2
  9
$LTSCALE
 40
10.0
  9
$OSMODE
 70
  2597
  9
$ATTMODE
 70
     1
  9
$TEXTSIZE
 40
5.0
  9
$TRACEWID
 40
1.0
  9
$TEXTSTYLE
  7
YOKO
  9
$CLAYER
  8
240
  9
$CELTYPE
  6
BYLAYER
  9
$CECOLOR
 62
   256
  9
$DIMSCALE
 40
1.0
  9
$DIMASZ
 40
2.2299999999999991
  9
$DIMEXO
 40
0.5
  9
$DIMDLI
 40
7.0
  9
$DIMRND
 40
0.0
  9
$DIMDLE
 40
0.0
  9
$DIMEXE
 40
1.0
  9
$DIMTP
 40
0.0
  9
$DIMTM
 40
0.01
  9
$DIMTXT
 40
2.799999999999998
  9
$DIMCEN
 40
0.0
  9
$DIMTSZ
 40
0.0
  9
$DIMTOL
 70
     0
  9
$DIMLIM
 70
     0
  9
$DIMTIH
 70
     0
  9
$DIMTOH
 70
     0
  9
$DIMSE1
 70
     0
  9
$DIMSE2
 70
     0
  9
$DIMTAD
 70
     3
  9
$DIMZIN
 70
     9
  9
$DIMBLK
  1
OPEN
  9
$DIMASO
 70
     1
  9
$DIMSHO
 70
     1
  9
$DIMPOST
  1

  9
$DIMAPOST
  1

  9
$DIMALT
 70
     0
  9
$DIMALTD
 70
     2
  9
$DIMALTF
 40
25.399999999999999
  9
$DIMLFAC
 40
1.0
  9
$DIMTOFL
 70
     1
  9
$DIMTVP
 40
0.0
  9
$DIMTIX
 70
     1
  9
$DIMSOXD
 70
     0
  9
$DIMSAH
 70
     0
  9
$DIMBLK1
  1

  9
$DIMBLK2
  1

  9
$DIMSTYLE
  2
BIGT
  9
$DIMCLRD
 70
   256
  9
$DIMCLRE
 70
   256
  9
$DIMCLRT
 70
    40
  9
$DIMTFAC
 40
1.0
  9
$DIMGAP
 40
1.0
  9
$LUNITS
 70
     2
  9
$LUPREC
 70
     3
  9
$SKETCHINC
 40
1.0
  9
$FILLETRAD
 40
0.0
  9
$AUNITS
 70
     0
  9
$AUPREC
 70
     3
  9
$MENU
  1
.
  9
$ELEVATION
 40
0.0
  9
$PELEVATION
 40
0.0
  9
$THICKNESS
 40
0.0
  9
$LIMCHECK
 70
     0
  9
$BLIPMODE
 70
     0
  9
$CHAMFERA
 40
0.25
  9
$CHAMFERB
 40
0.25
  9
$SKPOLY
 70
     0
  9
$TDCREATE
 40
2452996.7245853129
  9
$TDUPDATE
 40
2453608.4546333328
  9
$TDINDWG
 40
0.0054951736
  9
$TDUSRTIMER
 40
0.0054949884
  9
$USRTIMER
 70
     1
  9
$ANGBASE
 50
0.0
  9
$ANGDIR
 70
     0
  9
$PDMODE
 70
    35
  9
$PDSIZE
 40
-5.0
  9
$PLINEWID
 40
0.0
  9
$COORDS
 70
     2
  9
$SPLFRAME
 70
     0
  9
$SPLINETYPE
 70
     6
  9
$SPLINESEGS
 70
     4
  9
$ATTDIA
 70
     1
  9
$ATTREQ
 70
     1
  9
$HANDLING
 70
     1
  9
$HANDSEED
  5
1A0A
  9
$SURFTAB1
 70
     6
  9
$SURFTAB2
 70
     6
  9
$SURFTYPE
 70
     6
  9
$SURFU
 70
     6
  9
$SURFV
 70
     6
  9
$UCSNAME
  2

  9
$UCSORG
 10
0.0
 20
0.0
 30
0.0
  9
$UCSXDIR
 10
1.0
 20
0.0
 30
0.0
  9
$UCSYDIR
 10
0.0
 20
1.0
 30
0.0
  9
$PUCSNAME
  2

  9
$PUCSORG
 10
0.0
 20
0.0
 30
0.0
  9
$PUCSXDIR
 10
1.0
 20
0.0
 30
0.0
  9
$PUCSYDIR
 10
0.0
 20
1.0
 30
0.0
  9
$USERI1
 70
     1
  9
$USERI2
 70
     0
  9
$USERI3
 70
     0
  9
$USERI4
 70
     0
  9
$USERI5
 70
     0
  9
$USERR1
 40
0.0
  9
$USERR2
 40
0.0
  9
$USERR3
 40
0.0
  9
$USERR4
 40
0.0
  9
$USERR5
 40
0.0
  9
$WORLDVIEW
 70
     1
  9
$SHADEDGE
 70
     3
  9
$SHADEDIF
 70
    70
  9
$TILEMODE
 70
     1
  9
$MAXACTVP
 70
    16
  9
$PLIMCHECK
 70
     0
  9
$PEXTMIN
 10
1.0000000000000000E+020
 20
1.0000000000000000E+020
 30
1.0000000000000000E+020
  9
$PEXTMAX
 10
-1.0000000000000000E+020
 20
-1.0000000000000000E+020
 30
-1.0000000000000000E+020
  9
$PLIMMIN
 10
0.0
 20
0.0
  9
$PLIMMAX
 10
420.0
 20
297.0
  9
$UNITMODE
 70
     0
  9
$VISRETAIN
 70
     1
  9
$PLINEGEN
 70
     0
  9
$PSLTSCALE
 70
     1
  0
ENDSEC
  0
SECTION
  2
TABLES
  0
TABLE
  2
VPORT
 70
    23
  0
VPORT
  2
*ACTIVE
 70
     0
 10
0.0
 20
0.0
 11
1.0
 21
1.0
 12
-56.57738324894882
 22
9.4066486043938973
 13
0.0
 23
0.0
 14
7.0
 24
7.0
 15
7.0
 25
7.0
 16
0.0
 26
0.0
 36
1.0
 17
0.0
 27
0.0
 37
0.0
 40
107.98855420732809
 41
1.4630303030303029
 42
50.0
 43
0.0
 44
0.0
 50
0.0
 51
0.0
 71
     0
 72
  2000
 73
     1
 74
     0
 75
     0
 76
     0
 77
     0
 78
     0
  0
ENDTAB
  0
TABLE
  2
LTYPE
 70
    21
  0
LTYPE
  2
CONTINUOUS
 70
     0
  3
Solid line
 72
    65
 73
     0
 40
0.0
  0
LTYPE
  2
CENTER2
 70
     0
  3
___ _ ___ _ ___ _ ___ _ ___ _ ___ _ ___ _ ___ _
 72
    65
 73
     4
 40
1.125
 49
0.75
 49
-0.125
 49
0.125
 49
-0.125
  0
LTYPE
  2
HIDDEN2
 70
     0
  3
_ _ _ _ _ _ _ _ _ _ _ _ _ _ _ _ _ _ _ _ _ _ _ _
 72
    65
 73
     2
 40
0.1875
 49
0.125
 49
-0.0625
  0
LTYPE
  2
PHANTOM2
 70
     0
  3
___ _ _ ___ _ _ ___ _ _ ___ _ _ ___ _ _ ___ _ _
 72
    65
 73
     6
 40
1.25
 49
0.625
 49
-0.125
 49
0.125
 49
-0.125
 49
0.125
 49
-0.125
  0
LTYPE
  2
CENTER
 70
     0
  3
____ _ ____ _ ____ _ ____ _ ____ _ ____ _ ____ 
 72
    65
 73
     4
 40
2.0
 49
1.25
 49
-0.25
 49
0.25
 49
-0.25
  0
LTYPE
  2
AMCONSTR
 70
     0
  3
_______________________
 72
    65
 73
     2
 40
9999.0
 49
9999.0
 49
0.0
  0
LTYPE
  2
HIDDEN
 70
     0
  3
Hidden __ __ __ __ __ __ __ __ __ __ __ __ __ _
 72
    65
 73
     2
 40
9.5249999999999986
 49
6.3499999999999979
 49
-3.174999999999998
  0
LTYPE
  2
AMZIGZAG2
 70
     0
  3
/\/-/\/-/\/-/\/-/\/-/\/
 72
    65
 73
     2
 40
0.4401
 49
0.0001
 49
-0.4400000000000001
  0
LTYPE
  2
ACANSTGB
 70
     0
  3
__ . . __ . .
 72
    65
 73
     6
 40
0.35433070866
 49
0.15748031496
 49
-0.03937007874
 49
0.03937007874
 49
-0.03937007874
 49
0.03937007874
 49
-0.03937007874
  0
LTYPE
  2
ACANSTGL
 70
     0
  3
_ _ _ _ _
 72
    65
 73
     2
 40
0.11811023622
 49
0.07874015748
 49
-0.03937007874
  0
ENDTAB
  0
TABLE
  2
LAYER
 70
    10
  0
LAYER
  2
0
 70
     0
 62
     7
  6
CONTINUOUS
  0
LAYER
  2
240
 70
     0
 62
     4
  6
CONTINUOUS
  0
LAYER
  2
DEFPOINTS
 70
     0
 62
     7
  6
CONTINUOUS
  0
LAYER
  2
245
 70
     0
 62
     2
  6
CENTER2
  0
LAYER
  2
241
 70
     0
 62
   211
  6
CONTINUOUS
  0
LAYER
  2
246
 70
     0
 62
     3
  6
PHANTOM2
  0
LAYER
  2
247
 70
     0
 62
    60
  6
CONTINUOUS
  0
LAYER
  2
250
 70
     0
 62
     3
  6
CONTINUOUS
  0
ENDTAB
  0
TABLE
  2
STYLE
 70
     9
  0
STYLE
  2
STANDARD
 70
     0
 40
0.0
 41
1.0
 50
0.0
 71
     0
 42
3.0
  3
romans.shx
  4
extfont.shx
  0
STYLE
  2
YOKO
 70
     0
 40
0.0
 41
1.0
 50
0.0
 71
     0
 42
5.0
  3
romans.shx
  4
extfont.shx
  0
STYLE
  2

 70
     1
 40
0.0
 41
1.0
 50
0.0
 71
     0
 42
5.0
  3
ltypeshp.shx
  4

  0
STYLE
  2
ACANSTS
 70
     0
 40
1.0
 41
1.0
 50
0.0
 71
     0
 42
5.0
  3
romans.shx
  4
extfont.shx
  0
STYLE
  2
ACANSGDT
 70
     0
 40
0.0
 41
1.0
 50
0.0
 71
     0
 42
5.0
  3
amgdtans.shx
  4

  0
ENDTAB
  0
TABLE
  2
VIEW
 70
     0
  0
ENDTAB
  0
TABLE
  2
UCS
 70
     0
  0
ENDTAB
  0
TABLE
  2
APPID
 70
    33
  0
APPID
  2
ACAD
 70
     0
  0
APPID
  2
GLOBAL
 70
     0
  0
APPID
  2
DETAIL
 70
     0
  0
APPID
  2
GRPNAME
 70
     0
  0
APPID
  2
GPARA
 70
     0
  0
APPID
  2
MCAD_NO_VIS
 70
     0
  0
APPID
  2
ACAD_TEMP_GRAPHIC
 70
     0
  0
APPID
  2
ACATTRIBSERVICES
 70
     0
  0
APPID
  2
GENIUS_GENSCREG_15
 70
     0
  0
APPID
  2
GENIUS_GENODEF_13
 70
     0
  0
APPID
  2
GENIUS_GENOBJ-N-SDF_13
 70
     0
  0
APPID
  2
GENIUS_GENREC_14
 70
     0
  0
APPID
  2
GENIUS_GENOBJ-N-REC_13
 70
     0
  0
APPID
  2
GENIUS_GENDIMSH_14
 70
     0
  0
APPID
  2
GENIUS_GENOBJ-N-DIM_13
 70
     0
  0
APPID
  2
GENIUS_GENDIM_13
 70
     0
  0
APPID
  2
GENIUS_GENDTOL_13
 70
     0
  0
APPID
  2
GENIUS_GENOLIS_13
 70
     0
  0
APPID
  2
GENIUS_GENOENT_13
 70
     0
  0
APPID
  2
GENIUS_GENOBJ-F-FEM_13
 70
     0
  0
APPID
  2
GENIUS_GENOREF_13
 70
     0
  0
APPID
  2
GENIUS_GEFFEM_13
 70
     0
  0
APPID
  2
GENIUS_GEFFEMP_13
 70
     0
  0
APPID
  2
AD_DRAW
 70
     0
  0
APPID
  2
DESIGNERASSEMBLIES
 70
     0
  0
APPID
  2
ACADM_DIM_EDIT
 70
     0
  0
APPID
  2
AMDT_DM_ADJ
 70
     0
  0
APPID
  2
GENIUS_GENOBJ-N-FIL_13
 70
     0
  0
APPID
  2
HATCH_TYPE
 70
     0
  0
APPID
  2
HATCH_DISPLAY
 70
     0
  0
APPID
  2
HATCH_DISTANCE
 70
     0
  0
APPID
  2
GENIUS_GENFIL_13
 70
     0
  0
APPID
  2
GENIUS_GENOBJ-N-CHA_13
 70
     0
  0
ENDTAB
  0
TABLE
  2
DIMSTYLE
 70
    29
  0
DIMSTYLE
  2
BIGT
 70
     0
  3

  4

  5

  6

  7

 40
1.0
 41
2.2299999999999991
 42
0.5
 43
7.0
 44
1.0
 45
0.0
 46
0.0
 47
0.0
 48
0.01
140
2.799999999999998
141
0.0
142
0.0
143
25.399999999999999
144
1.0
145
0.0
146
1.0
147
1.0
 71
     0
 72
     0
 73
     0
 74
     0
 75
     0
 76
     0
 77
     3
 78
     9
170
     0
171
     2
172
     1
173
     0
174
     1
175
     0
176
   256
177
   256
178
    40
  0
DIMSTYLE
  2
AM_ANSI
 70
     0
  3

  4
mm
  5

  6

  7

 40
1.0
 41
0.1
 42
0.05
 43
0.5
 44
0.1
 45
0.0
 46
0.0
 47
0.1
 48
0.1
140
0.12
141
0.0
142
0.0
143
25.399999999999999
144
1.0
145
0.0
146
0.71
147
0.06
 71
     0
 72
     0
 73
     1
 74
     1
 75
     0
 76
     0
 77
     0
 78
     7
170
     0
171
     2
172
     0
173
     0
174
     0
175
     0
176
   256
177
   256
178
     2
  0
DIMSTYLE
  2
AM_ANSI$3
 70
     0
  3

  4
mm
  5

  6

  7

 40
1.0
 41
0.1
 42
0.05
 43
0.5
 44
0.1
 45
0.0
 46
0.0
 47
0.1
 48
0.1
140
0.12
141
0.0
142
0.0
143
25.399999999999999
144
1.0
145
0.0
146
0.71
147
0.06
 71
     0
 72
     0
 73
     1
 74
     1
 75
     0
 76
     0
 77
     0
 78
     7
170
     0
171
     2
172
     0
173
     0
174
     0
175
     0
176
   256
177
   256
178
     2
  0
DIMSTYLE
  2
AM_ANSI$4
 70
     0
  3

  4
mm
  5

  6

  7

 40
1.0
 41
0.1
 42
0.05
 43
0.5
 44
0.1
 45
0.0
 46
0.0
 47
0.1
 48
0.1
140
0.12
141
0.0
142
0.0
143
25.399999999999999
144
1.0
145
0.0
146
0.71
147
0.06
 71
     0
 72
     0
 73
     1
 74
     1
 75
     0
 76
     0
 77
     0
 78
     7
170
     0
171
     2
172
     0
173
     0
174
     0
175
     0
176
   256
177
   256
178
     2
  0
DIMSTYLE
  2
AM_ANSI$7
 70
     0
  3

  4
mm
  5

  6

  7

 40
1.0
 41
0.1
 42
0.05
 43
0.5
 44
0.1
 45
0.0
 46
0.0
 47
0.1
 48
0.1
140
0.24
141
0.0
142
0.0
143
25.399999999999999
144
1.0
145
0.0
146
0.71
147
0.06
 71
     0
 72
     0
 73
     1
 74
     1
 75
     0
 76
     0
 77
     0
 78
     7
170
     0
171
     2
172
     0
173
     0
174
     0
175
     0
176
   256
177
   256
178
     2
  0
DIMSTYLE
  2
AM_ANSI$SF
 70
     0
  3

  4
mm
  5

  6

  7

 40
1.0
 41
0.1
 42
0.05
 43
0.5
 44
0.1
 45
0.0
 46
0.0
 47
0.1
 48
0.1
140
0.12
141
0.0
142
0.0
143
25.399999999999999
144
1.0
145
0.0
146
0.71
147
0.06
 71
     0
 72
     0
 73
     1
 74
     1
 75
     1
 76
     1
 77
     0
 78
     7
170
     0
171
     2
172
     0
173
     0
174
     0
175
     0
176
   256
177
   256
178
     2
  0
DIMSTYLE
  2
AM_ANSI$SH
 70
     0
  3

  4
mm
  5

  6
GENAXEH
  7

 40
1.0
 41
0.1
 42
0.05
 43
0.5
 44
0.1
 45
0.0
 46
0.0
 47
0.1
 48
0.1
140
0.12
141
0.0
142
0.0
143
25.399999999999999
144
1.0
145
0.0
146
0.71
147
0.06
 71
     0
 72
     0
 73
     1
 74
     1
 75
     1
 76
     1
 77
     0
 78
     7
170
     0
171
     2
172
     0
173
     1
174
     0
175
     0
176
   256
177
   256
178
     2
  0
ENDTAB
  0
ENDSEC
  0
SECTION
  2
BLOCKS
  0
BLOCK
  8
0
  2
$MODEL_SPACE
 70
     0
 10
0.0
 20
0.0
 30
0.0
  3
$MODEL_SPACE
  1

  0
ENDBLK
  5
16EB
  8
0
  0
BLOCK
 67
     1
  8
0
  2
$PAPER_SPACE
 70
     0
 10
0.0
 20
0.0
 30
0.0
  3
$PAPER_SPACE
  1

  0
ENDBLK
  5
16E7
 67
     1
  8
0
  0
BLOCK
  8
0
  2
_OPEN
 70
     0
 10
0.0
 20
0.0
 30
0.0
  3
_OPEN
  1

  0
LINE
  5
165E
  8
0
  6
BYBLOCK
 62
     0
 10
-1.0
 20
0.1666666666666666
 30
0.0
 11
0.0
 21
0.0
 31
0.0
  0
LINE
  5
165F
  8
0
  6
BYBLOCK
 62
     0
 10
-1.0
 20
-0.1666666666666666
 30
0.0
 11
0.0
 21
0.0
 31
0.0
  0
LINE
  5
1660
  8
0
  6
BYBLOCK
 62
     0
 10
0.0
 20
0.0
 30
0.0
 11
-1.0
 21
0.0
 31
0.0
  0
ENDBLK
  5
1661
  8
0
  0
BLOCK
  8
0
  2
GENAXEH
 70
     0
 10
0.0
 20
0.0
 30
0.0
  3
GENAXEH
  1

  0
LINE
  5
1689
  8
0
 10
-1.0
 20
0.0
 30
0.0
 11
1.0
 21
0.0
 31
0.0
  0
ENDBLK
  5
168A
  8
0
  0
BLOCK
  8
0
  2
A$C4EEB1331
 70
     0
 10
0.0
 20
0.0
 30
0.0
  3
A$C4EEB1331
  1

  0
LINE
  5
18FC
  8
247
 10
-54.160291816123049
 20
-4.4396050088432304
 30
0.0
 11
-53.36545067915538
 21
-3.644763871875575
 31
0.0
  0
LINE
  5
18FD
  8
247
 10
-53.618146682601044
 20
-3.6280521916891502
 30
0.0
 11
-53.299729832928847
 21
-3.3096353420169602
 31
0.0
  0
LINE
  5
18FE
  8
247
 10
-54.495420345981657
 20
-4.5053258550697617
 30
0.0
 11
-54.177003496309482
 21
-4.186909005397581
 31
0.0
  0
LINE
  5
18FF
  8
247
 10
-53.54109075240887
 20
-3.281588577864893
 30
0.0
 11
-53.310749622616257
 21
-3.0512474480722802
 31
0.0
  0
LINE
  5
1900
  8
247
 10
-54.767052721524003
 20
-4.5075505469800401
 30
0.0
 11
-54.523467110133723
 21
-4.26396493558976
 31
0.0
  0
LINE
  5
1901
  8
247
 10
-53.560219912035897
 20
-3.0313100538598681
 30
0.0
 11
-53.362308997110183
 21
-2.8333991389341322
 31
0.0
  0
LINE
  5
1902
  8
247
 10
-55.036460405156078
 20
-4.5075505469800401
 30
0.0
 11
-54.793955528584711
 21
-4.2650456704086732
 31
0.0
  0
LINE
  5
1903
  8
247
 10
-53.624363750939366
 20
-2.8260462091312482
 30
0.0
 11
-53.442556253292032
 21
-2.6442387114839061
 31
0.0
  0
LINE
  5
1904
  8
247
 10
-55.305868088788152
 20
-4.5075505469800481
 30
0.0
 11
-55.0633632122168
 21
-4.2650456704086812
 31
0.0
  0
LINE
  5
1905
  8
247
 10
-53.720093657518461
 20
-2.6523684320782679
 30
0.0
 11
-53.546210800279447
 21
-2.4784855748392598
 31
0.0
  0
LINE
  5
1906
  8
247
 10
-55.575275772420227
 20
-4.5075505469800401
 30
0.0
 11
-55.332770895848867
 21
-4.2650456704086812
 31
0.0
  0
LINE
  5
1907
  8
247
 10
-53.842324309414977
 20
-2.5051914003427229
 30
0.0
 11
-53.670847436148961
 21
-2.3337145270767139
 31
0.0
  0
LINE
  5
1908
  8
247
 10
-55.844683456052287
 20
-4.5075505469800401
 30
0.0
 11
-55.602178579480928
 21
-4.2650456704086812
 31
0.0
  0
LINE
  5
1909
  8
247
 10
-53.989669632652102
 20
-2.3831290399477592
 30
0.0
 11
-53.81575389665695
 21
-2.2092133039526001
 31
0.0
  0
LINE
  5
190A
  8
247
 10
-56.11409113968439
 20
-4.5075505469800401
 30
0.0
 11
-55.871586263113016
 21
-4.2650456704086732
 31
0.0
  0
LINE
  5
190B
  8
247
 10
-54.163535120322088
 20
-2.287586843985677
 30
0.0
 11
-53.981652258274643
 21
-2.1057039819382251
 31
0.0
  0
LINE
  5
190C
  8
247
 10
-56.383498823316451
 20
-4.5075505469800481
 30
0.0
 11
-56.140993946745098
 21
-4.2650456704086812
 31
0.0
  0
LINE
  5
190D
  8
247
 10
-54.36903920123536
 20
-2.223683241266869
 30
0.0
 11
-54.170981545111047
 21
-2.0256255851425631
 31
0.0
  0
LINE
  5
190E
  8
247
 10
-56.652906506948533
 20
-4.5075505469800401
 30
0.0
 11
-56.410401630377159
 21
-4.2650456704086812
 31
0.0
  0
LINE
  5
190F
  8
247
 10
-54.619704028305442
 20
-2.204940384704861
 30
0.0
 11
-54.389048872563428
 21
-1.9742852289628541
 31
0.0
  0
LINE
  5
1910
  8
247
 10
-56.9223141905806
 20
-4.5075505469800401
 30
0.0
 11
-56.679809314009262
 21
-4.2650456704086812
 31
0.0
  0
LINE
  5
1911
  8
247
 10
-54.845437250315292
 20
-2.1612659230826718
 30
0.0
 11
-54.647777160094627
 21
-1.963605832861993
 31
0.0
  0
LINE
  5
1912
  8
247
 10
-57.191721874212682
 20
-4.5075505469800401
 30
0.0
 11
-56.949216997641301
 21
-4.2650456704086732
 31
0.0
  0
LINE
  5
1913
  8
247
 10
-57.46112955784475
 20
-4.5075505469800481
 30
0.0
 11
-57.218624681273411
 21
-4.2650456704086812
 31
0.0
  0
LINE
  5
1914
  8
247
 10
-57.730537241476831
 20
-4.5075505469800401
 30
0.0
 11
-57.488032364905472
 21
-4.2650456704086812
 31
0.0
  0
LINE
  5
1915
  8
247
 10
-57.999944925108899
 20
-4.5075505469800401
 30
0.0
 11
-57.757440048537539
 21
-4.2650456704086812
 31
0.0
  0
LINE
  5
1916
  8
247
 10
-58.269352608740981
 20
-4.507550546980033
 30
0.0
 11
-58.026847732169621
 21
-4.2650456704086732
 31
0.0
  0
LINE
  5
1917
  8
247
 10
-58.538760292373063
 20
-4.5075505469800401
 30
0.0
 11
-58.296255415801703
 21
-4.2650456704086812
 31
0.0
  0
LINE
  5
1918
  8
247
 10
-58.80816797600513
 20
-4.5075505469800401
 30
0.0
 11
-58.565663099433777
 21
-4.2650456704086812
 31
0.0
  0
LINE
  5
1919
  8
247
 10
-59.077575659637219
 20
-4.5075505469800401
 30
0.0
 11
-58.835070783065852
 21
-4.2650456704086812
 31
0.0
  0
LINE
  5
191A
  8
247
 10
-59.346983343269272
 20
-4.5075505469800401
 30
0.0
 11
-59.10447846669792
 21
-4.2650456704086812
 31
0.0
  0
LINE
  5
191B
  8
247
 10
-59.610957699105853
 20
-4.5021172191845391
 30
0.0
 11
-59.373886150329987
 21
-4.2650456704086812
 31
0.0
  0
LINE
  5
191C
  8
247
 10
-59.838229028926591
 20
-4.459980865373204
 30
0.0
 11
-59.633707320244397
 21
-4.2554591566910158
 31
0.0
  0
LINE
  5
191D
  8
247
 10
-60.03451859162918
 20
-4.386862744443718
 30
0.0
 11
-59.849318486947851
 21
-4.2016626397623877
 31
0.0
  0
LINE
  5
191E
  8
247
 10
-60.206326560102248
 20
-4.2892630292847107
 30
0.0
 11
-60.03089373742835
 21
-4.1138302066107979
 31
0.0
  0
LINE
  5
191F
  8
247
 10
-60.356687579299049
 20
-4.170216364849451
 30
0.0
 11
-60.185038339018718
 21
-3.9985671245691119
 31
0.0
  0
LINE
  5
1920
  8
247
 10
-60.486728126812068
 20
-4.0308492287303963
 30
0.0
 11
-60.313971224051237
 21
-3.8580923259695501
 31
0.0
  0
LINE
  5
1921
  8
247
 10
-60.596121331876461
 20
-3.8708347501626919
 30
0.0
 11
-60.417060531641972
 21
-3.6917739499282041
 31
0.0
  0
LINE
  5
1922
  8
247
 10
-59.198466456292842
 20
-2.2037721909470052
 30
0.0
 11
-59.007415992942953
 21
-2.0127217275971101
 31
0.0
  0
LINE
  5
1923
  8
247
 10
-60.682961366150643
 20
-3.6882671008047918
 30
0.0
 11
-60.490422290163153
 21
-3.4957280248173102
 31
0.0
  0
LINE
  5
1924
  8
247
 10
-59.467874139924923
 20
-2.2037721909469981
 30
0.0
 11
-59.225369257112412
 21
-1.961267308134508
 31
0.0
  0
LINE
  5
1925
  8
247
 10
-60.742925112796421
 20
-3.4788231638185021
 30
0.0
 11
-60.523791386998688
 21
-3.259689438020771
 31
0.0
  0
LINE
  5
1926
  8
247
 10
-59.77707046227578
 20
-2.2435608296657881
 30
0.0
 11
-59.494777617513208
 21
-1.96126798490323
 31
0.0
  0
LINE
  5
1927
  8
247
 10
-60.76660569625944
 20
-3.2330960636494481
 30
0.0
 11
-60.48431285149686
 21
-2.9508032188868878
 31
0.0
  0
LINE
  5
1928
  8
247
 10
-60.728610086349647
 20
-2.9256927701075881
 30
0.0
 11
-59.802180911055061
 21
-1.9992635948130211
 31
0.0
  0
LINE
  5
1929
  8
247
 10
-55.354913499271561
 20
-4.017780590199294
 30
0.0
 11
-55.127568831901598
 21
-3.7904359228293369
 31
0.0
  0
LINE
  5
192A
  8
247
 10
-55.746656333922211
 20
-4.1401157412178691
 30
0.0
 11
-55.01925999919942
 21
-3.4127194064950701
 31
0.0
  0
LINE
  5
192B
  8
247
 10
-55.632243995883762
 20
-3.7562957195473441
 30
0.0
 11
-54.91095116649722
 21
-3.0350028901608099
 31
0.0
  0
LINE
  5
192C
  8
247
 10
-55.999651194152591
 20
-4.1237029178161659
 30
0.0
 11
-55.714946491888782
 21
-3.838998215552357
 31
0.0
  0
LINE
  5
192D
  8
247
 10
-55.510039244433571
 20
-3.3646832844650718
 30
0.0
 11
-55.052381324743607
 21
-2.9070253647751358
 31
0.0
  0
LINE
  5
192E
  8
247
 10
-56.19547699026888
 20
-4.0501210303003869
 30
0.0
 11
-55.983727650370788
 21
-3.8383716904022962
 31
0.0
  0
LINE
  5
192F
  8
247
 10
-55.5642938911882
 20
-3.1495302475876259
 30
0.0
 11
-55.32178900837571
 21
-2.9070253647751358
 31
0.0
  0
LINE
  5
1930
  8
247
 10
-56.353294350042852
 20
-3.9385307064422781
 30
0.0
 11
-56.096463628976153
 21
-3.6816999853755861
 31
0.0
  0
LINE
  5
1931
  8
247
 10
-54.967344940685969
 20
-2.28317361345335
 30
0.0
 11
-54.942096400220798
 21
-2.257925072988165
 31
0.0
  0
LINE
  5
1932
  8
247
 10
-56.477946114309987
 20
-3.7937747870773522
 30
0.0
 11
-56.036190858551713
 21
-3.3520195313190722
 31
0.0
  0
LINE
  5
1933
  8
247
 10
-55.304251167769252
 20
-2.350672156904535
 30
0.0
 11
-55.006683317703889
 21
-2.0531043068391881
 31
0.0
  0
LINE
  5
1934
  8
247
 10
-56.567441615730083
 20
-3.613862604865353
 30
0.0
 11
-55.927881657692453
 21
-2.974302646827752
 31
0.0
  0
LINE
  5
1935
  8
247
 10
-55.458941406261339
 20
-2.2359547117645482
 30
0.0
 11
-55.27735540263356
 21
-2.054368708136769
 31
0.0
  0
LINE
  5
1936
  8
247
 10
-56.610300355726281
 20
-3.387313661229483
 30
0.0
 11
-55.819572456833193
 21
-2.5965857623364159
 31
0.0
  0
LINE
  5
1937
  8
247
 10
-56.572126681980031
 20
-3.079732303851173
 30
0.0
 11
-55.473450098164321
 21
-1.981055720035463
 31
0.0
  0
LINE
  5
1938
  8
247
 10
-56.482685264884971
 20
-2.7208832031240311
 30
0.0
 11
-55.726935543218403
 21
-1.9651334814574479
 31
0.0
  0
LINE
  5
1939
  8
247
 10
-56.457292408184422
 20
-1.961267308134508
 30
0.0
 11
-57.087980884746941
 21
-1.961267308134508
 31
0.0
1001
HATCH_DISTANCE
1040
1.0
1001
HATCH_DISPLAY
1070
     0
1001
HATCH_TYPE
1070
     7
  0
LINE
  5
193A
  8
247
 10
-57.08311943455162
 20
-4.1437932290024246
 30
0.0
 11
-56.457292408184422
 21
-1.961267308134508
 31
0.0
1001
HATCH_DISTANCE
1040
1.0
1001
HATCH_DISPLAY
1070
     0
1001
HATCH_TYPE
1070
     7
  0
LINE
  5
193B
  8
247
 10
-57.625514454082868
 20
-4.1437932290024246
 30
0.0
 11
-57.08311943455162
 21
-4.1437932290024246
 31
0.0
1001
HATCH_DISTANCE
1040
1.0
1001
HATCH_DISPLAY
1070
     0
1001
HATCH_TYPE
1070
     7
  0
LINE
  5
193C
  8
247
 10
-57.076170582012558
 20
-2.2280153550095032
 30
0.0
 11
-57.625514454082868
 21
-4.1437932290024246
 31
0.0
1001
HATCH_DISTANCE
1040
1.0
1001
HATCH_DISPLAY
1070
     0
1001
HATCH_TYPE
1070
     7
  0
LINE
  5
193D
  8
247
 10
-57.164473194317253
 20
-2.2280153550095032
 30
0.0
 11
-57.076170582012558
 21
-2.2280153550095032
 31
0.0
1001
HATCH_DISTANCE
1040
1.0
1001
HATCH_DISPLAY
1070
     0
1001
HATCH_TYPE
1070
     7
  0
LINE
  5
193E
  8
247
 10
-57.087980884746941
 20
-1.961267308134508
 30
0.0
 11
-57.164473194317253
 21
-2.2280153550095032
 31
0.0
1001
HATCH_DISTANCE
1040
1.0
1001
HATCH_DISPLAY
1070
     0
1001
HATCH_TYPE
1070
     7
  0
LINE
  5
193F
  8
247
 10
-56.457292408184422
 20
-1.961267308134508
 30
0.0
 11
-57.087980884746941
 21
-1.961267308134508
 31
0.0
  0
LINE
  5
1940
  8
247
 10
-57.08311943455162
 20
-4.1437932290024246
 30
0.0
 11
-56.457292408184422
 21
-1.961267308134508
 31
0.0
  0
LINE
  5
1941
  8
247
 10
-57.625514454082868
 20
-4.1437932290024246
 30
0.0
 11
-57.08311943455162
 21
-4.1437932290024246
 31
0.0
  0
LINE
  5
1942
  8
247
 10
-57.076170582012558
 20
-2.2280153550095032
 30
0.0
 11
-57.625514454082868
 21
-4.1437932290024246
 31
0.0
  0
LINE
  5
1943
  8
247
 10
-57.164473194317253
 20
-2.2280153550095032
 30
0.0
 11
-57.076170582012558
 21
-2.2280153550095032
 31
0.0
  0
LINE
  5
1944
  8
247
 10
-57.087980884746941
 20
-1.961267308134508
 30
0.0
 11
-57.164473194317253
 21
-2.2280153550095032
 31
0.0
  0
LINE
  5
1945
  8
247
 10
-57.097372239867141
 20
-4.1437932290024246
 30
0.0
 11
-57.077389494869919
 21
-4.1238104840052028
 31
0.0
  0
LINE
  5
1946
  8
247
 10
-57.366779923499209
 20
-4.1437932290024246
 30
0.0
 11
-56.969081709643397
 21
-3.746095015146615
 31
0.0
  0
LINE
  5
1947
  8
247
 10
-57.621223554401901
 20
-4.128829176273058
 30
0.0
 11
-56.860773924416883
 21
-3.3683795462880242
 31
0.0
  0
LINE
  5
1948
  8
247
 10
-57.512914291105119
 20
-3.7511122293441721
 30
0.0
 11
-56.752466139190389
 21
-2.9906640774294431
 31
0.0
  0
LINE
  5
1949
  8
247
 10
-57.40460502780833
 20
-3.3733952824153151
 30
0.0
 11
-56.64415835396386
 21
-2.6129486085708602
 31
0.0
  0
LINE
  5
194A
  8
247
 10
-57.29629576451152
 20
-2.9956783354864309
 30
0.0
 11
-56.535850568737366
 21
-2.2352331397122711
 31
0.0
  0
LINE
  5
194B
  8
247
 10
-57.187986501214738
 20
-2.617961388557573
 30
0.0
 11
-56.531292420791686
 21
-1.961267308134508
 31
0.0
  0
LINE
  5
194C
  8
247
 10
-57.07967723791792
 20
-2.2402444416286951
 30
0.0
 11
-56.800700104423747
 21
-1.9612673081345151
 31
0.0
  0
LINE
  5
194D
  8
247
 10
-57.095166762368478
 20
-1.986326282447165
 30
0.0
 11
-57.070107788055822
 21
-1.961267308134508
 31
0.0
  0
LINE
  5
194E
  8
247
 10
-54.822206348614131
 20
-2.2349367417282622
 30
0.0
 11
-54.822206348614131
 21
-2.2349367417282622
 31
0.0
  0
LINE
  5
194F
  8
247
 10
-54.89523796482505
 20
-2.0033357895798201
 30
0.0
 11
-54.822206348614131
 21
-2.2349367417282622
 31
0.0
  0
LINE
  5
1950
  8
247
 10
-54.89523796482505
 20
-2.0033357895798201
 30
0.0
 11
-54.89523796482505
 21
-2.0033357895798201
 31
0.0
  0
LINE
  5
1951
  8
247
 10
-54.822206348614131
 20
-2.2349367417282622
 30
0.0
 11
-54.89523796482505
 21
-2.0033357895798201
 31
0.0
  0
LINE
  5
1952
  8
247
 10
-54.822206348614131
 20
-2.2349367417282622
 30
0.0
 11
-54.822206348614131
 21
-2.2349367417282622
 31
0.0
1001
HATCH_DISTANCE
1040
1.0
1001
HATCH_DISPLAY
1070
     0
1001
HATCH_TYPE
1070
     7
  0
LINE
  5
1953
  8
247
 10
-54.89523796482505
 20
-2.0033357895798201
 30
0.0
 11
-54.822206348614131
 21
-2.2349367417282622
 31
0.0
1001
HATCH_DISTANCE
1040
1.0
1001
HATCH_DISPLAY
1070
     0
1001
HATCH_TYPE
1070
     7
  0
LINE
  5
1954
  8
247
 10
-54.89523796482505
 20
-2.0033357895798201
 30
0.0
 11
-54.89523796482505
 21
-2.0033357895798201
 31
0.0
1001
HATCH_DISTANCE
1040
1.0
1001
HATCH_DISPLAY
1070
     0
1001
HATCH_TYPE
1070
     7
  0
LINE
  5
1955
  8
247
 10
-54.822206348614131
 20
-2.2349367417282622
 30
0.0
 11
-54.89523796482505
 21
-2.0033357895798201
 31
0.0
1001
HATCH_DISTANCE
1040
1.0
1001
HATCH_DISPLAY
1070
     0
1001
HATCH_TYPE
1070
     7
  0
LINE
  5
1956
  8
247
 10
-54.822206348614131
 20
-2.2349367417282622
 30
0.0
 11
-54.822206348614131
 21
-2.2349367417282622
 31
0.0
  0
LINE
  5
1957
  8
247
 10
-54.89523796482505
 20
-2.0033357895798201
 30
0.0
 11
-54.822206348614131
 21
-2.2349367417282622
 31
0.0
  0
LINE
  5
1958
  8
247
 10
-54.89523796482505
 20
-2.0033357895798201
 30
0.0
 11
-54.89523796482505
 21
-2.0033357895798201
 31
0.0
  0
LINE
  5
1959
  8
247
 10
-54.822206348614131
 20
-2.2349367417282622
 30
0.0
 11
-54.89523796482505
 21
-2.0033357895798201
 31
0.0
  0
LINE
  5
195A
  8
247
 10
-54.822206348614131
 20
-2.2349367417282622
 30
0.0
 11
-54.822206348614131
 21
-2.2349367417282622
 31
0.0
1001
HATCH_DISTANCE
1040
1.0
1001
HATCH_DISPLAY
1070
     0
1001
HATCH_TYPE
1070
     7
  0
LINE
  5
195B
  8
247
 10
-54.89523796482505
 20
-2.0033357895798201
 30
0.0
 11
-54.822206348614131
 21
-2.2349367417282622
 31
0.0
1001
HATCH_DISTANCE
1040
1.0
1001
HATCH_DISPLAY
1070
     0
1001
HATCH_TYPE
1070
     7
  0
LINE
  5
195C
  8
247
 10
-54.89523796482505
 20
-2.0033357895798201
 30
0.0
 11
-54.89523796482505
 21
-2.0033357895798201
 31
0.0
1001
HATCH_DISTANCE
1040
1.0
1001
HATCH_DISPLAY
1070
     0
1001
HATCH_TYPE
1070
     7
  0
LINE
  5
195D
  8
247
 10
-54.822206348614131
 20
-2.2349367417282622
 30
0.0
 11
-54.89523796482505
 21
-2.0033357895798201
 31
0.0
1001
HATCH_DISTANCE
1040
1.0
1001
HATCH_DISPLAY
1070
     0
1001
HATCH_TYPE
1070
     7
  0
LINE
  5
195E
  8
246
 10
-0.9999999999999149
 20
1.4499999999994759
 30
0.0
 11
-12.24200000000002
 21
1.4499999999983111
 31
0.0
1001
GRPNAME
1000
00000007
  0
LINE
  5
195F
  8
246
 10
-2.7478530240159089
 20
2.8360651554315539
 30
0.0
 11
-12.97658552834088
 21
2.2999999999995282
 31
0.0
  0
LINE
  5
1960
  8
246
 10
-13.17658552834035
 20
2.100000000000064
 30
0.0
 11
-17.349853024010141
 21
2.1000000000000361
 31
0.0
  0
LINE
  5
1961
  8
246
 10
-17.5998530240098
 20
2.349999999999524
 30
0.0
 11
-19.539495749277979
 21
2.350000000000021
 31
0.0
  0
LINE
  5
1962
  8
246
 10
-19.799999999999969
 20
-2.0499999999999541
 30
0.0
 11
-19.799999999999969
 21
2.049999999999967
 31
0.0
  0
ARC
  5
1963
  8
246
 10
-19.499999999999972
 20
2.049999999999967
 30
0.0
 40
0.3
 50
105.0000176000942
 51
180.0
  0
LINE
  5
1964
  8
246
 10
-19.577645713530721
 20
2.339777747886727
 30
0.0
 11
-19.53949574927611
 21
2.350000000000021
 31
0.0
  0
LINE
  5
1965
  8
246
 10
-17.599853024010262
 20
2.349999999999993
 30
0.0
 11
-17.34985302401023
 21
2.0999999999999499
 31
0.0
1001
GRPNAME
1000
00000007
  0
LINE
  5
1966
  8
246
 10
-13.17658552834035
 20
2.100000000000064
 30
0.0
 11
-12.97658552834088
 21
2.2999999999995411
 31
0.0
  0
LINE
  5
1967
  8
246
 10
-1.5999999999999091
 20
2.9799762058492121
 30
0.0
 11
-1.999999999999942
 21
2.5799762058492051
 31
0.0
  0
LINE
  5
1968
  8
246
 10
-2.599999999999965
 20
2.579976205849233
 30
0.0
 11
-1.999999999999942
 21
2.5799762058492051
 31
0.0
1001
GRPNAME
1000
00000007
  0
LINE
  5
1969
  8
246
 10
-2.599999999999965
 20
2.579976205849233
 30
0.0
 11
-2.7478530240159089
 21
2.8360651554314402
 31
0.0
1001
GRPNAME
1000
00000007
  0
LINE
  5
196A
  8
246
 10
-1.2999999999999541
 20
2.9799762058492121
 30
0.0
 11
-1.0
 21
2.6799762058490302
 31
0.0
1001
GRPNAME
1000
00000007
  0
LINE
  5
196B
  8
246
 10
-1.5999999999999091
 20
2.9799762058492121
 30
0.0
 11
-1.2999999999999541
 21
2.9799762058492121
 31
0.0
1001
GRPNAME
1000
00000007
  0
LINE
  5
196C
  8
246
 10
-1.0
 20
2.6799762058490302
 30
0.0
 11
-0.9999999999998577
 21
-2.679976205848944
 31
0.0
  0
LINE
  5
196D
  8
246
 10
-1.5999999999999091
 20
-2.9799762058492529
 30
0.0
 11
-1.2999999999999541
 21
-2.9799762058492529
 31
0.0
1001
GRPNAME
1000
00000007
  0
LINE
  5
196E
  8
246
 10
-1.2999999999999541
 20
-2.9799762058492529
 30
0.0
 11
-0.9999999999998577
 21
-2.679976205848944
 31
0.0
1001
GRPNAME
1000
00000007
  0
LINE
  5
196F
  8
246
 10
-2.599999999999965
 20
-2.5799762058492761
 30
0.0
 11
-2.7478530240159089
 21
-2.8360651554314842
 31
0.0
1001
GRPNAME
1000
00000007
  0
LINE
  5
1970
  8
246
 10
-2.599999999999965
 20
-2.5799762058492761
 30
0.0
 11
-1.999999999999942
 21
-2.579976205849249
 31
0.0
1001
GRPNAME
1000
00000007
  0
LINE
  5
1971
  8
246
 10
-1.5999999999999091
 20
-2.9799762058492529
 30
0.0
 11
-1.999999999999942
 21
-2.579976205849249
 31
0.0
  0
LINE
  5
1972
  8
246
 10
-13.17658552834035
 20
-2.100000000000064
 30
0.0
 11
-12.97658552834088
 21
-2.2999999999995411
 31
0.0
  0
LINE
  5
1973
  8
246
 10
-17.599853024010262
 20
-2.3499999999999801
 30
0.0
 11
-17.34985302401023
 21
-2.099999999999937
 31
0.0
1001
GRPNAME
1000
00000007
  0
LINE
  5
1974
  8
246
 10
-19.577645713530721
 20
-2.3397777478867141
 30
0.0
 11
-19.53949574927611
 21
-2.3500000000000081
 31
0.0
  0
ARC
  5
1975
  8
246
 10
-19.499999999999972
 20
-2.0499999999999541
 30
0.0
 40
0.3
 50
180.0
 51
254.9999823999056
  0
LINE
  5
1976
  8
246
 10
-17.5998530240098
 20
-2.3499999999995111
 30
0.0
 11
-19.539495749277979
 21
-2.3500000000000081
 31
0.0
  0
LINE
  5
1977
  8
246
 10
-13.17658552834035
 20
-2.100000000000064
 30
0.0
 11
-17.349853024010141
 21
-2.100000000000021
 31
0.0
  0
LINE
  5
1978
  8
246
 10
-2.7478530240159089
 20
-2.8360651554315961
 30
0.0
 11
-12.97658552834088
 21
-2.2999999999995282
 31
0.0
  0
LINE
  5
1979
  8
246
 10
-0.9999999999998577
 20
-1.4499999999995179
 30
0.0
 11
-12.24200000000002
 21
-1.4499999999983111
 31
0.0
1001
GRPNAME
1000
00000007
  0
LINE
  5
197A
  8
247
 10
-55.371147388653171
 20
-4.0015477456039852
 30
0.0
 11
-55.228892749981291
 21
-4.1437932290024246
 31
0.0
  0
LINE
  5
197B
  8
247
 10
-55.604066700176581
 20
-3.6925936020798229
 30
0.0
 11
-55.448344654278152
 21
-3.149530247587633
 31
0.0
  0
ARC
  5
197C
  8
247
 10
-54.570646900371933
 20
-3.2344087876266912
 30
0.0
 40
1.0306365966796871
 50
270.0
 51
104.1274364964119
  0
LINE
  5
197D
  8
247
 10
-55.228892749981291
 20
-4.1437932290024246
 30
0.0
 11
-54.874254078106283
 21
-2.9070253647751358
 31
0.0
  0
ARC
  5
197E
  8
247
 10
-54.570646900371933
 20
-3.2344087876266912
 30
0.0
 40
1.0306394577026341
 50
110.8721834020771
 51
132.5419489373858
  0
LINE
  5
197F
  8
247
 10
-55.580629200176581
 20
-2.9070253647751358
 30
0.0
 11
-54.874254078106283
 21
-2.9070253647751358
 31
0.0
  0
LINE
  5
1980
  8
247
 10
-54.937846607403173
 20
-2.2714021958298201
 30
0.0
 11
-55.010878223614093
 21
-2.0398012436813802
 31
0.0
  0
ARC
  5
1981
  8
247
 10
-54.570646900371933
 20
-3.2344087876266912
 30
0.0
 40
1.2731420516967751
 50
110.22964506332001
 51
118.5716889237186
  0
LINE
  5
1982
  8
247
 10
-54.822206348614088
 20
-2.2349367417282622
 30
0.0
 11
-54.895237964825043
 21
-2.0033357895798201
 31
0.0
  0
LINE
  5
1983
  8
247
 10
-57.164473194317218
 20
-2.2280153550095032
 30
0.0
 11
-57.07617058201253
 21
-2.2280153550095032
 31
0.0
  0
LINE
  5
1984
  8
247
 10
-57.164473194317218
 20
-2.2280153550095032
 30
0.0
 11
-57.087980884746898
 21
-1.961267308134508
 31
0.0
  0
LINE
  5
1985
  8
247
 10
-57.087980884746898
 20
-1.961267308134508
 30
0.0
 11
-56.457292408184401
 21
-1.961267308134508
 31
0.0
  0
LINE
  5
1986
  8
247
 10
-57.625514454082847
 20
-4.1437932290024246
 30
0.0
 11
-57.083119434551598
 21
-4.1437932290024246
 31
0.0
  0
LINE
  5
1987
  8
247
 10
-57.625514454082847
 20
-4.1437932290024246
 30
0.0
 11
-57.07617058201253
 21
-2.2280153550095032
 31
0.0
  0
ARC
  5
1988
  8
247
 10
-54.534227222637561
 20
-3.3970979966110662
 30
0.0
 40
2.0624633789062479
 50
155.20517736984061
 51
172.79482596205219
  0
LINE
  5
1989
  8
247
 10
-56.09359917087972
 20
-3.5522249497360701
 30
0.0
 11
-55.766774219707848
 21
-2.4124574936813872
 31
0.0
  0
LINE
  5
198A
  8
247
 10
-57.083119434551598
 20
-4.1437932290024246
 30
0.0
 11
-56.457292408184401
 21
-1.961267308134508
 31
0.0
  0
LINE
  5
198B
  8
247
 10
-58.027370375573391
 20
-2.3797145283879502
 30
0.0
 11
-57.724984708738972
 21
-2.077328861553525
 31
0.0
  0
ARC
  5
198C
  8
247
 10
-58.35226921482505
 20
-2.5432771958298162
 30
0.0
 40
0.3637471675872803
 50
261.6626016879294
 51
66.338155095189762
  0
LINE
  5
198D
  8
247
 10
-58.206282714370573
 20
-2.2101106554737981
 30
0.0
 11
-58.40501273958256
 21
-2.9031801306941101
 31
0.0
  0
LINE
  5
198E
  8
247
 10
-58.87033602718693
 20
-2.414457129105243
 30
0.0
 11
-58.417146206216231
 21
-1.961267308134593
 31
0.0
  0
LINE
  5
198F
  8
247
 10
-58.866530079082722
 20
-1.961267308134508
 30
0.0
 11
-58.084220577335053
 21
-1.961267308134593
 31
0.0
  0
LINE
  5
1990
  8
247
 10
-58.936064380840939
 20
-2.2037721909470052
 30
0.0
 11
-58.809923023419053
 21
-2.2037721909477299
 31
0.0
  0
LINE
  5
1991
  8
247
 10
-58.929058772660802
 20
-2.2037721909470478
 30
0.0
 11
-58.686553889848298
 21
-1.9612673081345511
 31
0.0
  0
LINE
  5
1992
  8
247
 10
-58.866530079082722
 20
-1.961267308134508
 30
0.0
 11
-58.936064380840939
 21
-2.2037721909470052
 31
0.0
  0
LINE
  5
1993
  8
247
 10
-58.154837004491988
 20
-2.2377734736745221
 30
0.0
 11
-57.904735020784521
 21
-1.987671489967056
 31
0.0
  0
LINE
  5
1994
  8
247
 10
-58.992662281231283
 20
-1.961267308134508
 30
0.0
 11
-59.062196582989088
 21
-2.2037721909470052
 31
0.0
  0
LINE
  5
1995
  8
247
 10
-59.493464893535972
 20
-1.961267308134508
 30
0.0
 11
-58.992662281231283
 21
-1.961267308134508
 31
0.0
  0
LINE
  5
1996
  8
247
 10
-59.493464893535972
 20
-2.2037721909470052
 30
0.0
 11
-59.062196582989088
 21
-2.2037721909470052
 31
0.0
  0
LINE
  5
1997
  8
247
 10
-58.978644524528498
 20
-2.7921733100789221
 30
0.0
 11
-58.14773852258417
 21
-1.961267308134593
 31
0.0
  0
LINE
  5
1998
  8
247
 10
-58.444410658027543
 20
-4.1437932290024682
 30
0.0
 11
-57.75882768414035
 21
-3.458210255115246
 31
0.0
  0
LINE
  5
1999
  8
247
 10
-58.129548928385681
 20
-4.0983391829927172
 30
0.0
 11
-57.799068799927817
 21
-3.7678590545348229
 31
0.0
  0
LINE
  5
199A
  8
247
 10
-58.983226025291692
 20
-4.1437932290024246
 30
0.0
 11
-58.671310700194361
 21
-3.8318779039051361
 31
0.0
  0
LINE
  5
199B
  8
247
 10
-59.252633708923767
 20
-4.1437932290024246
 30
0.0
 11
-58.56300778357685
 21
-3.454167303655522
 31
0.0
  0
LINE
  5
199C
  8
247
 10
-59.366215748028146
 20
-4.1437932290024246
 30
0.0
 11
-58.359868091778146
 21
-4.1437932290024246
 31
0.0
  0
LINE
  5
199D
  8
247
 10
-58.713818341659639
 20
-4.1437932290024246
 30
0.0
 11
-57.824012789773462
 21
-3.2539876771162839
 31
0.0
  0
ARC
  5
199E
  8
247
 10
-58.630415577129753
 20
-3.5132875718063872
 30
0.0
 40
0.3637575745582581
 50
261.6628542111489
 51
66.338192159110065
  0
LINE
  5
199F
  8
247
 10
-58.48442618233512
 20
-3.1801109374876262
 30
0.0
 11
-58.683159476907157
 21
-3.8732009698409642
 31
0.0
  0
LINE
  5
19A0
  8
247
 10
-59.086953021870102
 20
-3.1698894910525581
 30
0.0
 11
-58.238085233427903
 21
-2.3210217026103521
 31
0.0
  0
LINE
  5
19A1
  8
247
 10
-59.366215748028146
 20
-4.1437932290024246
 30
0.0
 11
-58.809923023419053
 21
-2.2037721909477299
 31
0.0
  0
LINE
  5
19A2
  8
247
 10
-59.30357001655323
 20
-3.925321852999899
 30
0.0
 11
-58.277506439415319
 21
-2.8992582758619241
 31
0.0
  0
LINE
  5
19A3
  8
247
 10
-59.195261519211677
 20
-3.5476056720262221
 30
0.0
 11
-58.346390155803782
 21
-2.698734308618369
 31
0.0
  0
ARC
  5
19A4
  8
247
 10
-58.359868091778182
 20
-3.5375398911423162
 30
0.0
 40
0.6062530517578129
 50
270.0
 51
40.329840654167313
  0
LINE
  5
19A5
  8
247
 10
-58.369089747101029
 20
-3.2602492671797592
 30
0.0
 11
-57.50129118102128
 21
-2.392450701099988
 31
0.0
  0
LINE
  5
19A6
  8
247
 10
-57.996288134792977
 20
-2.618039971239595
 30
0.0
 11
-57.59047962474019
 21
-2.212231461186803
 31
0.0
  0
ARC
  5
19A7
  8
247
 10
-58.081721729473493
 20
-2.5675203598923271
 30
0.0
 40
0.6062582015991211
 50
287.66957754739798
 51
90.236159842671569
  0
LINE
  5
19A8
  8
247
 10
-58.275047467246253
 20
-3.435614670957035
 30
0.0
 11
-57.479863726501108
 21
-2.64043093021189
 31
0.0
  0
ARC
  5
19A9
  8
247
 10
-55.822795337871931
 20
-3.3556612290329451
 30
0.0
 40
0.7881408691406251
 50
163.99975070172931
 51
304.96387329163082
  0
LINE
  5
19AA
  8
247
 10
-55.650163501934408
 20
-3.149530247587633
 30
0.0
 11
-55.448344654278152
 21
-3.149530247587633
 31
0.0
  0
ARC
  5
19AB
  8
247
 10
-55.848832935528179
 20
-3.6224092759079398
 30
0.0
 40
0.2546298265457154
 50
164.00027305718419
 51
344.00027305718419
  0
ARC
  5
19AC
  8
247
 10
-54.570646900371933
 20
-3.2344087876266912
 30
0.0
 40
1.273141479492186
 50
270.0
 51
104.7707939660941
  0
LINE
  5
19AD
  8
247
 10
-55.650163501934408
 20
-3.149530247587633
 30
0.0
 11
-55.580629200176581
 21
-2.9070253647751358
 31
0.0
  0
LINE
  5
19AE
  8
247
 10
-59.493464893535972
 20
-4.2650456704086812
 30
0.0
 11
-54.570646900371891
 21
-4.2650456704086812
 31
0.0
  0
LINE
  5
19AF
  8
247
 10
-59.493464893535972
 20
-4.5075505469800401
 30
0.0
 11
-54.570646900371891
 21
-4.5075505469800401
 31
0.0
  0
ARC
  5
19B0
  8
247
 10
-55.522007984356307
 20
-2.4826509751267021
 30
0.0
 40
0.2546300053596497
 50
1.7101213820627561
 51
163.9983983544486
  0
ARC
  5
19B1
  8
247
 10
-55.648955005840683
 20
-2.7493990220016951
 30
0.0
 40
0.788132858276367
 50
53.444012197057567
 51
164.00018438768521
  0
ARC
  5
19B2
  8
247
 10
-59.493464893535993
 20
-3.2344087876266912
 30
0.0
 40
1.0306365966796871
 50
90.0
 51
270.0
  0
ARC
  5
19B3
  8
247
 10
-59.493464893535993
 20
-3.2344087876266912
 30
0.0
 40
1.273141479492186
 50
90.0
 51
270.0
  0
TEXT
  5
19B4
  8
247
 10
-52.491666000445711
 20
-4.1617941121172626
 30
0.0
 40
2.0
  1
ST10-MEGA3S-120
  7
YOKO
 11
-52.491666000445711
 21
-4.1617941121172626
 31
0.0
 73
     1
  0
LINE
  5
19B5
  8
241
 10
-13.000000000006169
 20
4.3499999999999979
 30
0.0
 11
-13.000000000006169
 21
-4.3499999999999979
 31
0.0
  0
LINE
  5
19B6
  8
241
 10
-14.37527767497326
 20
4.9082482904638631
 30
0.0
 11
-14.37527767497326
 21
-4.9082482904638631
 31
0.0
  0
LINE
  5
19B7
  8
240
 10
-13.000000000006191
 20
-4.850000000000005
 30
0.0
 11
-13.000000000006169
 21
-4.3499999999999979
 31
0.0
1001
GRPNAME
1000
PASTMD01
  0
LINE
  5
19B8
  8
240
 10
-13.000000000006169
 20
-4.3499999999999979
 30
0.0
 11
-13.769059892324149
 21
-4.3499999999999979
 31
0.0
  0
LINE
  5
19B9
  8
240
 10
-14.11547005383793
 20
-4.549999999999998
 30
0.0
 11
-14.230940107675851
 21
-4.75
 31
0.0
  0
ARC
  5
19BA
  8
240
 10
-14.66395280956807
 20
-4.5
 30
0.0
 40
0.5
 50
270.0
 51
330.00000000000011
1001
GENIUS_GENOBJ-N-FIL_13
1002
{
1000
OWNER
1000
GEN
1002
}
1001
GENIUS_GENODEF_13
1002
{
1000
HIER
1070
     0
1002
}
1002
{
1000
MANEDIT
1070
     0
1002
}
1002
{
1000
NOSEL
1070
     0
1002
}
1002
{
1000
BEHIND
1070
     0
1002
}
1002
{
1000
OTHER
1070
     0
1002
}
1002
{
1000
REACTOR
1002
}
  0
ARC
  5
19BB
  8
240
 10
-13.769059892324149
 20
-4.75
 30
0.0
 40
0.4
 50
90.000000000000057
 51
149.9999999999998
1001
GENIUS_GENOBJ-N-FIL_13
1002
{
1000
OWNER
1000
GEN
1002
}
1001
GENIUS_GENODEF_13
1002
{
1000
HIER
1070
     0
1002
}
1002
{
1000
MANEDIT
1070
     0
1002
}
1002
{
1000
NOSEL
1070
     0
1002
}
1002
{
1000
BEHIND
1070
     0
1002
}
1002
{
1000
OTHER
1070
     0
1002
}
1002
{
1000
REACTOR
1002
}
  0
ARC
  5
19BC
  8
240
 10
-13.769059892324149
 20
4.75
 30
0.0
 40
0.4
 50
210.0
 51
270.0
1001
GENIUS_GENOBJ-N-FIL_13
1002
{
1000
OWNER
1000
GEN
1002
}
1001
GENIUS_GENODEF_13
1002
{
1000
HIER
1070
     0
1002
}
1002
{
1000
MANEDIT
1070
     0
1002
}
1002
{
1000
NOSEL
1070
     0
1002
}
1002
{
1000
BEHIND
1070
     0
1002
}
1002
{
1000
OTHER
1070
     0
1002
}
1002
{
1000
REACTOR
1002
}
  0
ARC
  5
19BD
  8
240
 10
-14.66395280956807
 20
4.5
 30
0.0
 40
0.5
 50
29.999999999999961
 51
90.0
1001
GENIUS_GENOBJ-N-FIL_13
1002
{
1000
OWNER
1000
GEN
1002
}
1001
GENIUS_GENODEF_13
1002
{
1000
HIER
1070
     0
1002
}
1002
{
1000
MANEDIT
1070
     0
1002
}
1002
{
1000
NOSEL
1070
     0
1002
}
1002
{
1000
BEHIND
1070
     0
1002
}
1002
{
1000
OTHER
1070
     0
1002
}
1002
{
1000
REACTOR
1002
}
  0
LINE
  5
19BE
  8
240
 10
-14.11547005383793
 20
4.549999999999998
 30
0.0
 11
-14.230940107675851
 21
4.75
 31
0.0
  0
LINE
  5
19BF
  8
240
 10
-13.000000000006169
 20
4.3499999999999979
 30
0.0
 11
-13.769059892324149
 21
4.3499999999999979
 31
0.0
  0
LINE
  5
19C0
  8
241
 10
-14.0
 20
4.3499999999999979
 30
0.0
 11
-14.0
 21
-4.3499999999999979
 31
0.0
  0
LINE
  5
19C1
  8
241
 10
-118.6744189365977
 20
4.836999999999998
 30
0.0
 11
-118.6744189365977
 21
-4.836999999999998
 31
0.0
  0
LINE
  5
19C2
  8
240
 10
-118.6744189365977
 20
-4.836999999999998
 30
0.0
 11
-117.75
 21
-5.0
 31
0.0
  0
LINE
  5
19C3
  8
240
 10
-119.3230099482567
 20
-4.9513640948004944
 30
0.0
 11
-118.6744189365977
 21
-4.836999999999998
 31
0.0
  0
LINE
  5
19C4
  8
240
 10
-119.7388793808373
 20
-4.757440993595611
 30
0.0
 11
-120.0
 21
-4.3051668143020061
 31
0.0
  0
ARC
  5
19C5
  8
240
 10
-119.3924692193235
 20
-4.5574409935956313
 30
0.0
 40
0.4
 50
209.9999999999967
 51
279.99999999999909
1001
GENIUS_GENOBJ-N-FIL_13
1002
{
1000
OWNER
1000
GEN
1002
}
1001
GENIUS_GENODEF_13
1002
{
1000
HIER
1070
     0
1002
}
1002
{
1000
MANEDIT
1070
     0
1002
}
1002
{
1000
NOSEL
1070
     0
1002
}
1002
{
1000
BEHIND
1070
     0
1002
}
1002
{
1000
OTHER
1070
     0
1002
}
1002
{
1000
REACTOR
1002
}
  0
ARC
  5
19C6
  8
240
 10
-119.3924692193235
 20
4.5574409935956313
 30
0.0
 40
0.4
 50
80.000000000000938
 51
150.0000000000033
1001
GENIUS_GENOBJ-N-FIL_13
1002
{
1000
OWNER
1000
GEN
1002
}
1001
GENIUS_GENODEF_13
1002
{
1000
HIER
1070
     0
1002
}
1002
{
1000
MANEDIT
1070
     0
1002
}
1002
{
1000
NOSEL
1070
     0
1002
}
1002
{
1000
BEHIND
1070
     0
1002
}
1002
{
1000
OTHER
1070
     0
1002
}
1002
{
1000
REACTOR
1002
}
  0
LINE
  5
19C7
  8
240
 10
-119.7388793808373
 20
4.757440993595611
 30
0.0
 11
-120.0
 21
4.3051668143020061
 31
0.0
  0
LINE
  5
19C8
  8
240
 10
-119.3230099482567
 20
4.9513640948004944
 30
0.0
 11
-118.6744189365977
 21
4.836999999999998
 31
0.0
  0
LINE
  5
19C9
  8
240
 10
-118.6744189365977
 20
4.836999999999998
 30
0.0
 11
-117.75
 21
5.0
 31
0.0
  0
LINE
  5
19CA
  8
241
 10
-117.75
 20
-5.0
 30
0.0
 11
-117.75
 21
5.0
 31
0.0
  0
LINE
  5
19CB
  8
240
 10
-14.66395280956807
 20
-5.0
 30
0.0
 11
-117.75
 21
-5.0
 31
0.0
  0
LINE
  5
19CC
  8
240
 10
-14.66395280956807
 20
5.0
 30
0.0
 11
-117.75
 21
5.0
 31
0.0
  0
LINE
  5
19CD
  8
240
 10
-120.0
 20
4.3051668143020061
 30
0.0
 11
-120.0
 21
-4.3051668143020061
 31
0.0
  0
LINE
  5
19CE
  8
241
 10
-0.1500000000002046
 20
3.8633974596147431
 30
0.0
 11
-0.1500000000001762
 21
-0.0000000000000142
 31
0.0
  0
LINE
  5
19CF
  8
240
 10
-0.123205080757117
 20
3.7633974596147479
 30
0.0
 11
0.0000000000001137
 21
3.5499999999925911
 31
0.0
  0
ARC
  5
19D0
  8
240
 10
-1.1500000000003181
 20
3.999999999999984
 30
0.0
 40
1.0
 50
0.0000000000358398
 51
90.000000000000057
1001
GRPNAME
1000
PASTMD01
  0
ARC
  5
19D1
  8
240
 10
0.049999999999784
 20
3.8633974596147431
 30
0.0
 40
0.2
 50
180.00000000003581
 51
209.99999999999969
  0
LINE
  5
19D2
  8
240
 10
-0.1500000000003183
 20
4.0000000000006084
 30
0.0
 11
-0.1500000000002331
 21
3.8633974596146148
 31
0.0
  0
LINE
  5
19D3
  8
240
  6
CONTINUOUS
 10
-1.1500000000003181
 20
4.9999999999999831
 30
0.0
 11
-10.30000000000609
 21
4.9999999999999538
 31
0.0
1001
GRPNAME
1000
PASTMD01
  0
LINE
  5
19D4
  8
240
  6
CONTINUOUS
 10
-10.90000000000617
 20
4.9500000000000011
 30
0.0
 11
-10.6122498999261
 21
4.9500000000000011
 31
0.0
  0
ARC
  5
19D5
  8
240
  6
CONTINUOUS
 10
-10.6122498999261
 20
5.9500000000000002
 30
0.0
 40
1.0
 50
270.0
 51
288.1948723387685
  0
ARC
  5
19D6
  8
240
  6
CONTINUOUS
 10
-10.90000000000617
 20
5.9500000000000002
 30
0.0
 40
1.0
 50
233.13010235415439
 51
270.0
  0
ARC
  5
19D7
  8
240
 10
-12.700000000006179
 20
4.850000000000005
 30
0.0
 40
0.3000000000000043
 50
89.999999997427068
 51
180.0
1001
GRPNAME
1000
PASTMD01
  0
LINE
  5
19D8
  8
240
  6
CONTINUOUS
 10
-12.700000000006179
 20
5.1500000000000172
 30
0.0
 11
-11.500000000006191
 21
5.1500000000000172
 31
0.0
  0
LINE
  5
19D9
  8
240
 10
-13.000000000006191
 20
4.850000000000005
 30
0.0
 11
-13.000000000006169
 21
4.3499999999999979
 31
0.0
1001
GRPNAME
1000
PASTMD01
  0
LINE
  5
19DA
  8
241
 10
-11.500000000006191
 20
5.1500000000000172
 30
0.0
 11
-11.500000000006191
 21
0.0000000000000142
 31
0.0
  0
LINE
  5
19DB
  8
241
 10
-10.30000000000609
 20
5.0000000000001821
 30
0.0
 11
-10.30000000000609
 21
0.0000000000000142
 31
0.0
  0
LINE
  5
19DC
  8
240
 10
0.0
 20
-0.0000000000000142
 30
0.0
 11
0.0000000000001137
 21
3.5499999999925911
 31
0.0
  0
LINE
  5
19DD
  8
240
 10
0.0
 20
0.0000000000000142
 30
0.0
 11
0.0000000000001137
 21
-3.549999999992592
 31
0.0
  0
LINE
  5
19DE
  8
241
 10
-10.30000000000609
 20
-5.000000000000183
 30
0.0
 11
-10.30000000000609
 21
-0.0000000000000142
 31
0.0
  0
LINE
  5
19DF
  8
241
 10
-11.500000000006191
 20
-5.1500000000000181
 30
0.0
 11
-11.500000000006191
 21
-0.0000000000000142
 31
0.0
  0
LINE
  5
19E0
  8
240
  6
CONTINUOUS
 10
-12.700000000006179
 20
-5.1500000000000181
 30
0.0
 11
-11.500000000006191
 21
-5.1500000000000181
 31
0.0
  0
ARC
  5
19E1
  8
240
  6
CONTINUOUS
 10
-12.700000000006179
 20
-4.8500000000000068
 30
0.0
 40
0.3000000000000043
 50
180.0
 51
270.00000000257302
1001
GRPNAME
1000
PASTMD01
  0
ARC
  5
19E2
  8
240
  6
CONTINUOUS
 10
-10.90000000000617
 20
-5.9500000000000011
 30
0.0
 40
1.0
 50
90.0
 51
126.8698976458456
  0
ARC
  5
19E3
  8
240
  6
CONTINUOUS
 10
-10.6122498999261
 20
-5.9500000000000011
 30
0.0
 40
1.0
 50
71.805127661231495
 51
90.0
  0
LINE
  5
19E4
  8
240
  6
CONTINUOUS
 10
-10.90000000000617
 20
-4.9500000000000011
 30
0.0
 11
-10.6122498999261
 21
-4.9500000000000011
 31
0.0
  0
LINE
  5
19E5
  8
240
  6
CONTINUOUS
 10
-1.1500000000003181
 20
-4.999999999999984
 30
0.0
 11
-10.30000000000609
 21
-4.9999999999999556
 31
0.0
1001
GRPNAME
1000
PASTMD01
  0
LINE
  5
19E6
  8
240
 10
-0.1500000000003183
 20
-4.0000000000006111
 30
0.0
 11
-0.1500000000002331
 21
-3.8633974596146161
 31
0.0
  0
ARC
  5
19E7
  8
240
 10
0.049999999999784
 20
-3.863397459614744
 30
0.0
 40
0.2
 50
150.0000000000002
 51
179.9999999999641
  0
ARC
  5
19E8
  8
240
 10
-1.1500000000003181
 20
-3.999999999999984
 30
0.0
 40
1.0
 50
270.0
 51
359.9999999999643
1001
GRPNAME
1000
PASTMD01
  0
LINE
  5
19E9
  8
240
 10
-0.123205080757117
 20
-3.763397459614751
 30
0.0
 11
0.0000000000001137
 21
-3.549999999992592
 31
0.0
  0
LINE
  5
19EA
  8
241
 10
-0.1500000000002046
 20
-3.863397459614744
 30
0.0
 11
-0.1500000000001762
 21
0.0000000000000142
 31
0.0
  0
LINE
  5
19EB
  8
245
 10
7.0
 20
0.0
 30
0.0
 11
-124.35599819460511
 21
0.0
 31
0.0
  0
ENDBLK
  5
19ED
  8
0
  0
ENDSEC
  0
SECTION
  2
ENTITIES
  0
LINE
  5
12C1
  8
250
 10
-131.35599919460509
 20
5.0000000000000044
 30
0.0
 11
-131.35599919460509
 21
2.770000000000004
 31
0.0
  0
LINE
  5
12C2
  8
250
 10
-130.98433252793851
 20
2.770000000000004
 30
0.0
 11
-131.35599919460509
 21
5.0000000000000044
 31
0.0
  0
LINE
  5
12C3
  8
250
 10
-131.72766586127179
 20
2.770000000000004
 30
0.0
 11
-131.35599919460509
 21
5.0000000000000044
 31
0.0
  0
LINE
  5
12C4
  8
250
 10
-131.35599919460509
 20
-4.9999999999999938
 30
0.0
 11
-131.35599919460509
 21
-2.7699999999999951
 31
0.0
  0
LINE
  5
12C5
  8
250
 10
-131.72766586127179
 20
-2.7699999999999951
 30
0.0
 11
-131.35599919460509
 21
-4.9999999999999938
 31
0.0
  0
LINE
  5
12C6
  8
250
 10
-130.98433252793851
 20
-2.7699999999999951
 30
0.0
 11
-131.35599919460509
 21
-4.9999999999999938
 31
0.0
  0
TEXT
  5
12C7
  8
250
 10
-132.35599919460509
 20
-1.2666666666666819
 30
0.0
 40
2.799999999999998
  1
10
 50
90.0
  0
TEXT
  5
12C8
  8
250
 10
-132.35599919460509
 20
-3.8000000000000149
 30
0.0
 40
2.799999999999998
  1
\U+2205
 50
90.0
  0
LINE
  5
12C9
  8
250
 10
14.000000999999999
 20
1.449999999999471
 30
0.0
 11
14.000000999999999
 21
3.679999999999473
 31
0.0
  0
LINE
  5
12CA
  8
250
 10
13.62833433333333
 20
3.679999999999473
 30
0.0
 11
14.000000999999999
 21
1.449999999999471
 31
0.0
  0
LINE
  5
12CB
  8
250
 10
14.37166766666666
 20
3.679999999999473
 30
0.0
 11
14.000000999999999
 21
1.449999999999471
 31
0.0
  0
LINE
  5
12CC
  8
250
 10
14.000000999999999
 20
-1.449999999999523
 30
0.0
 11
14.000000999999999
 21
-3.6799999999995232
 31
0.0
  0
LINE
  5
12CD
  8
250
 10
14.37166766666666
 20
-3.6799999999995232
 30
0.0
 11
14.000000999999999
 21
-1.449999999999523
 31
0.0
  0
LINE
  5
12CE
  8
250
 10
13.62833433333333
 20
-3.6799999999995232
 30
0.0
 11
14.000000999999999
 21
-1.449999999999523
 31
0.0
  0
TEXT
  5
12CF
  8
250
 10
13.000000999999999
 20
-15.843333333332851
 30
0.0
 40
2.799999999999998
  1
3.25
 50
90.0
  0
TEXT
  5
12D0
  8
250
 10
13.000000999999999
 20
-18.376666666666189
 30
0.0
 40
2.799999999999998
  1
\U+2205
 50
90.0
  0
TEXT
  5
12D1
  8
250
 10
13.000000999999999
 20
-27.709999999999521
 30
0.0
 40
2.799999999999998
  1
Max.
 50
90.0
  0
LINE
  5
12D2
  8
250
 10
21.0
 20
4.999999999999976
 30
0.0
 11
21.0
 21
2.769999999999976
 31
0.0
  0
LINE
  5
12D3
  8
250
 10
21.37166666666667
 20
2.769999999999976
 30
0.0
 11
21.0
 21
4.999999999999976
 31
0.0
  0
LINE
  5
12D4
  8
250
 10
20.62833333333333
 20
2.769999999999976
 30
0.0
 11
21.0
 21
4.999999999999976
 31
0.0
  0
LINE
  5
12D5
  8
250
 10
21.0
 20
-4.999999999999992
 30
0.0
 11
21.0
 21
-2.7699999999999911
 31
0.0
  0
LINE
  5
12D6
  8
250
 10
20.62833333333333
 20
-2.7699999999999911
 30
0.0
 11
21.0
 21
-4.999999999999992
 31
0.0
  0
LINE
  5
12D7
  8
250
 10
21.37166666666667
 20
-2.7699999999999911
 30
0.0
 11
21.0
 21
-4.999999999999992
 31
0.0
  0
TEXT
  5
12D8
  8
250
 10
20.0
 20
-1.266666666666669
 30
0.0
 40
2.799999999999998
  1
10
 50
90.0
  0
TEXT
  5
12D9
  8
250
 10
20.0
 20
-3.800000000000002
 30
0.0
 40
2.799999999999998
  1
\U+2205
 50
90.0
  0
LINE
  5
12DA
  8
250
 10
-120.0
 20
28.0
 30
0.0
 11
-117.77
 21
28.0
 31
0.0
  0
LINE
  5
12DB
  8
250
 10
-117.77
 20
28.371666666666659
 30
0.0
 11
-120.0
 21
28.0
 31
0.0
  0
LINE
  5
12DC
  8
250
 10
-117.77
 20
27.62833333333333
 30
0.0
 11
-120.0
 21
28.0
 31
0.0
  0
LINE
  5
12DD
  8
250
 10
0.0000000000001152
 20
28.0
 30
0.0
 11
-2.2299999999998841
 21
28.0
 31
0.0
  0
LINE
  5
12DE
  8
250
 10
-2.2299999999998841
 20
27.62833333333333
 30
0.0
 11
0.0000000000001152
 21
28.0
 31
0.0
  0
LINE
  5
12DF
  8
250
 10
-2.2299999999998841
 20
28.371666666666659
 30
0.0
 11
0.0000000000001152
 21
28.0
 31
0.0
  0
TEXT
  5
12E0
  8
250
 10
-64.199999999999932
 20
29.0
 30
0.0
 40
2.799999999999998
  1
120
  0
LINE
  5
1343
  8
250
 10
-117.77
 20
28.0
 30
0.0
 11
-2.2299999999998841
 21
28.0
 31
0.0
  0
LINE
  5
1344
  8
250
 10
0.0000000000001137
 20
4.0499999999925906
 30
0.0
 11
0.0000000000001152
 21
29.0
 31
0.0
  0
LINE
  5
1345
  8
250
 10
-120.0
 20
4.8051668143020061
 30
0.0
 11
-120.0
 21
29.0
 31
0.0
  0
LINE
  5
1346
  8
250
 10
21.0
 20
2.769999999999976
 30
0.0
 11
21.0
 21
-2.7699999999999911
 31
0.0
  0
LINE
  5
1347
  8
250
 10
-0.6500000000003186
 20
-4.999999999999984
 30
0.0
 11
22.0
 21
-4.999999999999992
 31
0.0
  0
LINE
  5
1348
  8
250
 10
-0.6500000000003217
 20
4.9999999999999831
 30
0.0
 11
22.0
 21
4.999999999999976
 31
0.0
  0
LINE
  5
1349
  8
250
 10
14.000000999999999
 20
1.449999999999471
 30
0.0
 11
14.000000999999999
 21
-1.449999999999523
 31
0.0
  0
LINE
  5
134A
  8
250
 10
14.000000999999999
 20
-3.6799999999995241
 30
0.0
 11
14.00000099999999
 21
-28.1766666666662
 31
0.0
  0
LINE
  5
134B
  8
250
 10
14.000000999999999
 20
3.6799999999994721
 30
0.0
 11
14.000000999999999
 21
5.9099999999994708
 31
0.0
  0
LINE
  5
134C
  8
250
 10
-0.499999999999858
 20
-1.4499999999995179
 30
0.0
 11
15.000000999999999
 21
-1.449999999999523
 31
0.0
  0
LINE
  5
134D
  8
250
 10
-0.4999999999999674
 20
1.449999999999475
 30
0.0
 11
15.000000999999999
 21
1.449999999999471
 31
0.0
  0
LINE
  5
134E
  8
250
 10
-131.35599919460509
 20
2.770000000000004
 30
0.0
 11
-131.35599919460509
 21
-2.7699999999999951
 31
0.0
  0
LINE
  5
134F
  8
250
 10
-118.25
 20
-4.9999999999999991
 30
0.0
 11
-132.35599919460509
 21
-4.9999999999999938
 31
0.0
  0
LINE
  5
1350
  8
250
 10
-118.25
 20
5.0
 30
0.0
 11
-132.35599919460509
 21
5.0000000000000044
 31
0.0
  0
TEXT
  5
13DF
  8
241
 10
-119.0
 20
42.0
 30
0.0
 40
5.0
  1
ST10-MEGA3S-120
  7
YOKO
  0
INSERT
  5
19EF
  8
240
  2
A$C4EEB1331
 10
0.0
 20
0.0
 30
0.0
  0
VIEWPORT
  5
22
 67
     1
  8
0
 10
261.51769911504419
 20
148.5
 30
0.0
 40
523.0353982300885
 41
297.0
 68
     1
 69
     1
1001
ACAD
1000
MVIEW
1002
{
1070
    16
1010
0.0
1020
0.0
1030
0.0
1010
0.0
1020
0.0
1030
1.0
1040
0.0
1040
297.0
1040
261.51769911504419
1040
148.5
1040
50.0
1040
0.0
1040
0.0
1070
     0
1070
   100
1070
     1
1070
     1
1070
     0
1070
     0
1070
     0
1070
     0
1040
0.0
1040
0.0
1040
0.0
1040
1.0
1040
1.0
1040
10.0
1040
10.0
1070
     0
1002
{
1002
}
1002
}
1001
GENIUS_GENODEF_13
1002
{
1000
HIER
1070
     0
1002
}
1002
{
1000
MANEDIT
1070
     0
1002
}
1002
{
1000
NOSEL
1070
     0
1002
}
1002
{
1000
BEHIND
1070
     0
1002
}
1002
{
1000
OTHER
1070
     0
1002
}
1002
{
1000
REACTOR
1002
}
1001
GENIUS_GENOBJ-N-SDF_13
1002
{
1000
OWNER
1000
GEN
1002
}
1001
GENIUS_GENSCREG_15
1000
PF
1040
1.0
1000
DF
1040
1.0
1000
MIN
1011
0.0
1021
-1.3089545408944761E+092
1031
1.9223296064805787E+075
1021
0.0
1031
0.0
1000
MAX
1011
523.0353982300885
1021
-1.3089545408944761E+092
1031
1.9223296064805787E+075
1021
297.0
1031
0.0
1000
FLAGS
1070
     2
  0
ENDSEC
  0
EOF
