  0
SECTION
  2
HEADER
  9
$ACADVER
  1
AC1009
  9
$INSBASE
 10
0.0
 20
0.0
 30
0.0
  9
$EXTMIN
 10
-7.0859406696813467
 20
-14.94548471947382
 30
0.0
  9
$EXTMAX
 10
101.24376015193251
 20
45.0
 30
0.0
  9
$LIMMIN
 10
0.0
 20
0.0
  9
$LIMMAX
 10
297.0
 20
210.0
  9
$ORTHOMODE
 70
     0
  9
$REGENMODE
 70
     1
  9
$FILLMODE
 70
     1
  9
$QTEXTMODE
 70
     0
  9
$MIRRTEXT
 70
     1
  9
$DRAGMODE
 70
     2
  9
$LTSCALE
 40
10.0
  9
$OSMODE
 70
    39
  9
$ATTMODE
 70
     1
  9
$TEXTSIZE
 40
3.0
  9
$TRACEWID
 40
1.0
  9
$TEXTSTYLE
  7
YOKO
  9
$CLAYER
  8
240
  9
$CELTYPE
  6
BYLAYER
  9
$CECOLOR
 62
   256
  9
$DIMSCALE
 40
1.0
  9
$DIMASZ
 40
2.2299999999999991
  9
$DIMEXO
 40
0.5
  9
$DIMDLI
 40
7.0
  9
$DIMRND
 40
0.0
  9
$DIMDLE
 40
0.0
  9
$DIMEXE
 40
1.0
  9
$DIMTP
 40
0.0
  9
$DIMTM
 40
0.01
  9
$DIMTXT
 40
2.799999999999998
  9
$DIMCEN
 40
0.0
  9
$DIMTSZ
 40
0.0
  9
$DIMTOL
 70
     0
  9
$DIMLIM
 70
     0
  9
$DIMTIH
 70
     0
  9
$DIMTOH
 70
     0
  9
$DIMSE1
 70
     0
  9
$DIMSE2
 70
     0
  9
$DIMTAD
 70
     3
  9
$DIMZIN
 70
     9
  9
$DIMBLK
  1
OPEN
  9
$DIMASO
 70
     1
  9
$DIMSHO
 70
     1
  9
$DIMPOST
  1

  9
$DIMAPOST
  1

  9
$DIMALT
 70
     0
  9
$DIMALTD
 70
     2
  9
$DIMALTF
 40
25.399999999999999
  9
$DIMLFAC
 40
1.0
  9
$DIMTOFL
 70
     1
  9
$DIMTVP
 40
0.0
  9
$DIMTIX
 70
     1
  9
$DIMSOXD
 70
     0
  9
$DIMSAH
 70
     0
  9
$DIMBLK1
  1

  9
$DIMBLK2
  1

  9
$DIMSTYLE
  2
BIGT
  9
$DIMCLRD
 70
   256
  9
$DIMCLRE
 70
   256
  9
$DIMCLRT
 70
    40
  9
$DIMTFAC
 40
1.0
  9
$DIMGAP
 40
1.0
  9
$LUNITS
 70
     2
  9
$LUPREC
 70
     6
  9
$SKETCHINC
 40
1.0
  9
$FILLETRAD
 40
0.2
  9
$AUNITS
 70
     0
  9
$AUPREC
 70
     6
  9
$MENU
  1
.
  9
$ELEVATION
 40
0.0
  9
$PELEVATION
 40
0.0
  9
$THICKNESS
 40
0.0
  9
$LIMCHECK
 70
     0
  9
$BLIPMODE
 70
     0
  9
$CHAMFERA
 40
0.2
  9
$CHAMFERB
 40
0.2
  9
$SKPOLY
 70
     0
  9
$TDCREATE
 40
2458535.4424926499
  9
$TDUPDATE
 40
2458535.6225672448
  9
$TDINDWG
 40
0.0260291088
  9
$TDUSRTIMER
 40
0.0260286574
  9
$USRTIMER
 70
     1
  9
$ANGBASE
 50
0.0
  9
$ANGDIR
 70
     0
  9
$PDMODE
 70
     1
  9
$PDSIZE
 40
0.0
  9
$PLINEWID
 40
0.0
  9
$COORDS
 70
     1
  9
$SPLFRAME
 70
     0
  9
$SPLINETYPE
 70
     6
  9
$SPLINESEGS
 70
     4
  9
$ATTDIA
 70
     1
  9
$ATTREQ
 70
     1
  9
$HANDLING
 70
     1
  9
$HANDSEED
  5
4C1D
  9
$SURFTAB1
 70
     6
  9
$SURFTAB2
 70
     6
  9
$SURFTYPE
 70
     6
  9
$SURFU
 70
     6
  9
$SURFV
 70
     6
  9
$UCSNAME
  2

  9
$UCSORG
 10
0.0
 20
0.0
 30
0.0
  9
$UCSXDIR
 10
1.0
 20
0.0
 30
0.0
  9
$UCSYDIR
 10
0.0
 20
1.0
 30
0.0
  9
$PUCSNAME
  2

  9
$PUCSORG
 10
0.0
 20
0.0
 30
0.0
  9
$PUCSXDIR
 10
1.0
 20
0.0
 30
0.0
  9
$PUCSYDIR
 10
0.0
 20
1.0
 30
0.0
  9
$USERI1
 70
     1
  9
$USERI2
 70
     0
  9
$USERI3
 70
     0
  9
$USERI4
 70
     0
  9
$USERI5
 70
     0
  9
$USERR1
 40
0.0
  9
$USERR2
 40
0.0
  9
$USERR3
 40
0.0
  9
$USERR4
 40
0.0
  9
$USERR5
 40
0.0
  9
$WORLDVIEW
 70
     1
  9
$SHADEDGE
 70
     3
  9
$SHADEDIF
 70
    70
  9
$TILEMODE
 70
     1
  9
$MAXACTVP
 70
    16
  9
$PLIMCHECK
 70
     0
  9
$PEXTMIN
 10
1.0000000000000000E+020
 20
1.0000000000000000E+020
 30
1.0000000000000000E+020
  9
$PEXTMAX
 10
-1.0000000000000000E+020
 20
-1.0000000000000000E+020
 30
-1.0000000000000000E+020
  9
$PLIMMIN
 10
0.0
 20
0.0
  9
$PLIMMAX
 10
420.0
 20
297.0
  9
$UNITMODE
 70
     0
  9
$VISRETAIN
 70
     1
  9
$PLINEGEN
 70
     0
  9
$PSLTSCALE
 70
     1
  0
ENDSEC
  0
SECTION
  2
TABLES
  0
TABLE
  2
VPORT
 70
     1
  0
VPORT
  2
*ACTIVE
 70
     0
 10
0.0
 20
0.0
 11
1.0
 21
1.0
 12
54.076551725276019
 22
13.60614471750338
 13
0.0
 23
0.0
 14
7.0
 24
7.0
 15
7.0
 25
7.0
 16
0.0
 26
0.0
 36
1.0
 17
0.0
 27
0.0
 37
0.0
 40
105.5158496041459
 41
1.6654761904761901
 42
50.0
 43
0.0
 44
0.0
 50
0.0
 51
0.0
 71
     0
 72
  2000
 73
     1
 74
     0
 75
     0
 76
     1
 77
     0
 78
     0
  0
ENDTAB
  0
TABLE
  2
LTYPE
 70
    20
  0
LTYPE
  2
CONTINUOUS
 70
     0
  3
Solid line
 72
    65
 73
     0
 40
0.0
  0
LTYPE
  2
CENTER2
 70
     0
  3
___ _ ___ _ ___ _ ___ _ ___ _ ___ _ ___ _ ___ _
 72
    65
 73
     4
 40
1.125
 49
0.75
 49
-0.125
 49
0.125
 49
-0.125
  0
LTYPE
  2
PHANTOM2
 70
     0
  3
___ _ _ ___ _ _ ___ _ _ ___ _ _ ___ _ _ ___ _ _
 72
    65
 73
     6
 40
1.25
 49
0.625
 49
-0.125
 49
0.125
 49
-0.125
 49
0.125
 49
-0.125
  0
LTYPE
  2
AM_ISO02W050
 70
     0
  3
__ __ __ __ __ __ __ __ __ __ __ __ __ __ __
 72
    65
 73
     2
 40
7.5
 49
6.0
 49
-1.5
  0
LTYPE
  2
AMCONSTR
 70
     0
  3
_______________________
 72
    65
 73
     2
 40
9999.0
 49
9999.0
 49
0.0
  0
LTYPE
  2
ACISOWELD
 70
     0
  3
_ _ _ _ _
 72
    65
 73
     2
 40
2.0
 49
2.0
 49
-1.0
  0
LTYPE
  2
ACISOTGB
 70
     0
  3
__ . . __ . .
 72
    65
 73
     6
 40
9.0
 49
4.0
 49
-1.0
 49
1.0
 49
-1.0
 49
1.0
 49
-1.0
  0
LTYPE
  2
ACISOTGL
 70
     0
  3
_ _ _ _ _
 72
    65
 73
     2
 40
3.0
 49
2.0
 49
-1.0
  0
LTYPE
  2
AM_ISO08W050
 70
     0
  3
____ . ____ . ____ . ____ . ____ . ____ . ____
 72
    65
 73
     4
 40
18.0
 49
12.0
 49
-1.5
 49
3.0
 49
-1.5
  0
LTYPE
  2
AM_ISO09W050
 70
     0
  3
_____ . . _____ . . _____ . . ____ .. ____
 72
    65
 73
     6
 40
22.5
 49
12.0
 49
-1.5
 49
3.0
 49
-1.5
 49
3.0
 49
-1.5
  0
LTYPE
  2
AM_ISO08W050X2
 70
     0
  3
__ . __ . __ . __ . __ . __
 72
    65
 73
     4
 40
9.0
 49
6.0
 49
-0.75
 49
1.5
 49
-0.75
  0
LTYPE
  2
AM_ISO02W050X2
 70
     0
  3
 _ _ _ _ _ _ _ _ _ _ _ _
 72
    65
 73
     2
 40
3.75
 49
3.0
 49
-0.75
  0
LTYPE
  2
AMZIGZAG
 70
     0
  3
/\/-/\/-/\/-/\/-/\/-/\/
 72
    65
 73
     2
 40
11.0001
 49
0.0001
 49
-11.0
  0
LTYPE
  2
HIDDEN
 70
     0
  3
Hidden __ __ __ __ __ __ __ __ __ __ __ __ __ _
 72
    65
 73
     2
 40
0.375
 49
0.25
 49
-0.125
  0
LTYPE
  2
CENTER
 70
     0
  3
Center ____ _ ____ _ ____ _ ____ _ ____ _ ____
 72
    65
 73
     4
 40
2.0
 49
1.25
 49
-0.25
 49
0.25
 49
-0.25
  0
LTYPE
  2
HIDDEN2
 70
     0
  3
Hidden (.5x) _ _ _ _ _ _ _ _ _ _ _ _ _ _ _ _ _
 72
    65
 73
     2
 40
0.1875
 49
0.125
 49
-0.0625
  0
LTYPE
  2
AMZIGZAG2
 70
     0
  3
/\/-/\/-/\/-/\/-/\/-/\/
 72
    65
 73
     2
 40
0.4401
 49
0.0001
 49
-0.4400000000000001
  0
LTYPE
  2
ACANSTGB
 70
     0
  3
__ . . __ . .
 72
    65
 73
     6
 40
0.35433070866
 49
0.15748031496
 49
-0.03937007874
 49
0.03937007874
 49
-0.03937007874
 49
0.03937007874
 49
-0.03937007874
  0
LTYPE
  2
ACANSTGL
 70
     0
  3
_ _ _ _ _
 72
    65
 73
     2
 40
0.11811023622
 49
0.07874015748
 49
-0.03937007874
  0
ENDTAB
  0
TABLE
  2
LAYER
 70
    10
  0
LAYER
  2
0
 70
     0
 62
     7
  6
CONTINUOUS
  0
LAYER
  2
240
 70
     0
 62
     4
  6
CONTINUOUS
  0
LAYER
  2
DEFPOINTS
 70
     0
 62
     7
  6
CONTINUOUS
  0
LAYER
  2
245
 70
     0
 62
     2
  6
CENTER2
  0
LAYER
  2
241
 70
     0
 62
   211
  6
CONTINUOUS
  0
LAYER
  2
246
 70
     0
 62
     3
  6
PHANTOM2
  0
LAYER
  2
247
 70
     0
 62
    60
  6
CONTINUOUS
  0
LAYER
  2
250
 70
     0
 62
     3
  6
CONTINUOUS
  0
LAYER
  2
AM_5
 70
     0
 62
     3
  6
CONTINUOUS
  0
LAYER
  2
AM_CL
 70
     0
 62
     1
  6
AMCONSTR
  0
ENDTAB
  0
TABLE
  2
STYLE
 70
     8
  0
STYLE
  2
STANDARD
 70
     0
 40
0.0
 41
1.0
 50
0.0
 71
     0
 42
3.0
  3
romans.shx
  4
extfont.shx
  0
STYLE
  2
ANNOTATIVE
 70
     0
 40
0.0
 41
1.0
 50
0.0
 71
     0
 42
0.2
  3
txt
  4

  0
STYLE
  2
YOKO
 70
     0
 40
0.0
 41
1.0
 50
0.0
 71
     0
 42
3.0
  3
romans.shx
  4
extfont.shx
  0
STYLE
  2
ACISOGDT
 70
     0
 40
0.0
 41
1.0
 50
0.0
 71
     0
 42
3.0
  3
amgdt.shx
  4
extfont.shx
  0
STYLE
  2
ACJISTS
 70
     0
 40
1.0
 41
1.0
 50
0.0
 71
     0
 42
3.0
  3
amgdt.shx
  4
extfont.shx
  0
STYLE
  2

 70
     1
 40
0.0
 41
1.0
 50
0.0
 71
     0
 42
3.0
  3
genltshp.shx
  4

  0
STYLE
  2
ACANSTS
 70
     0
 40
0.0
 41
1.0
 50
0.0
 71
     0
 42
3.0
  3
romans.shx
  4
extfont.shx
  0
STYLE
  2
ACANSGDT
 70
     0
 40
0.0
 41
1.0
 50
0.0
 71
     0
 42
3.0
  3
amgdt.shx
  4

  0
ENDTAB
  0
TABLE
  2
VIEW
 70
     0
  0
ENDTAB
  0
TABLE
  2
UCS
 70
     0
  0
ENDTAB
  0
TABLE
  2
APPID
 70
    42
  0
APPID
  2
ACAD
 70
     0
  0
APPID
  2
ACADANNOTATIVE
 70
     0
  0
APPID
  2
GLOBAL
 70
     0
  0
APPID
  2
DETAIL
 70
     0
  0
APPID
  2
GRPNAME
 70
     0
  0
APPID
  2
GPARA
 70
     0
  0
APPID
  2
MCAD_NO_VIS
 70
     0
  0
APPID
  2
ACAD_TEMP_GRAPHIC
 70
     0
  0
APPID
  2
ACATTRIBSERVICES
 70
     0
  0
APPID
  2
GENIUS_GENSCREG_15
 70
     0
  0
APPID
  2
GENIUS_GENODEF_13
 70
     0
  0
APPID
  2
GENIUS_GENOBJ-N-SDF_13
 70
     0
  0
APPID
  2
GENIUS_GENREC_14
 70
     0
  0
APPID
  2
GENIUS_GENOBJ-N-REC_13
 70
     0
  0
APPID
  2
GENIUS_GENDIMSH_14
 70
     0
  0
APPID
  2
GENIUS_GENOBJ-N-DIM_13
 70
     0
  0
APPID
  2
GENIUS_GENDIM_13
 70
     0
  0
APPID
  2
GENIUS_GENDTOL_13
 70
     0
  0
APPID
  2
GENIUS_GENOLIS_13
 70
     0
  0
APPID
  2
GENIUS_GENOENT_13
 70
     0
  0
APPID
  2
GENIUS_GENOBJ-F-FEM_13
 70
     0
  0
APPID
  2
GENIUS_GENOREF_13
 70
     0
  0
APPID
  2
GENIUS_GEFFEM_13
 70
     0
  0
APPID
  2
GENIUS_GEFFEMP_13
 70
     0
  0
APPID
  2
AD_DRAW
 70
     0
  0
APPID
  2
DESIGNERASSEMBLIES
 70
     0
  0
APPID
  2
ACADM_DIM_EDIT
 70
     0
  0
APPID
  2
AMDT_DM_ADJ
 70
     0
  0
APPID
  2
ITEMNAME
 70
     0
  0
APPID
  2
GENIUS_GENOBJ-N-FIL_13
 70
     0
  0
APPID
  2
GENIUS_GENFIL_13
 70
     0
  0
APPID
  2
GENIUS_GENOBJ-N-CHA_13
 70
     0
  0
APPID
  2
ACAECLAYERSTANDARD
 70
     0
  0
APPID
  2
ACAD_NAV_VCDISPLAY
 70
     0
  0
APPID
  2
ACAD_EXEMPT_FROM_CAD_STANDARDS
 70
     0
  0
APPID
  2
ACAD_DSTYLE_DIMINSPECT
 70
     0
  0
APPID
  2
ACAD_DSTYLE_DIMANGULAR_EXT
 70
     0
  0
APPID
  2
ACAD_DSTYLE_DIMRADIAL_EXTENSION
 70
     0
  0
APPID
  2
ACAD_MLEADERVER
 70
     0
  0
APPID
  2
ACAD_DSTYLE_DIMBREAK
 70
     0
  0
APPID
  2
ACAD_DSTYLE_DIMJAG
 70
     0
  0
APPID
  2
ACAD_DSTYLE_DIMANGULAR_EX0
 70
     0
  0
ENDTAB
  0
TABLE
  2
DIMSTYLE
 70
    17
  0
DIMSTYLE
  2
STANDARD
 70
     0
  3

  4

  5

  6

  7

 40
1.0
 41
0.18
 42
0.0625
 43
0.38
 44
0.18
 45
0.0
 46
0.0
 47
0.0
 48
0.0
140
0.18
141
0.09
142
0.0
143
25.399999999999999
144
1.0
145
0.0
146
1.0
147
0.09
 71
     0
 72
     0
 73
     1
 74
     1
 75
     0
 76
     0
 77
     0
 78
     0
170
     0
171
     2
172
     0
173
     0
174
     0
175
     0
176
     0
177
     0
178
     0
  0
DIMSTYLE
  2
ANNOTATIVE
 70
     0
  3

  4

  5

  6

  7

 40
1.0
 41
0.18
 42
0.0625
 43
0.38
 44
0.18
 45
0.0
 46
0.0
 47
0.0
 48
0.0
140
0.18
141
0.09
142
0.0
143
25.399999999999999
144
1.0
145
0.0
146
1.0
147
0.09
 71
     0
 72
     0
 73
     1
 74
     1
 75
     0
 76
     0
 77
     0
 78
     0
170
     0
171
     2
172
     0
173
     0
174
     0
175
     0
176
     0
177
     0
178
     0
  0
DIMSTYLE
  2
BIGT
 70
     0
  3

  4

  5

  6

  7

 40
1.0
 41
2.2299999999999991
 42
0.5
 43
7.0
 44
1.0
 45
0.0
 46
0.0
 47
0.0
 48
0.01
140
2.799999999999998
141
0.0
142
0.0
143
25.399999999999999
144
1.0
145
0.0
146
1.0
147
1.0
 71
     0
 72
     0
 73
     0
 74
     0
 75
     0
 76
     0
 77
     3
 78
     9
170
     0
171
     2
172
     1
173
     0
174
     1
175
     0
176
   256
177
   256
178
    40
  0
DIMSTYLE
  2
AM_ISO
 70
     0
  3

  4
"
  5

  6

  7

 40
1.0
 41
2.5
 42
1.0
 43
10.0
 44
1.0
 45
0.0
 46
0.0
 47
0.1
 48
0.1
140
3.5
141
0.0
142
0.0
143
0.0393701
144
1.0
145
0.0
146
0.71
147
1.5
 71
     0
 72
     0
 73
     0
 74
     0
 75
     0
 76
     0
 77
     1
 78
     8
170
     0
171
     2
172
     1
173
     0
174
     0
175
     0
176
   256
177
   256
178
     2
  0
DIMSTYLE
  2
AM_ISO$3
 70
     0
  3

  4
"
  5

  6

  7

 40
1.0
 41
2.5
 42
1.0
 43
10.0
 44
1.0
 45
0.0
 46
0.0
 47
0.1
 48
0.1
140
3.5
141
0.0
142
0.0
143
0.0393701
144
1.0
145
0.0
146
0.71
147
1.5
 71
     0
 72
     0
 73
     0
 74
     1
 75
     0
 76
     0
 77
     1
 78
     8
170
     0
171
     2
172
     0
173
     0
174
     0
175
     0
176
   256
177
   256
178
     2
  0
DIMSTYLE
  2
AM_ISO$4
 70
     0
  3

  4
"
  5

  6

  7

 40
1.0
 41
2.5
 42
1.0
 43
10.0
 44
1.0
 45
0.0
 46
0.0
 47
0.1
 48
0.1
140
3.5
141
0.0
142
0.0
143
0.0393701
144
1.0
145
0.0
146
0.71
147
1.5
 71
     0
 72
     0
 73
     0
 74
     1
 75
     0
 76
     0
 77
     1
 78
     8
170
     0
171
     2
172
     0
173
     0
174
     0
175
     0
176
   256
177
   256
178
     2
  0
DIMSTYLE
  2
AM_ISO$6
 70
     0
  3

  4
"
  5

  6

  7

 40
1.0
 41
2.5
 42
1.0
 43
10.0
 44
1.0
 45
0.0
 46
0.0
 47
0.1
 48
0.1
140
3.5
141
0.0
142
0.0
143
0.0393701
144
1.0
145
0.0
146
0.71
147
1.5
 71
     0
 72
     0
 73
     0
 74
     0
 75
     0
 76
     0
 77
     0
 78
     8
170
     0
171
     2
172
     1
173
     0
174
     0
175
     0
176
   256
177
   256
178
     2
  0
DIMSTYLE
  2
AM_ISO$7
 70
     0
  3

  4
"
  5

  6

  7

 40
1.0
 41
2.5
 42
1.0
 43
10.0
 44
1.0
 45
0.0
 46
0.0
 47
0.1
 48
0.1
140
5.0
141
0.0
142
0.0
143
0.0393701
144
1.0
145
0.0
146
0.71
147
1.5
 71
     0
 72
     0
 73
     0
 74
     0
 75
     0
 76
     0
 77
     1
 78
     8
170
     0
171
     2
172
     1
173
     0
174
     0
175
     0
176
   256
177
   256
178
     2
  0
DIMSTYLE
  2
AM_ISO$SF
 70
     0
  3

  4
"
  5

  6

  7

 40
1.0
 41
2.5
 42
1.0
 43
10.0
 44
1.0
 45
0.0
 46
0.0
 47
0.1
 48
0.1
140
3.5
141
0.0
142
0.0
143
0.0393701
144
1.0
145
0.0
146
0.71
147
1.5
 71
     0
 72
     0
 73
     0
 74
     0
 75
     1
 76
     1
 77
     1
 78
     8
170
     0
171
     2
172
     1
173
     0
174
     0
175
     0
176
   256
177
   256
178
     2
  0
DIMSTYLE
  2
AM_ISO$SH
 70
     0
  3

  4
"
  5

  6

  7

 40
1.0
 41
2.5
 42
1.0
 43
10.0
 44
1.0
 45
0.0
 46
0.0
 47
0.1
 48
0.1
140
3.5
141
0.0
142
0.0
143
0.0393701
144
2.0
145
0.0
146
0.71
147
1.5
 71
     0
 72
     0
 73
     0
 74
     0
 75
     1
 76
     1
 77
     1
 78
     8
170
     0
171
     2
172
     1
173
     1
174
     0
175
     0
176
   256
177
   256
178
     2
  0
DIMSTYLE
  2
AM_ANSI
 70
     0
  3

  4
mm
  5

  6

  7

 40
1.0
 41
0.12
 42
0.05
 43
0.5
 44
0.1
 45
0.0
 46
0.0
 47
0.1
 48
0.1
140
0.12
141
0.0
142
0.0
143
25.399999999999999
144
1.0
145
0.0
146
0.71
147
0.06
 71
     0
 72
     0
 73
     1
 74
     1
 75
     0
 76
     0
 77
     0
 78
     7
170
     0
171
     2
172
     0
173
     0
174
     0
175
     0
176
   256
177
   256
178
     2
  0
DIMSTYLE
  2
AM_ANSI$3
 70
     0
  3

  4
mm
  5

  6

  7

 40
1.0
 41
0.12
 42
0.05
 43
0.5
 44
0.1
 45
0.0
 46
0.0
 47
0.1
 48
0.1
140
0.12
141
0.0
142
0.0
143
25.399999999999999
144
1.0
145
0.0
146
0.71
147
0.06
 71
     0
 72
     0
 73
     1
 74
     1
 75
     0
 76
     0
 77
     0
 78
     7
170
     0
171
     2
172
     0
173
     0
174
     0
175
     0
176
   256
177
   256
178
     2
  0
DIMSTYLE
  2
AM_ANSI$4
 70
     0
  3

  4
mm
  5

  6

  7

 40
1.0
 41
0.12
 42
0.05
 43
0.5
 44
0.1
 45
0.0
 46
0.0
 47
0.1
 48
0.1
140
0.12
141
0.0
142
0.0
143
25.399999999999999
144
1.0
145
0.0
146
0.71
147
0.06
 71
     0
 72
     0
 73
     1
 74
     1
 75
     0
 76
     0
 77
     0
 78
     7
170
     0
171
     2
172
     0
173
     0
174
     0
175
     0
176
   256
177
   256
178
     2
  0
DIMSTYLE
  2
AM_ANSI$7
 70
     0
  3

  4
mm
  5

  6

  7

 40
1.0
 41
0.12
 42
0.05
 43
0.5
 44
0.1
 45
0.0
 46
0.0
 47
0.1
 48
0.1
140
0.12
141
0.0
142
0.0
143
25.399999999999999
144
1.0
145
0.0
146
0.71
147
0.06
 71
     0
 72
     0
 73
     1
 74
     1
 75
     0
 76
     0
 77
     0
 78
     7
170
     0
171
     2
172
     0
173
     0
174
     0
175
     0
176
   256
177
   256
178
     2
  0
DIMSTYLE
  2
AM_ANSI$SF
 70
     0
  3

  4
mm
  5

  6

  7

 40
1.0
 41
0.12
 42
0.05
 43
0.5
 44
0.1
 45
0.0
 46
0.0
 47
0.1
 48
0.1
140
0.12
141
0.0
142
0.0
143
25.399999999999999
144
1.0
145
0.0
146
0.71
147
0.06
 71
     0
 72
     0
 73
     1
 74
     1
 75
     1
 76
     1
 77
     0
 78
     7
170
     0
171
     2
172
     0
173
     0
174
     0
175
     0
176
   256
177
   256
178
     2
  0
DIMSTYLE
  2
AM_ANSI$SH
 70
     0
  3

  4
mm
  5

  6
GENAXEH
  7

 40
1.0
 41
0.12
 42
0.05
 43
0.5
 44
0.1
 45
0.0
 46
0.0
 47
0.1
 48
0.1
140
0.12
141
0.0
142
0.0
143
25.399999999999999
144
1.0
145
0.0
146
0.71
147
0.06
 71
     0
 72
     0
 73
     1
 74
     1
 75
     1
 76
     1
 77
     0
 78
     7
170
     0
171
     2
172
     0
173
     1
174
     0
175
     0
176
   256
177
   256
178
     2
  0
ENDTAB
  0
ENDSEC
  0
SECTION
  2
BLOCKS
  0
BLOCK
  8
0
  2
$MODEL_SPACE
 70
     0
 10
0.0
 20
0.0
 30
0.0
  3
$MODEL_SPACE
  1

  0
ENDBLK
  5
49ED
  8
0
  0
BLOCK
 67
     1
  8
0
  2
$PAPER_SPACE
 70
     0
 10
0.0
 20
0.0
 30
0.0
  3
$PAPER_SPACE
  1

  0
ENDBLK
  5
49E9
 67
     1
  8
0
  0
BLOCK
  8
0
  2
_OPEN
 70
     0
 10
0.0
 20
0.0
 30
0.0
  3
_OPEN
  1

  0
LINE
  5
3E1A
  8
0
  6
BYBLOCK
 62
     0
 10
-1.0
 20
0.1666666666666666
 30
0.0
 11
0.0
 21
0.0
 31
0.0
  0
LINE
  5
3E1B
  8
0
  6
BYBLOCK
 62
     0
 10
-1.0
 20
-0.1666666666666666
 30
0.0
 11
0.0
 21
0.0
 31
0.0
  0
LINE
  5
3E1C
  8
0
  6
BYBLOCK
 62
     0
 10
0.0
 20
0.0
 30
0.0
 11
-1.0
 21
0.0
 31
0.0
  0
ENDBLK
  5
3E1D
  8
0
  0
BLOCK
  8
0
  2
GENAXEH
 70
     0
 10
0.0
 20
0.0
 30
0.0
  3
GENAXEH
  1

  0
LINE
  5
3E45
  8
0
 10
-1.0
 20
0.0
 30
0.0
 11
1.0
 21
0.0
 31
0.0
  0
ENDBLK
  5
3E46
  8
0
  0
BLOCK
  8
0
  2
_ACMFILLEDHALF
 70
     0
 10
0.0
 20
0.0
 30
0.0
  3
_ACMFILLEDHALF
  1

  0
TRACE
  5
4A9B
  8
240
 62
     0
 10
-0.8
 20
0.0
 30
0.0
 11
-1.0
 21
0.166666666
 31
0.0
 12
0.0
 22
0.0
 32
0.0
 13
0.0
 23
0.0
 33
0.0
  0
LINE
  5
4A9C
  8
240
 62
     0
 10
-1.0
 20
0.0
 30
0.0
 11
-0.8
 21
0.0
 31
0.0
  0
ENDBLK
  5
4A9A
  8
0
  0
ENDSEC
  0
SECTION
  2
ENTITIES
  0
LINE
  5
42A3
  8
240
  6
CONTINUOUS
 10
0.0000000000000002
 20
-4.9999999992175708
 30
0.0
 11
57.850000000000001
 21
-4.9999999992175761
 31
0.0
  0
LINE
  5
42A4
  8
240
  6
CONTINUOUS
 10
57.850000000000001
 20
5.000000000782423
 30
0.0
 11
0.0
 21
5.0000000007824283
 31
0.0
  0
LINE
  5
42A7
  8
240
  6
CONTINUOUS
 10
57.850000000000001
 20
-4.9999999992175761
 30
0.0
 11
58.921320343559628
 21
-3.928679655657954
 31
0.0
  0
LINE
  5
42A8
  8
240
  6
CONTINUOUS
 10
58.921320343559628
 20
3.928679657222776
 30
0.0
 11
57.850000000000001
 21
5.000000000782423
 31
0.0
  0
ARC
  5
42A9
  8
240
  6
CONTINUOUS
 10
61.021320343559637
 20
-1.7999999992175859
 30
0.0
 40
2.1000000000000081
 50
90.0
 51
180.0
  0
ARC
  5
42AA
  8
240
  6
CONTINUOUS
 10
61.042640687119302
 20
6.0500000007824051
 30
0.0
 40
3.0
 50
225.0
 51
270.0
  0
LINE
  5
42AB
  8
240
  6
CONTINUOUS
 10
80.302800495789569
 20
4.550740123400403
 30
0.0
 11
78.864991463546431
 21
3.1622640806469362
 31
0.0
  0
LINE
  5
42AC
  8
240
  6
CONTINUOUS
 10
61.021320343559637
 20
0.300000000782407
 30
0.0
 11
84.0
 21
0.3000000007824056
 31
0.0
  0
ARC
  5
42AD
  8
240
  6
CONTINUOUS
 10
78.587128115362816
 20
3.4500000007823819
 30
0.0
 40
0.4000000000000015
 50
270.0
 51
314.00000000000239
  0
LINE
  5
42AE
  8
240
  6
CONTINUOUS
 10
78.587128115362816
 20
3.0500000007824042
 30
0.0
 11
61.042640687119302
 21
3.050000000782406
 31
0.0
  0
LINE
  5
42E1
  8
240
  6
CONTINUOUS
 10
80.318882001069696
 20
4.6784615828524947
 30
0.0
 11
79.696274013959808
 21
2.4334097097100651
 31
0.0
  0
LINE
  5
42E3
  8
240
  6
CONTINUOUS
 10
83.870118103531809
 20
4.6784615828524707
 30
0.0
 11
82.237150142131597
 21
6.3401818528599678
 31
0.0
  0
LINE
  5
42E6
  8
240
  6
CONTINUOUS
 10
82.094500052300759
 20
1.603000903283887
 30
0.0
 11
84.350076000810887
 21
2.1863325064187871
 31
0.0
  0
LINE
  5
42E8
  8
240
  6
CONTINUOUS
 10
84.492726090641696
 20
2.4334097097100589
 30
0.0
 11
83.870118103531809
 21
4.6784615828524707
 31
0.0
  0
LINE
  5
42EA
  8
240
  6
CONTINUOUS
 10
81.951849962469907
 20
6.3401818528599749
 30
0.0
 11
80.318882001069696
 21
4.6784615828524947
 31
0.0
  0
LINE
  5
42ED
  8
240
  6
CONTINUOUS
 10
79.838924103790632
 20
2.1863325064187902
 30
0.0
 11
82.094500052300759
 21
1.603000903283887
 31
0.0
  0
LINE
  5
42F1
  8
241
  6
CONTINUOUS
 10
57.850000000000001
 20
-4.9999999992175761
 30
0.0
 11
57.850000000000001
 21
5.000000000782423
 31
0.0
  0
LINE
  5
42F2
  8
240
  6
CONTINUOUS
 10
0.0000000000000002
 20
-4.9999999992175708
 30
0.0
 11
0.0000000000000008
 21
5.0000000007824257
 31
0.0
  0
LINE
  5
42F3
  8
240
  6
CONTINUOUS
 10
58.921320343559628
 20
-3.928679655657954
 30
0.0
 11
58.921320343559628
 21
-1.7999999992175859
 31
0.0
  0
LINE
  5
42FC
  8
240
  6
CONTINUOUS
 10
84.0
 20
0.3000000007824056
 30
0.0
 11
84.0
 21
1.047284212848524
 31
0.0
  0
LINE
  5
42FD
  8
241
  6
CONTINUOUS
 10
79.33733374938339
 20
1.6750000007824051
 30
0.0
 11
60.708977454851258
 21
1.6750000007824071
 31
0.0
  0
LINE
  5
42FF
  8
241
  6
CONTINUOUS
 10
80.510322869868645
 20
1.047284212848524
 30
0.0
 11
84.0
 21
1.047284212848524
 31
0.0
  0
LINE
  5
4305
  8
240
  6
CONTINUOUS
 10
84.0
 20
2.0260632719817711
 30
0.0
 11
84.0
 21
1.047284212848524
 31
0.0
  0
TEXT
  5
4312
  8
241
  6
CONTINUOUS
 10
0.0
 20
42.0
 30
0.0
 40
3.0
  1
ST10-CZ06-45B-23
  7
YOKO
  0
LINE
  5
4313
  8
245
  6
CENTER2
 10
86.243760151932506
 20
0.0000000000000013
 30
0.0
 11
-7.0859406696813467
 21
-0.0000000000000001
 31
0.0
  0
LINE
  5
431B
  8
241
 10
58.92132034355965
 20
-1.7999999992175859
 30
0.0
 11
58.92132034355965
 21
0.0000000000000009
 31
0.0
  0
ARC
  5
431C
  8
241
 10
60.659704604853097
 20
-0.0638588129686292
 30
0.0
 40
1.7395567791557121
 50
88.376883111900298
 51
177.89620965952881
  0
ARC
  5
431D
  8
241
 10
80.510419762664981
 20
2.4572837139098032
 30
0.0
 40
1.4099995043904501
 50
213.69772126987181
 51
269.99606273031839
  0
CIRCLE
  5
43F3
  8
246
  6
PHANTOM2
 10
82.094500052300717
 20
3.6533080229962871
 30
0.0
 40
1.985000000000009
  0
ARC
  5
4421
  8
240
  6
CONTINUOUS
 10
84.300000000000011
 20
2.379962034494409
 30
0.0
 40
0.2
 50
284.4999999999992
 51
15.499999999999799
1001
GENIUS_GENODEF_13
1002
{
1000
HIER
1070
     0
1002
}
1002
{
1000
MANEDIT
1070
     0
1002
}
1002
{
1000
NOSEL
1070
     0
1002
}
1002
{
1000
BEHIND
1070
     0
1002
}
1002
{
1000
OTHER
1070
     0
1002
}
1002
{
1000
REACTOR
1002
}
1001
GENIUS_GENOBJ-N-FIL_13
1002
{
1000
OWNER
1000
GEN
1002
}
  0
ARC
  5
4423
  8
240
  6
CONTINUOUS
 10
79.889000104601493
 20
2.3799620344944121
 30
0.0
 40
0.2
 50
164.4999999999996
 51
255.5000000000008
1001
GENIUS_GENODEF_13
1002
{
1000
HIER
1070
     0
1002
}
1002
{
1000
MANEDIT
1070
     0
1002
}
1002
{
1000
NOSEL
1070
     0
1002
}
1002
{
1000
BEHIND
1070
     0
1002
}
1002
{
1000
OTHER
1070
     0
1002
}
1002
{
1000
REACTOR
1002
}
1001
GENIUS_GENOBJ-N-FIL_13
1002
{
1000
OWNER
1000
GEN
1002
}
  0
ARC
  5
4424
  8
240
  6
CONTINUOUS
 10
82.094500052300745
 20
6.2000000000000011
 30
0.0
 40
0.2
 50
44.499999999999723
 51
135.50000000000011
1001
GENIUS_GENODEF_13
1002
{
1000
HIER
1070
     0
1002
}
1002
{
1000
MANEDIT
1070
     0
1002
}
1002
{
1000
NOSEL
1070
     0
1002
}
1002
{
1000
BEHIND
1070
     0
1002
}
1002
{
1000
OTHER
1070
     0
1002
}
1002
{
1000
REACTOR
1002
}
1001
GENIUS_GENOBJ-N-FIL_13
1002
{
1000
OWNER
1000
GEN
1002
}
  0
LINE
  5
44E4
  8
250
  6
CONTINUOUS
 10
-2.078870508136446
 20
-14.94548471947382
 30
0.0
 11
10.054462825196881
 21
-14.94548471947382
 31
0.0
  0
LINE
  5
44E5
  8
250
  6
CONTINUOUS
 10
10.054462825196881
 20
-14.94548471947382
 30
0.0
 11
14.79439865541786
 21
-6.9201103584703088
 31
0.0
  0
LINE
  5
44E6
  8
250
  6
CONTINUOUS
 10
14.79439865541786
 20
-6.9201103584703088
 30
0.0
 11
15.928451657395721
 21
-5.0
 31
0.0
  0
LINE
  5
44E7
  8
250
  6
CONTINUOUS
 10
15.04718597862608
 20
-7.0694112679110486
 30
0.0
 11
15.928451657395721
 21
-5.0
 31
0.0
  0
TEXT
  5
44E8
  8
250
  6
CONTINUOUS
 10
-2.4788705081364242
 20
-13.545484719473849
 30
0.0
 40
2.799999999999998
  1
ST10
  7
ACJISTS
  0
LINE
  5
44E9
  8
247
  6
CONTINUOUS
 10
4.25
 20
-3.5
 30
0.0
 11
8.8846153843300026
 21
-3.5
 31
0.0
  0
LINE
  5
44EA
  8
247
  6
CONTINUOUS
 10
5.0451065000120252
 20
-1.0
 30
0.0
 11
4.4429411899426441
 21
-3.0999999999160082
 31
0.0
  0
LINE
  5
44EB
  8
247
  6
CONTINUOUS
 10
5.6748485964809561
 20
-1.9961538461138839
 30
0.0
 11
4.7594639811329671
 21
-1.9961538461138839
 31
0.0
  0
ARC
  5
44EC
  8
247
  6
CONTINUOUS
 10
5.9127365980531854
 20
-1.3847190672940981
 30
0.0
 40
0.3876715809326743
 50
342.9978896752952
 51
82.924166218513619
  0
ARC
  5
44ED
  8
247
  6
CONTINUOUS
 10
5.617522443195865
 20
-1.305223131028014
 30
0.0
 40
0.6933047965358767
 50
274.74293685219902
 51
343.84922627326682
1001
GENIUS_GENOBJ-N-FIL_13
1002
{
1000
OWNER
1000
GEN
1002
}
1001
GENIUS_GENODEF_13
1002
{
1000
HIER
1070
     0
1002
}
1002
{
1000
MANEDIT
1070
     0
1002
}
1002
{
1000
NOSEL
1070
     0
1002
}
1002
{
1000
BEHIND
1070
     0
1002
}
1002
{
1000
OTHER
1070
     0
1002
}
1002
{
1000
REACTOR
1002
}
  0
LINE
  5
44EE
  8
247
  6
CONTINUOUS
 10
5.3583258052906331
 20
-3.0999999999160082
 30
0.0
 11
4.4429411899426441
 21
-3.0999999999160082
 31
0.0
  0
LINE
  5
44EF
  8
247
  6
CONTINUOUS
 10
5.0451065000120252
 20
-1.0
 30
0.0
 11
5.960491115360071
 21
-1.0
 31
0.0
  0
ARC
  5
44F0
  8
247
  6
CONTINUOUS
 10
5.6216935237331409
 20
-2.387416962767928
 30
0.0
 40
0.394857301075386
 50
335.99094165252171
 51
82.263443459069123
  0
ARC
  5
44F1
  8
247
  6
CONTINUOUS
 10
5.2875533895730751
 20
-2.391200327332625
 30
0.0
 40
0.7123241612361686
 50
275.70198516425643
 51
347.27733843682199
1001
GENIUS_GENOBJ-N-FIL_13
1002
{
1000
OWNER
1000
GEN
1002
}
1001
GENIUS_GENODEF_13
1002
{
1000
HIER
1070
     0
1002
}
1002
{
1000
MANEDIT
1070
     0
1002
}
1002
{
1000
NOSEL
1070
     0
1002
}
1002
{
1000
BEHIND
1070
     0
1002
}
1002
{
1000
OTHER
1070
     0
1002
}
1002
{
1000
REACTOR
1002
}
  0
LINE
  5
44F2
  8
247
  6
CONTINUOUS
 10
6.3160181129366011
 20
-3.0999999999160082
 30
0.0
 11
6.9181834230060399
 21
-1.0
 31
0.0
  0
LINE
  5
44F3
  8
247
  6
CONTINUOUS
 10
8.4143372690920142
 20
-1.0
 30
0.0
 11
8.0183216356964504
 21
-1.0
 31
0.0
  0
LINE
  5
44F4
  8
247
  6
CONTINUOUS
 10
7.3912603460560131
 20
-3.0999999999160082
 30
0.0
 11
7.8220295768080623
 21
-3.0999999999160082
 31
0.0
  0
ARC
  5
44F5
  8
247
  6
CONTINUOUS
 10
8.6181834229300307
 20
-2.4582995950834161
 30
0.0
 40
1.576855057639547
 50
112.3594881415292
 51
164.9932485428464
  0
ARC
  5
44F6
  8
247
  6
CONTINUOUS
 10
8.152488633866767
 20
-1.5658188585380231
 30
0.0
 40
0.6234706797009447
 50
4.9945893190753123
 51
65.166328957307613
1001
GENIUS_GENOBJ-N-FIL_13
1002
{
1000
OWNER
1000
GEN
1002
}
1001
GENIUS_GENODEF_13
1002
{
1000
HIER
1070
     0
1002
}
1002
{
1000
MANEDIT
1070
     0
1002
}
1002
{
1000
NOSEL
1070
     0
1002
}
1002
{
1000
BEHIND
1070
     0
1002
}
1002
{
1000
OTHER
1070
     0
1002
}
1002
{
1000
REACTOR
1002
}
  0
ARC
  5
44F7
  8
247
  6
CONTINUOUS
 10
7.5558160489672419
 20
-2.162102121969383
 30
0.0
 40
0.9749472149106983
 50
285.8460965557839
 51
352.3251370041624
  0
ARC
  5
44F8
  8
247
  6
CONTINUOUS
 10
7.964788361227761
 20
-2.371470401971008
 30
0.0
 40
0.9271945638692009
 50
159.71360167048971
 51
231.7887456564151
1001
GENIUS_GENOBJ-N-FIL_13
1002
{
1000
OWNER
1000
GEN
1002
}
1001
GENIUS_GENODEF_13
1002
{
1000
HIER
1070
     0
1002
}
1002
{
1000
MANEDIT
1070
     0
1002
}
1002
{
1000
NOSEL
1070
     0
1002
}
1002
{
1000
BEHIND
1070
     0
1002
}
1002
{
1000
OTHER
1070
     0
1002
}
1002
{
1000
REACTOR
1002
}
  0
LINE
  5
44F9
  8
247
  6
CONTINUOUS
 10
8.0374141921840305
 20
-2.2923076922559158
 30
0.0
 11
8.522029576780028
 21
-2.2923076922559158
 31
0.0
  0
ARC
  5
44FA
  8
247
  6
CONTINUOUS
 10
4.25
 20
-2.25
 30
0.0
 40
1.25
 50
90.0
 51
270.0
  0
LINE
  5
44FB
  8
247
  6
CONTINUOUS
 10
4.25
 20
-1.0
 30
0.0
 11
4.6961538460860179
 21
-1.0
 31
0.0
  0
ARC
  5
44FC
  8
247
  6
CONTINUOUS
 10
8.8846153843300026
 20
-2.25
 30
0.0
 40
1.25
 50
270.0
 51
90.0
  0
LINE
  5
4517
  8
250
  6
CONTINUOUS
 10
14.541611332209699
 20
-6.7708094490295796
 30
0.0
 11
15.928451657395721
 21
-5.0
 31
0.0
  0
LINE
  5
462F
  8
245
  6
CENTER2
 10
86.243760151932506
 20
3.3500000000000001
 30
0.0
 11
63.584168878315708
 21
3.3500000000000001
 31
0.0
  0
LINE
  5
46E0
  8
250
  6
CONTINUOUS
 10
82.594500052300759
 20
6.4000000000000012
 30
0.0
 11
101.24376015193251
 21
6.399999999999995
 31
0.0
  0
LINE
  5
46E1
  8
250
  6
CONTINUOUS
 10
100.24376015193251
 20
10.859999999999991
 30
0.0
 11
100.24376015193251
 21
8.6299999999999955
 31
0.0
  0
LINE
  5
46E2
  8
250
  6
CONTINUOUS
 10
100.24376015193251
 20
6.399999999999995
 30
0.0
 11
100.24376015193251
 21
-6.5333333333333341
 31
0.0
  0
LINE
  5
46E5
  8
250
  6
CONTINUOUS
 10
86.743760151932506
 20
0.0000000000000011
 30
0.0
 11
94.243760151932506
 21
-0.000000000000001
 31
0.0
  0
LINE
  5
46E6
  8
250
  6
CONTINUOUS
 10
86.743760151932506
 20
3.3500000000000001
 30
0.0
 11
94.243760151932506
 21
3.3499999999999992
 31
0.0
  0
LINE
  5
46E7
  8
250
  6
CONTINUOUS
 10
93.243760151932506
 20
-2.2299999999999991
 30
0.0
 11
93.243760151932506
 21
-4.4599999999999991
 31
0.0
  0
LINE
  5
46E8
  8
250
  6
CONTINUOUS
 10
93.243760151932506
 20
5.5799999999999992
 30
0.0
 11
93.243760151932506
 21
7.8099999999999978
 31
0.0
  0
LINE
  5
46E9
  8
250
  6
CONTINUOUS
 10
93.243760151932506
 20
-0.0000000000000007
 30
0.0
 11
93.243760151932506
 21
3.3499999999999992
 31
0.0
  0
TEXT
  5
46ED
  8
250
  6
CONTINUOUS
 10
99.243760151932506
 20
-5.9333333333333158
 30
0.0
 40
2.799999999999998
  1
\U+220512.8
 50
90.0
  0
LINE
  5
46EE
  8
250
  6
CONTINUOUS
 10
100.6154268185992
 20
8.6299999999999972
 30
0.0
 11
100.24376015193251
 21
6.399999999999995
 31
0.0
  0
LINE
  5
46EF
  8
250
  6
CONTINUOUS
 10
99.87209348526585
 20
8.6299999999999972
 30
0.0
 11
100.24376015193251
 21
6.399999999999995
 31
0.0
  0
LINE
  5
46F0
  8
250
  6
CONTINUOUS
 10
100.24376015193251
 20
6.399999999999995
 30
0.0
 11
100.24376015193251
 21
8.6299999999999972
 31
0.0
  0
TEXT
  5
46F1
  8
250
  6
CONTINUOUS
 10
92.243760151932506
 20
-2.9916666666666489
 30
0.0
 40
2.799999999999998
  1
3.35
 50
90.0
  0
LINE
  5
46F2
  8
250
  6
CONTINUOUS
 10
93.615426818599204
 20
5.5799999999999992
 30
0.0
 11
93.243760151932506
 21
3.3499999999999992
 31
0.0
  0
LINE
  5
46F3
  8
250
  6
CONTINUOUS
 10
92.872093485265864
 20
5.5799999999999992
 30
0.0
 11
93.243760151932506
 21
3.3499999999999992
 31
0.0
  0
LINE
  5
46F4
  8
250
  6
CONTINUOUS
 10
93.243760151932506
 20
3.3499999999999992
 30
0.0
 11
93.243760151932506
 21
5.5799999999999992
 31
0.0
  0
LINE
  5
46F5
  8
250
  6
CONTINUOUS
 10
92.872093485265864
 20
-2.2299999999999991
 30
0.0
 11
93.243760151932506
 21
-0.0000000000000007
 31
0.0
  0
LINE
  5
46F6
  8
250
  6
CONTINUOUS
 10
93.615426818599204
 20
-2.2299999999999991
 30
0.0
 11
93.243760151932506
 21
-0.0000000000000007
 31
0.0
  0
LINE
  5
46F7
  8
250
  6
CONTINUOUS
 10
93.243760151932506
 20
-0.0000000000000007
 30
0.0
 11
93.243760151932506
 21
-2.2299999999999991
 31
0.0
  0
LINE
  5
46F8
  8
250
  6
CONTINUOUS
 10
61.042640687119302
 20
3.550000000782406
 30
0.0
 11
61.042640687119302
 21
22.000000000000011
 31
0.0
  0
LINE
  5
46F9
  8
250
  6
CONTINUOUS
 10
84.500000000000014
 20
2.810228609728072
 30
0.0
 11
84.500000000000014
 21
22.000000000000011
 31
0.0
  0
LINE
  5
46FA
  8
250
  6
CONTINUOUS
 10
63.272640687119292
 20
21.000000000000011
 30
0.0
 11
82.270000000000024
 21
21.000000000000011
 31
0.0
  0
LINE
  5
46FE
  8
250
  6
CONTINUOUS
 10
0.0
 20
5.5000000007824283
 30
0.0
 11
0.000000000000001
 21
29.0
 31
0.0
  0
LINE
  5
46FF
  8
250
  6
CONTINUOUS
 10
84.500000000000014
 20
2.810228609728072
 30
0.0
 11
84.500000000000014
 21
29.0
 31
0.0
  0
LINE
  5
4700
  8
250
  6
CONTINUOUS
 10
2.2299999999999991
 20
28.0
 30
0.0
 11
82.270000000000024
 21
28.0
 31
0.0
  0
TEXT
  5
4704
  8
250
  6
CONTINUOUS
 10
70.10465367689298
 20
22.000000000000011
 30
0.0
 40
2.799999999999998
  1
23
  0
LINE
  5
4705
  8
250
  6
CONTINUOUS
 10
82.270000000000024
 20
21.37166666666667
 30
0.0
 11
84.500000000000014
 21
21.000000000000011
 31
0.0
  0
LINE
  5
4706
  8
250
  6
CONTINUOUS
 10
82.270000000000024
 20
20.628333333333341
 30
0.0
 11
84.500000000000014
 21
21.000000000000011
 31
0.0
  0
LINE
  5
4707
  8
250
  6
CONTINUOUS
 10
84.500000000000014
 20
21.000000000000011
 30
0.0
 11
82.270000000000024
 21
21.000000000000011
 31
0.0
  0
LINE
  5
4708
  8
250
  6
CONTINUOUS
 10
63.272640687119292
 20
20.628333333333341
 30
0.0
 11
61.042640687119302
 21
21.000000000000011
 31
0.0
  0
LINE
  5
4709
  8
250
  6
CONTINUOUS
 10
63.272640687119292
 20
21.37166666666667
 30
0.0
 11
61.042640687119302
 21
21.000000000000011
 31
0.0
  0
LINE
  5
470A
  8
250
  6
CONTINUOUS
 10
61.042640687119302
 20
21.000000000000011
 30
0.0
 11
63.272640687119292
 21
21.000000000000011
 31
0.0
  0
TEXT
  5
470B
  8
250
  6
CONTINUOUS
 10
37.58333333333335
 20
29.0
 30
0.0
 40
2.799999999999998
  1
84.5
  0
LINE
  5
470C
  8
250
  6
CONTINUOUS
 10
82.270000000000024
 20
28.371666666666659
 30
0.0
 11
84.500000000000014
 21
28.0
 31
0.0
  0
LINE
  5
470D
  8
250
  6
CONTINUOUS
 10
82.270000000000024
 20
27.62833333333333
 30
0.0
 11
84.500000000000014
 21
28.0
 31
0.0
  0
LINE
  5
470E
  8
250
  6
CONTINUOUS
 10
84.500000000000014
 20
28.0
 30
0.0
 11
82.270000000000024
 21
28.0
 31
0.0
  0
LINE
  5
470F
  8
250
  6
CONTINUOUS
 10
2.2299999999999991
 20
27.62833333333333
 30
0.0
 11
0.000000000000001
 21
28.0
 31
0.0
  0
LINE
  5
4710
  8
250
  6
CONTINUOUS
 10
2.2299999999999991
 20
28.371666666666659
 30
0.0
 11
0.000000000000001
 21
28.0
 31
0.0
  0
LINE
  5
4711
  8
250
  6
CONTINUOUS
 10
0.000000000000001
 20
28.0
 30
0.0
 11
2.2299999999999991
 21
28.0
 31
0.0
  0
LINE
  5
4855
  8
250
  6
CONTINUOUS
 10
81.860144220004088
 20
6.6948777766035956
 30
0.0
 11
75.453793804204821
 21
13.10122819240293
 31
0.0
  0
ARC
  5
4856
  8
250
  6
CONTINUOUS
 10
84.500000000000014
 20
4.0550219966076462
 30
0.0
 40
11.79326749011712
 50
100.85031865104619
 51
124.14968134895339
  0
TEXT
  5
485A
  8
250
  6
CONTINUOUS
 10
76.823272808785802
 20
14.77768736979543
 30
0.0
 40
2.799999999999998
  1
45\U+00B0
 50
21.55684854765331
  0
LINE
  5
485B
  8
250
  6
CONTINUOUS
 10
78.116552606871707
 20
13.5283441768101
 30
0.0
 11
76.160900585391389
 21
12.39412141121637
 31
0.0
  0
LINE
  5
485C
  8
250
  6
CONTINUOUS
 10
77.642985654707232
 20
14.101300358609461
 30
0.0
 11
76.160900585391389
 21
12.39412141121637
 31
0.0
  0
LINE
  5
485D
  8
250
  6
CONTINUOUS
 10
76.160900585391389
 20
12.39412141121637
 30
0.0
 11
77.87976913078947
 21
13.814822267709779
 31
0.0
  0
LINE
  5
485E
  8
250
  6
CONTINUOUS
 10
82.244849786790823
 20
16.007454894316769
 30
0.0
 11
84.499999999999986
 21
15.848289486724759
 31
0.0
  0
LINE
  5
485F
  8
250
  6
CONTINUOUS
 10
82.315128585042586
 20
15.26745128962235
 30
0.0
 11
84.499999999999986
 21
15.848289486724759
 31
0.0
  0
LINE
  5
4860
  8
250
  6
CONTINUOUS
 10
84.499999999999986
 20
15.848289486724759
 30
0.0
 11
82.279989185916705
 21
15.63745309196956
 31
0.0
  0
VIEWPORT
  5
22
 67
     1
  8
0
 10
261.51769911504419
 20
148.5
 30
0.0
 40
523.0353982300885
 41
297.0
 68
     1
 69
     1
1001
ACAD
1000
MVIEW
1002
{
1070
    16
1010
0.0
1020
0.0
1030
0.0
1010
0.0
1020
0.0
1030
1.0
1040
0.0
1040
297.0
1040
261.51769911504419
1040
148.5
1040
50.0
1040
0.0
1040
0.0
1070
     0
1070
   100
1070
     1
1070
     1
1070
     0
1070
     0
1070
     0
1070
     0
1040
0.0
1040
0.0
1040
0.0
1040
1.0
1040
1.0
1040
10.0
1040
10.0
1070
     0
1002
{
1002
}
1002
}
1001
GENIUS_GENODEF_13
1002
{
1000
HIER
1070
     0
1002
}
1002
{
1000
MANEDIT
1070
     0
1002
}
1002
{
1000
NOSEL
1070
     0
1002
}
1002
{
1000
BEHIND
1070
     0
1002
}
1002
{
1000
OTHER
1070
     0
1002
}
1002
{
1000
REACTOR
1002
}
1001
GENIUS_GENOBJ-N-SDF_13
1002
{
1000
OWNER
1000
GEN
1002
}
1001
GENIUS_GENSCREG_15
1000
PF
1040
1.0
1000
DF
1040
1.0
1000
MIN
1011
0.0
1021
0.0
1031
0.0
1021
0.0
1031
0.0
1000
MAX
1011
523.0353982300885
1021
0.0
1031
0.0
1021
297.0
1031
0.0
1000
FLAGS
1070
     4
  0
ENDSEC
  0
EOF
