  0
SECTION
  2
HEADER
  9
$ACADVER
  1
AC1009
  9
$INSBASE
 10
0.0
 20
0.0
 30
0.0
  9
$EXTMIN
 10
-112.19526616273821
 20
-31.857604528611489
 30
-0.0015258207003583
  9
$EXTMAX
 10
18.29965246666643
 20
24.010162625939302
 30
0.0000000349246037
  9
$LIMMIN
 10
0.0
 20
0.0
  9
$LIMMAX
 10
297.0
 20
210.0
  9
$ORTHOMODE
 70
     0
  9
$REGENMODE
 70
     1
  9
$FILLMODE
 70
     1
  9
$QTEXTMODE
 70
     0
  9
$MIRRTEXT
 70
     1
  9
$DRAGMODE
 70
     2
  9
$LTSCALE
 40
10.0
  9
$OSMODE
 70
  2597
  9
$ATTMODE
 70
     1
  9
$TEXTSIZE
 40
3.0
  9
$TRACEWID
 40
1.0
  9
$TEXTSTYLE
  7
YOKO
  9
$CLAYER
  8
240
  9
$CELTYPE
  6
BYLAYER
  9
$CECOLOR
 62
   256
  9
$DIMSCALE
 40
1.0
  9
$DIMASZ
 40
2.2299999999999991
  9
$DIMEXO
 40
0.5
  9
$DIMDLI
 40
7.0
  9
$DIMRND
 40
0.0
  9
$DIMDLE
 40
0.0
  9
$DIMEXE
 40
1.0
  9
$DIMTP
 40
0.0
  9
$DIMTM
 40
0.01
  9
$DIMTXT
 40
2.7999999999999989
  9
$DIMCEN
 40
0.0
  9
$DIMTSZ
 40
0.0
  9
$DIMTOL
 70
     0
  9
$DIMLIM
 70
     0
  9
$DIMTIH
 70
     0
  9
$DIMTOH
 70
     0
  9
$DIMSE1
 70
     0
  9
$DIMSE2
 70
     0
  9
$DIMTAD
 70
     3
  9
$DIMZIN
 70
     9
  9
$DIMBLK
  1
OPEN
  9
$DIMASO
 70
     1
  9
$DIMSHO
 70
     1
  9
$DIMPOST
  1

  9
$DIMAPOST
  1

  9
$DIMALT
 70
     0
  9
$DIMALTD
 70
     2
  9
$DIMALTF
 40
25.399999999999999
  9
$DIMLFAC
 40
1.0
  9
$DIMTOFL
 70
     1
  9
$DIMTVP
 40
0.0
  9
$DIMTIX
 70
     1
  9
$DIMSOXD
 70
     0
  9
$DIMSAH
 70
     0
  9
$DIMBLK1
  1

  9
$DIMBLK2
  1

  9
$DIMSTYLE
  2
BIGT
  9
$DIMCLRD
 70
   256
  9
$DIMCLRE
 70
   256
  9
$DIMCLRT
 70
    40
  9
$DIMTFAC
 40
1.0
  9
$DIMGAP
 40
1.0
  9
$LUNITS
 70
     2
  9
$LUPREC
 70
     3
  9
$SKETCHINC
 40
1.0
  9
$FILLETRAD
 40
0.2
  9
$AUNITS
 70
     0
  9
$AUPREC
 70
     3
  9
$MENU
  1
.
  9
$ELEVATION
 40
0.0
  9
$PELEVATION
 40
0.0
  9
$THICKNESS
 40
0.0
  9
$LIMCHECK
 70
     0
  9
$BLIPMODE
 70
     0
  9
$CHAMFERA
 40
0.25
  9
$CHAMFERB
 40
0.25
  9
$SKPOLY
 70
     0
  9
$TDCREATE
 40
2454679.4266143981
  9
$TDUPDATE
 40
2454679.4371240279
  9
$TDINDWG
 40
0.010510706
  9
$TDUSRTIMER
 40
0.0105105324
  9
$USRTIMER
 70
     1
  9
$ANGBASE
 50
0.0
  9
$ANGDIR
 70
     0
  9
$PDMODE
 70
     1
  9
$PDSIZE
 40
0.0
  9
$PLINEWID
 40
0.0
  9
$COORDS
 70
     2
  9
$SPLFRAME
 70
     0
  9
$SPLINETYPE
 70
     6
  9
$SPLINESEGS
 70
     4
  9
$ATTDIA
 70
     1
  9
$ATTREQ
 70
     1
  9
$HANDLING
 70
     1
  9
$HANDSEED
  5
1857
  9
$SURFTAB1
 70
     6
  9
$SURFTAB2
 70
     6
  9
$SURFTYPE
 70
     6
  9
$SURFU
 70
     6
  9
$SURFV
 70
     6
  9
$UCSNAME
  2

  9
$UCSORG
 10
0.0
 20
0.0
 30
0.0
  9
$UCSXDIR
 10
1.0
 20
0.0
 30
0.0
  9
$UCSYDIR
 10
0.0
 20
1.0
 30
0.0
  9
$PUCSNAME
  2

  9
$PUCSORG
 10
0.0
 20
0.0
 30
0.0
  9
$PUCSXDIR
 10
1.0
 20
0.0
 30
0.0
  9
$PUCSYDIR
 10
0.0
 20
1.0
 30
0.0
  9
$USERI1
 70
     1
  9
$USERI2
 70
     0
  9
$USERI3
 70
     0
  9
$USERI4
 70
     0
  9
$USERI5
 70
     0
  9
$USERR1
 40
0.0
  9
$USERR2
 40
0.0
  9
$USERR3
 40
0.0
  9
$USERR4
 40
0.0
  9
$USERR5
 40
0.0
  9
$WORLDVIEW
 70
     1
  9
$SHADEDGE
 70
     3
  9
$SHADEDIF
 70
    70
  9
$TILEMODE
 70
     1
  9
$MAXACTVP
 70
    16
  9
$PLIMCHECK
 70
     0
  9
$PEXTMIN
 10
1.0000000000000000E+020
 20
1.0000000000000000E+020
 30
1.0000000000000000E+020
  9
$PEXTMAX
 10
-1.0000000000000000E+020
 20
-1.0000000000000000E+020
 30
-1.0000000000000000E+020
  9
$PLIMMIN
 10
0.0
 20
0.0
  9
$PLIMMAX
 10
420.0
 20
297.0
  9
$UNITMODE
 70
     0
  9
$VISRETAIN
 70
     1
  9
$PLINEGEN
 70
     0
  9
$PSLTSCALE
 70
     1
  0
ENDSEC
  0
SECTION
  2
TABLES
  0
TABLE
  2
VPORT
 70
    51
  0
VPORT
  2
*ACTIVE
 70
     0
 10
0.0
 20
0.0
 11
1.0
 21
1.0
 12
-46.947806848035917
 22
-3.9237209513360929
 13
0.0
 23
0.0
 14
7.0
 24
7.0
 15
7.0
 25
7.0
 16
0.0
 26
0.0
 36
1.0
 17
0.0
 27
0.0
 37
0.0
 40
88.225321270148314
 41
1.4864532019704431
 42
50.0
 43
0.0
 44
0.0
 50
0.0
 51
0.0
 71
     0
 72
  2000
 73
     1
 74
     0
 75
     0
 76
     1
 77
     0
 78
     0
  0
ENDTAB
  0
TABLE
  2
LTYPE
 70
    16
  0
LTYPE
  2
CONTINUOUS
 70
     0
  3
Solid line
 72
    65
 73
     0
 40
0.0
  0
LTYPE
  2
CENTER2
 70
     0
  3
___ _ ___ _ ___ _ ___ _ ___ _ ___ _ ___ _ ___ _
 72
    65
 73
     4
 40
1.125
 49
0.75
 49
-0.125
 49
0.125
 49
-0.125
  0
LTYPE
  2
HIDDEN2
 70
     0
  3
_ _ _ _ _ _ _ _ _ _ _ _ _ _ _ _ _ _ _ _ _ _ _ _
 72
    65
 73
     2
 40
0.1875
 49
0.125
 49
-0.0625
  0
LTYPE
  2
PHANTOM2
 70
     0
  3
___ _ _ ___ _ _ ___ _ _ ___ _ _ ___ _ _ ___ _ _
 72
    65
 73
     6
 40
1.25
 49
0.625
 49
-0.125
 49
0.125
 49
-0.125
 49
0.125
 49
-0.125
  0
LTYPE
  2
CENTER
 70
     0
  3
____ _ ____ _ ____ _ ____ _ ____ _ ____ _ ____ 
 72
    65
 73
     4
 40
2.0
 49
1.25
 49
-0.25
 49
0.25
 49
-0.25
  0
LTYPE
  2
AM_ISO02W050
 70
     0
  3
__ __ __ __ __ __ __ __ __ __ __ __ __ __ __
 72
    65
 73
     2
 40
7.5
 49
6.0
 49
-1.5
  0
LTYPE
  2
AMCONSTR
 70
     0
  3
_______________________
 72
    65
 73
     2
 40
9999.0
 49
9999.0
 49
0.0
  0
LTYPE
  2
ACISOWELD
 70
     0
  3
_ _ _ _ _
 72
    65
 73
     2
 40
2.0
 49
2.0
 49
-1.0
  0
LTYPE
  2
ACISOTGB
 70
     0
  3
__ . . __ . .
 72
    65
 73
     6
 40
9.0
 49
4.0
 49
-1.0
 49
1.0
 49
-1.0
 49
1.0
 49
-1.0
  0
LTYPE
  2
ACISOTGL
 70
     0
  3
_ _ _ _ _
 72
    65
 73
     2
 40
3.0
 49
2.0
 49
-1.0
  0
LTYPE
  2
ACJISTGB
 70
     0
  3
__ . . __ . .
 72
    65
 73
     6
 40
9.0
 49
4.0
 49
-1.0
 49
1.0
 49
-1.0
 49
1.0
 49
-1.0
  0
LTYPE
  2
ACJISTGL
 70
     0
  3
_ _ _ _ _
 72
    65
 73
     2
 40
3.0
 49
2.0
 49
-1.0
  0
LTYPE
  2
HIDDEN
 70
     0
  3
Hidden __ __ __ __ __ __ __ __ __ __ __ __ __ _
 72
    65
 73
     2
 40
9.5249999999999986
 49
6.3499999999999988
 49
-3.1749999999999989
  0
LTYPE
  2
ACANSTGB
 70
     0
  3
__ . . __ . .
 72
    65
 73
     6
 40
0.35433070866
 49
0.15748031496
 49
-0.03937007874
 49
0.03937007874
 49
-0.03937007874
 49
0.03937007874
 49
-0.03937007874
  0
LTYPE
  2
ACANSTGL
 70
     0
  3
_ _ _ _ _
 72
    65
 73
     2
 40
0.11811023622
 49
0.07874015748
 49
-0.03937007874
  0
ENDTAB
  0
TABLE
  2
LAYER
 70
    14
  0
LAYER
  2
0
 70
     0
 62
     7
  6
CONTINUOUS
  0
LAYER
  2
DEFPOINTS
 70
     0
 62
     7
  6
CONTINUOUS
  0
LAYER
  2
245
 70
     0
 62
     2
  6
CENTER2
  0
LAYER
  2
240
 70
     0
 62
     4
  6
CONTINUOUS
  0
LAYER
  2
241
 70
     0
 62
   211
  6
CONTINUOUS
  0
LAYER
  2
246
 70
     0
 62
     3
  6
PHANTOM2
  0
LAYER
  2
247
 70
     0
 62
    60
  6
CONTINUOUS
  0
LAYER
  2
250
 70
     0
 62
     3
  6
CONTINUOUS
  0
ENDTAB
  0
TABLE
  2
STYLE
 70
     8
  0
STYLE
  2
STANDARD
 70
     0
 40
0.0
 41
1.0
 50
0.0
 71
     0
 42
3.0
  3
romans.shx
  4
extfont.shx
  0
STYLE
  2
ACISOTS
 70
     0
 40
1.0
 41
1.0
 50
0.0
 71
     0
 42
3.0
  3
amgdt.shx
  4
extfont.shx
  0
STYLE
  2
ACISOGDT
 70
     0
 40
0.0
 41
1.0
 50
0.0
 71
     0
 42
3.0
  3
amgdt.shx
  4
extfont.shx
  0
STYLE
  2
ACJISTS
 70
     0
 40
1.0
 41
1.0
 50
0.0
 71
     0
 42
3.0
  3
amgdt.shx
  4
extfont.shx
  0
STYLE
  2
ACJISGDT
 70
     0
 40
0.0
 41
1.0
 50
0.0
 71
     0
 42
3.0
  3
amgdt.shx
  4
extfont.shx
  0
STYLE
  2
YOKO
 70
     0
 40
0.0
 41
1.0
 50
0.0
 71
     0
 42
3.0
  3
romans.shx
  4
extfont.shx
  0
STYLE
  2
ACANSTS
 70
     0
 40
1.0
 41
1.0
 50
0.0
 71
     0
 42
3.0
  3
romans.shx
  4
extfont.shx
  0
STYLE
  2
ACANSGDT
 70
     0
 40
0.0
 41
1.0
 50
0.0
 71
     0
 42
3.0
  3
amgdtans.shx
  4

  0
ENDTAB
  0
TABLE
  2
VIEW
 70
     0
  0
ENDTAB
  0
TABLE
  2
UCS
 70
     0
  0
ENDTAB
  0
TABLE
  2
APPID
 70
    32
  0
APPID
  2
ACAD
 70
     0
  0
APPID
  2
GLOBAL
 70
     0
  0
APPID
  2
DETAIL
 70
     0
  0
APPID
  2
GRPNAME
 70
     0
  0
APPID
  2
GPARA
 70
     0
  0
APPID
  2
MCAD_NO_VIS
 70
     0
  0
APPID
  2
ACAD_TEMP_GRAPHIC
 70
     0
  0
APPID
  2
ACATTRIBSERVICES
 70
     0
  0
APPID
  2
GENIUS_GENSCREG_15
 70
     0
  0
APPID
  2
GENIUS_GENODEF_13
 70
     0
  0
APPID
  2
GENIUS_GENOBJ-N-SDF_13
 70
     0
  0
APPID
  2
GENIUS_GENREC_14
 70
     0
  0
APPID
  2
GENIUS_GENOBJ-N-REC_13
 70
     0
  0
APPID
  2
GENIUS_GENDIMSH_14
 70
     0
  0
APPID
  2
GENIUS_GENOBJ-N-DIM_13
 70
     0
  0
APPID
  2
GENIUS_GENDIM_13
 70
     0
  0
APPID
  2
GENIUS_GENDTOL_13
 70
     0
  0
APPID
  2
GENIUS_GENOLIS_13
 70
     0
  0
APPID
  2
GENIUS_GENOENT_13
 70
     0
  0
APPID
  2
GENIUS_GENOBJ-F-FEM_13
 70
     0
  0
APPID
  2
GENIUS_GENOREF_13
 70
     0
  0
APPID
  2
GENIUS_GEFFEM_13
 70
     0
  0
APPID
  2
GENIUS_GEFFEMP_13
 70
     0
  0
APPID
  2
AD_DRAW
 70
     0
  0
APPID
  2
DESIGNERASSEMBLIES
 70
     0
  0
APPID
  2
ACADM_DIM_EDIT
 70
     0
  0
APPID
  2
AMDT_DM_ADJ
 70
     0
  0
APPID
  2
ITEMNAME
 70
     0
  0
APPID
  2
GENIUS_GENOBJ-N-FIL_13
 70
     0
  0
APPID
  2
HATCH_TYPE
 70
     0
  0
APPID
  2
HATCH_DISPLAY
 70
     0
  0
APPID
  2
HATCH_DISTANCE
 70
     0
  0
ENDTAB
  0
TABLE
  2
DIMSTYLE
 70
    31
  0
DIMSTYLE
  2
BIGT
 70
     0
  3

  4

  5
OPEN
  6

  7

 40
1.0
 41
2.2299999999999991
 42
0.5
 43
7.0
 44
1.0
 45
0.0
 46
0.0
 47
0.0
 48
0.01
140
2.7999999999999989
141
0.0
142
0.0
143
25.399999999999999
144
1.0
145
0.0
146
1.0
147
1.0
 71
     0
 72
     0
 73
     0
 74
     0
 75
     0
 76
     0
 77
     3
 78
     9
170
     0
171
     2
172
     1
173
     0
174
     1
175
     0
176
   256
177
   256
178
    40
  0
DIMSTYLE
  2
AM_ISO
 70
     0
  3

  4
"
  5

  6

  7

 40
1.0
 41
2.5
 42
1.0
 43
10.0
 44
1.0
 45
0.0
 46
0.0
 47
0.1
 48
0.1
140
3.5
141
0.0
142
0.0
143
0.0393701
144
1.0
145
0.0
146
0.71
147
1.5
 71
     0
 72
     0
 73
     0
 74
     0
 75
     0
 76
     0
 77
     1
 78
     8
170
     0
171
     2
172
     1
173
     0
174
     0
175
     0
176
   256
177
   256
178
     2
  0
DIMSTYLE
  2
AM_ISO$3
 70
     0
  3

  4
"
  5

  6

  7

 40
1.0
 41
2.5
 42
1.0
 43
10.0
 44
1.0
 45
0.0
 46
0.0
 47
0.1
 48
0.1
140
3.5
141
0.0
142
0.0
143
0.0393701
144
1.0
145
0.0
146
0.71
147
1.5
 71
     0
 72
     0
 73
     0
 74
     1
 75
     0
 76
     0
 77
     1
 78
     8
170
     0
171
     2
172
     0
173
     0
174
     0
175
     0
176
   256
177
   256
178
     2
  0
DIMSTYLE
  2
AM_ISO$4
 70
     0
  3

  4
"
  5

  6

  7

 40
1.0
 41
2.5
 42
1.0
 43
10.0
 44
1.0
 45
0.0
 46
0.0
 47
0.1
 48
0.1
140
3.5
141
0.0
142
0.0
143
0.0393701
144
1.0
145
0.0
146
0.71
147
1.5
 71
     0
 72
     0
 73
     0
 74
     1
 75
     0
 76
     0
 77
     1
 78
     8
170
     0
171
     2
172
     0
173
     0
174
     0
175
     0
176
   256
177
   256
178
     2
  0
DIMSTYLE
  2
AM_ISO$6
 70
     0
  3

  4
"
  5

  6

  7

 40
1.0
 41
2.5
 42
1.0
 43
10.0
 44
1.0
 45
0.0
 46
0.0
 47
0.1
 48
0.1
140
3.5
141
0.0
142
0.0
143
0.0393701
144
1.0
145
0.0
146
0.71
147
1.5
 71
     0
 72
     0
 73
     0
 74
     0
 75
     0
 76
     0
 77
     0
 78
     8
170
     0
171
     2
172
     1
173
     0
174
     0
175
     0
176
   256
177
   256
178
     2
  0
DIMSTYLE
  2
AM_ISO$7
 70
     0
  3

  4
"
  5

  6

  7

 40
1.0
 41
2.5
 42
1.0
 43
10.0
 44
1.0
 45
0.0
 46
0.0
 47
0.1
 48
0.1
140
5.0
141
0.0
142
0.0
143
0.0393701
144
1.0
145
0.0
146
0.71
147
1.5
 71
     0
 72
     0
 73
     0
 74
     0
 75
     0
 76
     0
 77
     1
 78
     8
170
     0
171
     2
172
     1
173
     0
174
     0
175
     0
176
   256
177
   256
178
     2
  0
DIMSTYLE
  2
AM_ISO$SF
 70
     0
  3

  4
"
  5

  6

  7

 40
1.0
 41
2.5
 42
1.0
 43
10.0
 44
1.0
 45
0.0
 46
0.0
 47
0.1
 48
0.1
140
3.5
141
0.0
142
0.0
143
0.0393701
144
1.0
145
0.0
146
0.71
147
1.5
 71
     0
 72
     0
 73
     0
 74
     0
 75
     1
 76
     1
 77
     1
 78
     8
170
     0
171
     2
172
     1
173
     0
174
     0
175
     0
176
   256
177
   256
178
     2
  0
DIMSTYLE
  2
AM_ISO$SH
 70
     0
  3

  4
"
  5

  6
GENAXEH
  7

 40
1.0
 41
2.5
 42
1.0
 43
10.0
 44
1.0
 45
0.0
 46
0.0
 47
0.1
 48
0.1
140
3.5
141
0.0
142
0.0
143
0.0393701
144
2.0
145
0.0
146
0.71
147
1.5
 71
     0
 72
     0
 73
     0
 74
     0
 75
     1
 76
     1
 77
     1
 78
     8
170
     0
171
     2
172
     1
173
     1
174
     0
175
     0
176
   256
177
   256
178
     2
  0
DIMSTYLE
  2
BIGT$2
 70
     0
  3

  4

  5
OPEN
  6

  7

 40
1.0
 41
2.2299999999999991
 42
0.5
 43
7.0
 44
1.0
 45
0.0
 46
0.0
 47
0.0
 48
0.01
140
2.7999999999999989
141
0.0
142
0.0
143
25.399999999999999
144
1.0
145
0.0
146
1.0
147
1.0
 71
     0
 72
     0
 73
     0
 74
     0
 75
     0
 76
     0
 77
     3
 78
     9
170
     0
171
     2
172
     1
173
     0
174
     0
175
     0
176
   256
177
   256
178
    40
  0
DIMSTYLE
  2
BIGT$3
 70
     0
  3

  4

  5
OPEN
  6

  7

 40
1.0
 41
2.2299999999999991
 42
0.5
 43
2.5
 44
1.0
 45
0.0
 46
0.0
 47
0.0
 48
0.01
140
2.7999999999999989
141
0.0
142
0.0
143
25.399999999999999
144
1.0
145
0.0
146
1.0
147
1.0
 71
     0
 72
     0
 73
     0
 74
     0
 75
     0
 76
     0
 77
     3
 78
     9
170
     0
171
     2
172
     1
173
     0
174
     0
175
     0
176
   256
177
   256
178
    40
  0
DIMSTYLE
  2
BIGT$7
 70
     0
  3

  4

  5
OPEN
  6

  7

 40
0.0
 41
2.2299999999999991
 42
0.5
 43
7.0
 44
1.0
 45
0.0
 46
0.0
 47
0.0
 48
0.01
140
2.7999999999999989
141
0.0
142
0.0
143
25.399999999999999
144
1.0
145
0.0
146
1.0
147
1.0
 71
     0
 72
     0
 73
     0
 74
     0
 75
     0
 76
     0
 77
     3
 78
     9
170
     0
171
     2
172
     0
173
     0
174
     0
175
     0
176
   256
177
   256
178
    40
  0
DIMSTYLE
  2
BIGT$6
 70
     0
  3

  4

  5
OPEN
  6

  7

 40
1.0
 41
2.2299999999999991
 42
0.5
 43
2.5
 44
1.0
 45
0.0
 46
0.0
 47
0.0
 48
0.01
140
2.7999999999999989
141
0.0
142
0.0
143
25.399999999999999
144
1.0
145
0.0
146
1.0
147
1.0
 71
     0
 72
     0
 73
     0
 74
     0
 75
     0
 76
     0
 77
     3
 78
     9
170
     0
171
     2
172
     1
173
     0
174
     0
175
     0
176
   256
177
   256
178
    40
  0
DIMSTYLE
  2
BIGT$0
 70
     0
  3

  4

  5
OPEN
  6

  7

 40
1.0
 41
2.2299999999999991
 42
0.5
 43
7.0
 44
1.0
 45
0.0
 46
0.0
 47
0.0
 48
0.01
140
2.7999999999999989
141
0.0
142
0.0
143
25.399999999999999
144
1.0
145
0.0
146
1.0
147
1.0
 71
     0
 72
     0
 73
     0
 74
     0
 75
     0
 76
     0
 77
     3
 78
     9
170
     0
171
     2
172
     1
173
     0
174
     0
175
     0
176
   256
177
   256
178
    40
  0
DIMSTYLE
  2
BIGT$4
 70
     0
  3

  4

  5
OPEN
  6

  7

 40
1.0
 41
2.2299999999999991
 42
0.5
 43
2.5
 44
1.0
 45
0.0
 46
0.0
 47
0.0
 48
0.01
140
2.7999999999999989
141
0.0
142
0.0
143
25.399999999999999
144
1.0
145
0.0
146
1.0
147
1.0
 71
     0
 72
     0
 73
     0
 74
     0
 75
     0
 76
     0
 77
     3
 78
     9
170
     0
171
     2
172
     1
173
     0
174
     0
175
     0
176
   256
177
   256
178
    40
  0
DIMSTYLE
  2
BIGT$SH
 70
     0
  3

  4

  5
OPEN
  6

  7

 40
1.0
 41
2.2299999999999991
 42
0.5
 43
7.0
 44
1.0
 45
0.0
 46
0.0
 47
0.0
 48
0.0
140
2.7999999999999989
141
0.0
142
0.0
143
25.399999999999999
144
1.0
145
0.0
146
1.0
147
1.0
 71
     0
 72
     0
 73
     0
 74
     0
 75
     0
 76
     0
 77
     3
 78
     9
170
     0
171
     2
172
     1
173
     0
174
     0
175
     0
176
   256
177
   256
178
    40
  0
DIMSTYLE
  2
BIGT$SF
 70
     0
  3

  4

  5
OPEN
  6

  7

 40
1.0
 41
2.2299999999999991
 42
0.5
 43
7.0
 44
1.0
 45
0.0
 46
0.0
 47
0.0
 48
0.0
140
2.7999999999999989
141
0.0
142
0.0
143
25.399999999999999
144
1.0
145
0.0
146
1.0
147
1.0
 71
     0
 72
     0
 73
     0
 74
     0
 75
     0
 76
     0
 77
     3
 78
     9
170
     0
171
     2
172
     1
173
     0
174
     0
175
     0
176
   256
177
   256
178
    40
  0
DIMSTYLE
  2
TECHNICAL_OSAKA
 70
     0
  3

  4
"
  5
OPEN30
  6

  7

 40
1.0
 41
2.5
 42
1.0
 43
10.0
 44
1.0
 45
0.0
 46
0.0
 47
0.1
 48
0.1
140
2.7999999999999989
141
0.0
142
0.0
143
0.0393701
144
1.0
145
0.0
146
0.71
147
1.5
 71
     0
 72
     0
 73
     0
 74
     0
 75
     0
 76
     0
 77
     3
 78
     8
170
     0
171
     2
172
     1
173
     0
174
     0
175
     0
176
   256
177
   256
178
    40
  0
DIMSTYLE
  2
TECHNICAL_OSAKA$3
 70
     0
  3

  4
"
  5
OPEN30
  6

  7

 40
1.0
 41
2.5
 42
1.0
 43
10.0
 44
1.0
 45
0.0
 46
0.0
 47
0.1
 48
0.1
140
2.7999999999999989
141
0.0
142
0.0
143
0.0393701
144
1.0
145
0.0
146
0.71
147
1.5
 71
     0
 72
     0
 73
     0
 74
     1
 75
     0
 76
     0
 77
     3
 78
     8
170
     0
171
     2
172
     0
173
     0
174
     0
175
     0
176
   256
177
   256
178
    40
  0
DIMSTYLE
  2
TECHNICAL_OSAKA$4
 70
     0
  3

  4
"
  5
OPEN30
  6

  7

 40
1.0
 41
2.5
 42
1.0
 43
10.0
 44
1.0
 45
0.0
 46
0.0
 47
0.1
 48
0.1
140
2.7999999999999989
141
0.0
142
0.0
143
0.0393701
144
1.0
145
0.0
146
0.71
147
1.5
 71
     0
 72
     0
 73
     0
 74
     1
 75
     0
 76
     0
 77
     3
 78
     8
170
     0
171
     2
172
     0
173
     0
174
     0
175
     0
176
   256
177
   256
178
    40
  0
DIMSTYLE
  2
TECHNICAL_OSAKA$6
 70
     0
  3

  4
"
  5
OPEN30
  6

  7

 40
1.0
 41
2.5
 42
1.0
 43
10.0
 44
1.0
 45
0.0
 46
0.0
 47
0.1
 48
0.1
140
2.7999999999999989
141
0.0
142
0.0
143
0.0393701
144
1.0
145
0.0
146
0.71
147
1.5
 71
     0
 72
     0
 73
     0
 74
     0
 75
     0
 76
     0
 77
     0
 78
     8
170
     0
171
     2
172
     1
173
     0
174
     0
175
     0
176
   256
177
   256
178
    40
  0
DIMSTYLE
  2
TECHNICAL_OSAKA$7
 70
     0
  3

  4
"
  5
OPEN30
  6

  7

 40
1.0
 41
2.5
 42
1.0
 43
10.0
 44
1.0
 45
0.0
 46
0.0
 47
0.1
 48
0.1
140
2.7999999999999989
141
0.0
142
0.0
143
0.0393701
144
1.0
145
0.0
146
0.71
147
1.5
 71
     0
 72
     0
 73
     0
 74
     0
 75
     0
 76
     0
 77
     3
 78
     8
170
     0
171
     2
172
     1
173
     0
174
     0
175
     0
176
   256
177
   256
178
    40
  0
DIMSTYLE
  2
TECHNICAL_OSAKA$SF
 70
     0
  3

  4
"
  5
OPEN30
  6
OPEN30
  7
OPEN30
 40
1.0
 41
2.5
 42
1.0
 43
10.0
 44
1.0
 45
0.0
 46
0.0
 47
0.1
 48
0.1
140
3.5
141
0.0
142
0.0
143
0.0393701
144
1.0
145
0.0
146
0.71
147
1.5
 71
     0
 72
     0
 73
     0
 74
     0
 75
     1
 76
     1
 77
     3
 78
     8
170
     0
171
     2
172
     1
173
     0
174
     0
175
     0
176
   256
177
   256
178
    40
  0
DIMSTYLE
  2
TECHNICAL_OSAKA$SH
 70
     0
  3

  4
"
  5
OPEN30
  6
GENAXEH
  7
OPEN30
 40
1.0
 41
2.5
 42
1.0
 43
10.0
 44
1.0
 45
0.0
 46
0.0
 47
0.1
 48
0.1
140
3.5
141
0.0
142
0.0
143
0.0393701
144
2.0
145
0.0
146
0.71
147
1.5
 71
     0
 72
     0
 73
     0
 74
     0
 75
     1
 76
     1
 77
     3
 78
     8
170
     0
171
     2
172
     1
173
     1
174
     0
175
     0
176
   256
177
   256
178
    40
  0
DIMSTYLE
  2
AM_ANSI
 70
     0
  3

  4
mm
  5

  6

  7

 40
1.0
 41
0.1
 42
0.05
 43
0.5
 44
0.1
 45
0.0
 46
0.0
 47
0.1
 48
0.1
140
0.12
141
0.0
142
0.0
143
25.399999999999999
144
1.0
145
0.0
146
0.71
147
0.06
 71
     0
 72
     0
 73
     1
 74
     1
 75
     0
 76
     0
 77
     0
 78
     7
170
     0
171
     2
172
     0
173
     0
174
     0
175
     0
176
   256
177
   256
178
     2
  0
DIMSTYLE
  2
AM_ANSI$3
 70
     0
  3

  4
mm
  5

  6

  7

 40
1.0
 41
0.1
 42
0.05
 43
0.5
 44
0.1
 45
0.0
 46
0.0
 47
0.1
 48
0.1
140
0.12
141
0.0
142
0.0
143
25.399999999999999
144
1.0
145
0.0
146
0.71
147
0.06
 71
     0
 72
     0
 73
     1
 74
     1
 75
     0
 76
     0
 77
     0
 78
     7
170
     0
171
     2
172
     0
173
     0
174
     0
175
     0
176
   256
177
   256
178
     2
  0
DIMSTYLE
  2
AM_ANSI$4
 70
     0
  3

  4
mm
  5

  6

  7

 40
1.0
 41
0.1
 42
0.05
 43
0.5
 44
0.1
 45
0.0
 46
0.0
 47
0.1
 48
0.1
140
0.12
141
0.0
142
0.0
143
25.399999999999999
144
1.0
145
0.0
146
0.71
147
0.06
 71
     0
 72
     0
 73
     1
 74
     1
 75
     0
 76
     0
 77
     0
 78
     7
170
     0
171
     2
172
     0
173
     0
174
     0
175
     0
176
   256
177
   256
178
     2
  0
DIMSTYLE
  2
AM_ANSI$7
 70
     0
  3

  4
mm
  5

  6

  7

 40
1.0
 41
0.1
 42
0.05
 43
0.5
 44
0.1
 45
0.0
 46
0.0
 47
0.1
 48
0.1
140
0.24
141
0.0
142
0.0
143
25.399999999999999
144
1.0
145
0.0
146
0.71
147
0.06
 71
     0
 72
     0
 73
     1
 74
     1
 75
     0
 76
     0
 77
     0
 78
     7
170
     0
171
     2
172
     0
173
     0
174
     0
175
     0
176
   256
177
   256
178
     2
  0
DIMSTYLE
  2
AM_ANSI$SF
 70
     0
  3

  4
mm
  5

  6

  7

 40
1.0
 41
0.1
 42
0.05
 43
0.5
 44
0.1
 45
0.0
 46
0.0
 47
0.1
 48
0.1
140
0.12
141
0.0
142
0.0
143
25.399999999999999
144
1.0
145
0.0
146
0.71
147
0.06
 71
     0
 72
     0
 73
     1
 74
     1
 75
     1
 76
     1
 77
     0
 78
     7
170
     0
171
     2
172
     0
173
     0
174
     0
175
     0
176
   256
177
   256
178
     2
  0
DIMSTYLE
  2
AM_ANSI$SH
 70
     0
  3

  4
mm
  5

  6

  7

 40
1.0
 41
0.1
 42
0.05
 43
0.5
 44
0.1
 45
0.0
 46
0.0
 47
0.1
 48
0.1
140
0.12
141
0.0
142
0.0
143
25.399999999999999
144
1.0
145
0.0
146
0.71
147
0.06
 71
     0
 72
     0
 73
     1
 74
     1
 75
     1
 76
     1
 77
     0
 78
     7
170
     0
171
     2
172
     0
173
     1
174
     0
175
     0
176
   256
177
   256
178
     2
  0
ENDTAB
  0
ENDSEC
  0
SECTION
  2
BLOCKS
  0
BLOCK
  8
0
  2
$MODEL_SPACE
 70
     0
 10
0.0
 20
0.0
 30
0.0
  3
$MODEL_SPACE
  1

  0
ENDBLK
  5
1C
  8
0
  0
BLOCK
 67
     1
  8
0
  2
$PAPER_SPACE
 70
     0
 10
0.0
 20
0.0
 30
0.0
  3
$PAPER_SPACE
  1

  0
ENDBLK
  5
19
 67
     1
  8
0
  0
BLOCK
  8
0
  2
_OPEN
 70
     0
 10
0.0
 20
0.0
 30
0.0
  3
_OPEN
  1

  0
LINE
  5
595
  8
0
  6
BYBLOCK
 62
     0
 10
-1.0
 20
0.1666666666666666
 30
0.0
 11
0.0
 21
0.0
 31
0.0
  0
LINE
  5
596
  8
0
  6
BYBLOCK
 62
     0
 10
-1.0
 20
-0.1666666666666666
 30
0.0
 11
0.0
 21
0.0
 31
0.0
  0
LINE
  5
597
  8
0
  6
BYBLOCK
 62
     0
 10
0.0
 20
0.0
 30
0.0
 11
-1.0
 21
0.0
 31
0.0
  0
ENDBLK
  5
599
  8
0
  0
BLOCK
  8
0
  2
GENAXEH
 70
     0
 10
0.0
 20
0.0
 30
0.0
  3
GENAXEH
  1

  0
LINE
  5
6E8
  8
0
 10
-1.0
 20
0.0
 30
0.0
 11
1.0
 21
0.0
 31
0.0
  0
ENDBLK
  5
6EA
  8
0
  0
BLOCK
  8
0
  2
_OPEN30
 70
     0
 10
0.0
 20
0.0
 30
0.0
  3
_OPEN30
  1

  0
LINE
  5
E8F
  8
0
  6
BYBLOCK
 62
     0
 10
-1.0
 20
0.26794919
 30
0.0
 11
0.0
 21
0.0
 31
0.0
  0
LINE
  5
E90
  8
0
  6
BYBLOCK
 62
     0
 10
0.0
 20
0.0
 30
0.0
 11
-1.0
 21
-0.26794919
 31
0.0
  0
LINE
  5
E91
  8
0
  6
BYBLOCK
 62
     0
 10
0.0
 20
0.0
 30
0.0
 11
-1.0
 21
0.0
 31
0.0
  0
ENDBLK
  5
E93
  8
0
  0
BLOCK
  8
0
  2
*X27
 70
     1
 10
0.0
 20
0.0
 30
0.0
  3
*X27
  1

  0
LINE
  5
170B
  8
0
 62
     0
 10
4.273162646078692
 20
-5.8571670211471281
 30
0.0
 11
3.510115154589633
 21
-5.094119529658065
 31
0.0
  0
LINE
  5
170C
  8
0
 62
     0
 10
3.4940719416106631
 20
-5.3367076929658772
 30
0.0
 11
3.1883917659253971
 21
-5.03102751728062
 31
0.0
  0
LINE
  5
170D
  8
0
 62
     0
 10
4.3362546584561441
 20
-6.1788904098113671
 30
0.0
 11
4.030574482770878
 21
-5.8732102341260974
 31
0.0
  0
LINE
  5
170E
  8
0
 62
     0
 10
3.161466872339401
 20
-5.2627339999814282
 30
0.0
 11
2.940339387738502
 21
-5.0416065153805283
 31
0.0
  0
LINE
  5
170F
  8
0
 62
     0
 10
4.3383903626899851
 20
-6.4396574903320083
 30
0.0
 11
4.1045481757553324
 21
-6.2058153033973564
 31
0.0
  0
LINE
  5
1710
  8
0
 62
     0
 10
2.9211994892945912
 20
-5.281097993223403
 30
0.0
 11
2.731205010965883
 21
-5.091103514894697
 31
0.0
  0
LINE
  5
1711
  8
0
 62
     0
 10
4.338390362689978
 20
-6.6982888666187872
 30
0.0
 11
4.105585681181485
 21
-6.4654841851102951
 31
0.0
  0
LINE
  5
1712
  8
0
 62
     0
 10
2.7241461983551192
 20
-5.342676078570725
 30
0.0
 11
2.549611000613679
 21
-5.1681408808292844
 31
0.0
  0
LINE
  5
1713
  8
0
 62
     0
 10
4.338390362689978
 20
-6.9569202429055821
 30
0.0
 11
4.105585681181485
 21
-6.7241155613970891
 31
0.0
  0
LINE
  5
1714
  8
0
 62
     0
 10
2.5574155323842751
 20
-5.4345767888866652
 30
0.0
 11
2.3904879894348241
 21
-5.2676492459372142
 31
0.0
  0
LINE
  5
1715
  8
0
 62
     0
 10
4.3383903626899851
 20
-7.2155516191923699
 30
0.0
 11
4.105585681181485
 21
-6.9827469376838751
 31
0.0
  0
LINE
  5
1716
  8
0
 62
     0
 10
2.4161255819181502
 20
-5.5519182147073352
 30
0.0
 11
2.251507783582793
 21
-5.3873004163719713
 31
0.0
  0
LINE
  5
1717
  8
0
 62
     0
 10
4.3383903626899851
 20
-7.4741829954791603
 30
0.0
 11
4.105585681181493
 21
-7.2413783139706691
 31
0.0
  0
LINE
  5
1718
  8
0
 62
     0
 10
2.2989457159389901
 20
-5.6933697250149731
 30
0.0
 11
2.1319866093836382
 21
-5.526410618459618
 31
0.0
  0
LINE
  5
1719
  8
0
 62
     0
 10
4.3383903626899851
 20
-7.7328143717659659
 30
0.0
 11
4.105585681181477
 21
-7.5000096902574622
 31
0.0
  0
LINE
  5
171A
  8
0
 62
     0
 10
2.2072252078153931
 20
-5.8602805931781683
 30
0.0
 11
2.03261766024983
 21
-5.6856730456126012
 31
0.0
  0
LINE
  5
171B
  8
0
 62
     0
 10
4.338390362689978
 20
-7.9914457480527474
 30
0.0
 11
4.105585681181485
 21
-7.7586410665442571
 31
0.0
  0
LINE
  5
171C
  8
0
 62
     0
 10
2.1458777492053511
 20
-6.0575645108549052
 30
0.0
 11
1.955742399326019
 21
-5.8674291609755747
 31
0.0
  0
LINE
  5
171D
  8
0
 62
     0
 10
4.338390362689978
 20
-8.2500771243395317
 30
0.0
 11
4.105585681181485
 21
-8.0172724428310431
 31
0.0
  0
LINE
  5
171E
  8
0
 62
     0
 10
2.127884606905837
 20
-6.298202744842186
 30
0.0
 11
1.9064556573934901
 21
-6.0767737953298466
 31
0.0
  0
LINE
  5
171F
  8
0
 62
     0
 10
4.3383903626899851
 20
-8.5087085006263337
 30
0.0
 11
4.105585681181485
 21
-8.2759038191178362
 31
0.0
  0
LINE
  5
1720
  8
0
 62
     0
 10
2.0859571237484991
 20
-6.514906637971646
 30
0.0
 11
1.896203437136684
 21
-6.325152951359831
 31
0.0
  0
LINE
  5
1721
  8
0
 62
     0
 10
4.338390362689978
 20
-8.7673398769131232
 30
0.0
 11
4.105585681181485
 21
-8.5345351954046365
 31
0.0
  0
LINE
  5
1722
  8
0
 62
     0
 10
4.338390362689978
 20
-9.0259712531999199
 30
0.0
 11
4.105585681181485
 21
-8.7931665716914225
 31
0.0
  0
LINE
  5
1723
  8
0
 62
     0
 10
4.338390362689978
 20
-9.2846026294867023
 30
0.0
 11
4.105585681181485
 21
-9.0517979479782156
 31
0.0
  0
LINE
  5
1724
  8
0
 62
     0
 10
4.338390362689978
 20
-9.5432340057735008
 30
0.0
 11
4.105585681181485
 21
-9.3104293242649998
 31
0.0
  0
LINE
  5
1725
  8
0
 62
     0
 10
4.3383903626899851
 20
-9.8018653820602886
 30
0.0
 11
4.105585681181485
 21
-9.5690607005517911
 31
0.0
  0
LINE
  5
1726
  8
0
 62
     0
 10
4.3383903626899851
 20
-10.06049675834708
 30
0.0
 11
4.105585681181493
 21
-9.8276920768385896
 31
0.0
  0
LINE
  5
1727
  8
0
 62
     0
 10
4.338390362689978
 20
-10.31912813463388
 30
0.0
 11
4.105585681181485
 21
-10.086323453125379
 31
0.0
  0
LINE
  5
1728
  8
0
 62
     0
 10
4.338390362689978
 20
-10.577759510920661
 30
0.0
 11
4.105585681181485
 21
-10.34495482941217
 31
0.0
  0
LINE
  5
1729
  8
0
 62
     0
 10
4.338390362689978
 20
-10.836390887207459
 30
0.0
 11
4.105585681181485
 21
-10.60358620569896
 31
0.0
  0
LINE
  5
172A
  8
0
 62
     0
 10
4.3331743680063184
 20
-11.08980626881058
 30
0.0
 11
4.105585681181485
 21
-10.862217581985741
 31
0.0
  0
LINE
  5
172B
  8
0
 62
     0
 10
4.2927234683474307
 20
-11.30798674543848
 30
0.0
 11
4.0963826280125364
 21
-11.11164590510359
 31
0.0
  0
LINE
  5
172C
  8
0
 62
     0
 10
4.2225300722551111
 20
-11.496424725632959
 30
0.0
 11
4.044737971761033
 21
-11.31863262513888
 31
0.0
  0
LINE
  5
172D
  8
0
 62
     0
 10
4.1288343457024572
 20
-11.661360375367099
 30
0.0
 11
3.960418835935497
 21
-11.492944865600141
 31
0.0
  0
LINE
  5
172E
  8
0
 62
     0
 10
4.0145495478446014
 20
-11.80570695379603
 30
0.0
 11
3.849766277175481
 21
-11.640923683126911
 31
0.0
  0
LINE
  5
172F
  8
0
 62
     0
 10
3.8807570971702972
 20
-11.93054587940852
 30
0.0
 11
3.7149104705198961
 21
-11.76469925275811
 31
0.0
  0
LINE
  5
1730
  8
0
 62
     0
 10
3.7271431977453031
 20
-12.03556335627032
 30
0.0
 11
3.555244829520197
 21
-11.86366498804521
 31
0.0
  0
LINE
  5
1731
  8
0
 62
     0
 10
2.1267631408982761
 20
-10.69381467571009
 30
0.0
 11
1.9433546960822801
 21
-10.51040623089408
 31
0.0
  0
LINE
  5
1732
  8
0
 62
     0
 10
3.551878254361716
 20
-12.11892978917353
 30
0.0
 11
3.367040741413724
 21
-11.93409227622552
 31
0.0
  0
LINE
  5
1733
  8
0
 62
     0
 10
2.1267631408982761
 20
-10.95244605199688
 30
0.0
 11
1.8939584533982801
 21
-10.719641364496891
 31
0.0
  0
LINE
  5
1734
  8
0
 62
     0
 10
3.3508120748548631
 20
-12.17649498595347
 30
0.0
 11
3.140443698089034
 21
-11.96612660918764
 31
0.0
  0
LINE
  5
1735
  8
0
 62
     0
 10
2.164960234068348
 20
-11.24927452145374
 30
0.0
 11
1.893959103096269
 21
-10.978273390481659
 31
0.0
  0
LINE
  5
1736
  8
0
 62
     0
 10
3.1149140586925621
 20
-12.19922834607795
 30
0.0
 11
2.8439129277204782
 21
-11.928227215105871
 31
0.0
  0
LINE
  5
1737
  8
0
 62
     0
 10
2.8198068968923562
 20
-12.162752560564529
 30
0.0
 11
1.930434888609696
 21
-11.27338055228187
 31
0.0
  0
ENDBLK
  5
1738
  8
0
  0
BLOCK
  8
0
  2
*X28
 70
     1
 10
0.0
 20
0.0
 30
0.0
  3
*X28
  1

  0
LINE
  5
173B
  8
0
 62
     0
 10
3.9891833374314549
 20
-8.6767642279413888
 30
0.0
 11
3.9699999022341181
 21
-8.6575807927440565
 31
0.0
  0
LINE
  5
173C
  8
0
 62
     0
 10
3.9891833374314549
 20
-8.9353956042281784
 30
0.0
 11
3.6073930521298831
 21
-8.5536053189266141
 31
0.0
  0
LINE
  5
173D
  8
0
 62
     0
 10
3.9748178468112911
 20
-9.179661489894805
 30
0.0
 11
3.2447862020256362
 21
-8.4496298451091505
 31
0.0
  0
LINE
  5
173E
  8
0
 62
     0
 10
3.6122095777595682
 20
-9.0756845971298823
 30
0.0
 11
2.882179351921391
 21
-8.3456543712917011
 31
0.0
  0
LINE
  5
173F
  8
0
 62
     0
 10
3.249601308707851
 20
-8.9717077043649454
 30
0.0
 11
2.5195725018171511
 21
-8.2416788974742428
 31
0.0
  0
LINE
  5
1740
  8
0
 62
     0
 10
2.8869930396561161
 20
-8.8677308116000084
 30
0.0
 11
2.156965651712897
 21
-8.1377034236567951
 31
0.0
  0
LINE
  5
1741
  8
0
 62
     0
 10
2.52438477060439
 20
-8.763753918835075
 30
0.0
 11
1.8939584533982801
 21
-8.1333276016289702
 31
0.0
  0
LINE
  5
1742
  8
0
 62
     0
 10
2.1617765015526582
 20
-8.659777026070131
 30
0.0
 11
1.8939584533982901
 21
-8.3919589779157633
 31
0.0
  0
LINE
  5
1743
  8
0
 62
     0
 10
1.918015068738405
 20
-8.674646969542664
 30
0.0
 11
1.8939584533982801
 21
-8.6505903542025422
 31
0.0
  0
ENDBLK
  5
1744
  8
0
  0
BLOCK
  8
0
  2
*X29
 70
     1
 10
0.0
 20
0.0
 30
0.0
  3
*X29
  1

  0
LINE
  5
1747
  8
0
 62
     0
 10
3.868211204180473
 20
-7.0040038369696571
 30
0.0
 11
3.649960323505288
 21
-6.7857529562944654
 31
0.0
  0
LINE
  5
1748
  8
0
 62
     0
 10
3.9856529491582968
 20
-7.380076958234282
 30
0.0
 11
3.2873524678243831
 21
-6.6817764769003682
 31
0.0
  0
LINE
  5
1749
  8
0
 62
     0
 10
3.617185728354428
 20
-7.2702411137172014
 30
0.0
 11
2.924744612143483
 21
-6.5777999975062524
 31
0.0
  0
LINE
  5
174A
  8
0
 62
     0
 10
3.9698966386926511
 20
-7.6229520240554223
 30
0.0
 11
3.6965801245195551
 21
-7.3496355098823214
 31
0.0
  0
LINE
  5
174B
  8
0
 62
     0
 10
3.2412377906756031
 20
-7.1529245523251603
 30
0.0
 11
2.8018861877732841
 21
-6.7135729494228391
 31
0.0
  0
LINE
  5
174C
  8
0
 62
     0
 10
3.8992580266775021
 20
-7.8109447883270624
 30
0.0
 11
3.6959786603753511
 21
-7.6076654220249154
 31
0.0
  0
LINE
  5
174D
  8
0
 62
     0
 10
3.034690875273276
 20
-7.2050090132096241
 30
0.0
 11
2.8018861877732761
 21
-6.9722043257096251
 31
0.0
  0
LINE
  5
174E
  8
0
 62
     0
 10
3.792131315773708
 20
-7.9624494537100619
 30
0.0
 11
3.5455738235496872
 21
-7.7158919614860322
 31
0.0
  0
LINE
  5
174F
  8
0
 62
     0
 10
2.202988506504409
 20
-6.6319380207275582
 30
0.0
 11
2.1787499076577741
 21
-6.6076994218809197
 31
0.0
  0
LINE
  5
1750
  8
0
 62
     0
 10
3.6531656331833751
 20
-8.082115147406526
 30
0.0
 11
3.2290805876554312
 21
-7.658030101878575
 31
0.0
  0
LINE
  5
1751
  8
0
 62
     0
 10
2.2677871082174681
 20
-6.9553679987274011
 30
0.0
 11
1.982121972154764
 21
-6.669702862664697
 31
0.0
  0
LINE
  5
1752
  8
0
 62
     0
 10
3.4804499382598562
 20
-8.168030828769794
 30
0.0
 11
2.8664723785437469
 21
-7.5540532690536812
 31
0.0
  0
LINE
  5
1753
  8
0
 62
     0
 10
2.1576583608831101
 20
-7.1038706276798393
 30
0.0
 11
1.983335797400418
 21
-6.9295480641971441
 31
0.0
  0
LINE
  5
1754
  8
0
 62
     0
 10
3.262962952369413
 20
-8.2091752191661413
 30
0.0
 11
2.503864169432068
 21
-7.4500764362287972
 31
0.0
  0
LINE
  5
1755
  8
0
 62
     0
 10
2.9676848492862362
 20
-8.1725284923697501
 30
0.0
 11
1.912955328823168
 21
-7.1177989719066872
 31
0.0
  0
LINE
  5
1756
  8
0
 62
     0
 10
2.623189712588176
 20
-8.0866647319584857
 30
0.0
 11
1.8976699797883021
 21
-7.3611449991586113
 31
0.0
  0
ENDBLK
  5
1757
  8
0
  0
BLOCK
  8
0
  2
A$C116322F9
 70
     0
 10
0.0
 20
0.0
 30
0.0
  3
A$C116322F9
  1

  0
TEXT
  5
1759
  8
247
 10
-85.710171687376885
 20
-3.570783589693959
 30
0.0
 40
2.0
  1
ST10-CM08-45B-35
 41
0.7
  7
YOKO
 11
-85.710171687376885
 21
-3.570783589693959
 31
0.0
 73
     1
  0
INSERT
  5
175A
  8
247
  6
CONTINUOUS
  2
*X27
 10
-81.710171687376686
 20
0.4708180490717809
 30
0.0
 50
270.0
1001
ACAD
1000
HATCH
1002
{
1070
    19
1000
ANSI31
1040
0.0576
1040
6.2831853071795827
1002
}
  0
INSERT
  5
175B
  8
247
  6
CONTINUOUS
  2
*X28
 10
-81.710171687376686
 20
0.4708180490717809
 30
0.0
 50
270.0
1001
ACAD
1000
HATCH
1002
{
1070
    19
1000
ANSI31
1040
0.0576
1040
6.2831853071795827
1002
}
  0
INSERT
  5
175C
  8
247
  6
CONTINUOUS
  2
*X29
 10
-81.710171687376686
 20
0.4708180490717809
 30
0.0
 50
270.0
1001
ACAD
1000
HATCH
1002
{
1070
    19
1000
ANSI31
1040
0.0576
1040
6.2831853071795827
1002
}
  0
LINE
  5
175D
  8
247
 10
-90.377920214402664
 20
-1.423140404326503
 30
0.0
 11
-89.772459276902666
 21
-1.423140404326503
 31
0.0
  0
POLYLINE
  5
175E
  8
247
 66
     1
 10
0.0
 20
0.0
 30
0.0
 70
     1
1001
HATCH_DISTANCE
1040
1.0
1001
HATCH_DISPLAY
1070
     0
1001
HATCH_TYPE
1070
     7
  0
VERTEX
  5
175F
  8
247
 10
-90.377920214402664
 20
-1.423140404326503
 30
0.0
  0
VERTEX
  5
1760
  8
247
 10
-90.451352831590185
 20
-1.6792185293264881
 30
0.0
  0
VERTEX
  5
1761
  8
247
 10
-90.366582323777664
 20
-1.6792185293264881
 30
0.0
  0
VERTEX
  5
1762
  8
247
 10
-90.89395244096518
 20
-3.5183652883596741
 30
0.0
  0
VERTEX
  5
1763
  8
247
 10
-90.373253222215169
 20
-3.5183652883596741
 30
0.0
  0
VERTEX
  5
1764
  8
247
 10
-89.772459276902666
 20
-1.423140404326503
 30
0.0
  0
SEQEND
  5
1765
  8
247
  0
POLYLINE
  5
1766
  8
247
 66
     1
 10
0.0
 20
0.0
 30
0.0
 70
     1
  0
VERTEX
  5
1767
  8
247
 10
-90.377920214402664
 20
-1.423140404326503
 30
0.0
  0
VERTEX
  5
1768
  8
247
 10
-90.451352831590185
 20
-1.6792185293264881
 30
0.0
  0
VERTEX
  5
1769
  8
247
 10
-90.366582323777664
 20
-1.6792185293264881
 30
0.0
  0
VERTEX
  5
176A
  8
247
 10
-90.89395244096518
 20
-3.5183652883596741
 30
0.0
  0
VERTEX
  5
176B
  8
247
 10
-90.373253222215169
 20
-3.5183652883596741
 30
0.0
  0
VERTEX
  5
176C
  8
247
 10
-89.772459276902666
 20
-1.423140404326503
 30
0.0
  0
SEQEND
  5
176D
  8
247
  0
LINE
  5
176E
  8
247
 10
-90.373253222215169
 20
-3.5183652883596741
 30
0.0
 11
-89.772459276902666
 21
-1.423140404326503
 31
0.0
  0
LINE
  5
176F
  8
247
 10
-92.687184862840184
 20
-3.8675723136181981
 30
0.0
 11
-87.961279589402665
 21
-3.8675723136181981
 31
0.0
  0
LINE
  5
1770
  8
247
 10
-92.687184862840184
 20
-3.6347676321096971
 30
0.0
 11
-87.961279589402665
 21
-3.6347676321096971
 31
0.0
  0
ARC
  5
1771
  8
247
 10
-89.163342089402676
 20
-2.7617585683889989
 30
0.0
 40
0.756615234375
 50
163.99975070172931
 51
304.96387329163082
  0
ARC
  5
1772
  8
247
 10
-92.687184862840184
 20
-2.6453562246390021
 30
0.0
 40
0.9894111328124999
 50
90.0
 51
270.0
  0
ARC
  5
1773
  8
247
 10
-92.687184862840184
 20
-2.6453562246390021
 30
0.0
 40
1.2222158203124971
 50
90.0
 51
270.0
  0
LINE
  5
1774
  8
247
 10
-90.89395244096518
 20
-3.5183652883596741
 30
0.0
 11
-90.373253222215169
 21
-3.5183652883596741
 31
0.0
  0
LINE
  5
1775
  8
247
 10
-91.377825536295859
 20
-3.474729404190342
 30
0.0
 11
-91.060564612976364
 21
-3.157468480870774
 31
0.0
  0
LINE
  5
1776
  8
247
 10
-92.455986925612365
 20
-3.5183652883596741
 30
0.0
 11
-91.793946037279369
 21
-2.8563244000267058
 31
0.0
  0
LINE
  5
1777
  8
247
 10
-92.197355549325664
 20
-3.5183652883596741
 30
0.0
 11
-91.897916837232174
 21
-3.2189265762662691
 31
0.0
  0
LINE
  5
1778
  8
247
 10
-91.680092796752078
 20
-3.5183652883597039
 30
0.0
 11
-91.021933141820355
 21
-2.86020563342798
 31
0.0
  0
LINE
  5
1779
  8
247
 10
-91.718507700087358
 20
-2.5932302885054659
 30
0.0
 11
-91.909291662876456
 21
-3.2585967195646628
 31
0.0
  0
ARC
  5
177A
  8
247
 10
-91.858657519090187
 20
-2.9130798574514789
 30
0.0
 40
0.3492072715759277
 50
261.66285421114719
 51
66.338192159113618
  0
LINE
  5
177B
  8
247
 10
-91.938724173038878
 20
-3.5183652883596741
 30
0.0
 11
-91.084510843228173
 21
-2.6641519585490272
 31
0.0
  0
LINE
  5
177C
  8
247
 10
-92.56502568315257
 20
-3.5183652883596741
 30
0.0
 11
-91.598931933152571
 21
-3.5183652883596741
 31
0.0
  0
LINE
  5
177D
  8
247
 10
-92.504885780936775
 20
-3.3086327673972411
 30
0.0
 11
-91.51986474688438
 21
-2.3236117333448041
 31
0.0
  0
LINE
  5
177E
  8
247
 10
-92.400909623488786
 20
-2.9460252336625521
 30
0.0
 11
-91.585993114617295
 21
-2.1311087247909342
 31
0.0
  0
ARC
  5
177F
  8
247
 10
-91.598931933152571
 20
-2.9363620840140232
 30
0.0
 40
0.5820029296875
 50
270.0
 51
40.329840654167121
  0
LINE
  5
1780
  8
247
 10
-91.517504133602074
 20
-2.8385138726361152
 30
0.0
 11
-90.754127742486659
 21
-2.0751374815207679
 31
0.0
  0
LINE
  5
1781
  8
247
 10
-90.451352831590185
 20
-1.6792185293264881
 30
0.0
 11
-90.377920214402664
 21
-1.423140404326503
 31
0.0
  0
LINE
  5
1782
  8
247
 10
-90.451352831590185
 20
-1.6792185293264881
 30
0.0
 11
-90.366582323777664
 21
-1.6792185293264881
 31
0.0
  0
LINE
  5
1783
  8
247
 10
-91.402102089357982
 20
-1.688586323244877
 30
0.0
 11
-91.162004184998764
 21
-1.448488418885703
 31
0.0
  0
LINE
  5
1784
  8
247
 10
-92.145354986799987
 20
-1.655945091826551
 30
0.0
 11
-91.912550299299966
 21
-1.4231404043265581
 31
0.0
  0
LINE
  5
1785
  8
247
 10
-92.206414355027675
 20
-1.423140404326503
 30
0.0
 11
-92.273167284715072
 21
-1.655945091826494
 31
0.0
  0
LINE
  5
1786
  8
247
 10
-92.085327440964974
 20
-1.423140404326503
 30
0.0
 11
-92.152080370652968
 21
-1.655945091826494
 31
0.0
  0
LINE
  5
1787
  8
247
 10
-92.085327440964974
 20
-1.423140404326503
 30
0.0
 11
-91.334310319287255
 21
-1.4231404043265861
 31
0.0
  0
LINE
  5
1788
  8
247
 10
-92.687184862840184
 20
-1.423140404326503
 30
0.0
 11
-92.206414355027675
 21
-1.423140404326503
 31
0.0
  0
LINE
  5
1789
  8
247
 10
-91.279734125596079
 20
-1.824849735769831
 30
0.0
 11
-90.989443885434994
 21
-1.5345594956086881
 31
0.0
  0
LINE
  5
178A
  8
247
 10
-92.152080370652968
 20
-1.655945091826494
 30
0.0
 11
-92.030984667527974
 21
-1.655945091827232
 31
0.0
  0
LINE
  5
178B
  8
247
 10
-92.687184862840184
 20
-1.655945091826494
 30
0.0
 11
-92.273167284715072
 21
-1.655945091826494
 31
0.0
  0
LINE
  5
178C
  8
247
 10
-92.088981151145049
 20
-1.8582026324583709
 30
0.0
 11
-91.653918923013265
 21
-1.4231404043265581
 31
0.0
  0
LINE
  5
178D
  8
247
 10
-91.249895174446877
 20
-2.0536421609073869
 30
0.0
 11
-90.860319004796281
 21
-1.6640659912566631
 31
0.0
  0
ARC
  5
178E
  8
247
 10
-91.331911425340181
 20
-2.0051433340139919
 30
0.0
 40
0.5820078735351563
 50
287.66957754739968
 51
90.236159842671626
  0
LINE
  5
178F
  8
247
 10
-92.192957308592995
 20
-2.2208101661931181
 30
0.0
 11
-91.395287546726479
 21
-1.4231404043265861
 31
0.0
  0
LINE
  5
1790
  8
247
 10
-91.607784722262579
 20
-2.6701630850099458
 30
0.0
 11
-90.774698098826065
 21
-1.8370764615733171
 31
0.0
  0
LINE
  5
1791
  8
247
 10
-90.89395244096518
 20
-3.5183652883596741
 30
0.0
 11
-90.366582323777664
 21
-1.6792185293264881
 31
0.0
  0
LINE
  5
1792
  8
247
 10
-91.451489970841465
 20
-1.66203001777221
 30
0.0
 11
-91.642270795044865
 21
-2.3273767139837509
 31
0.0
  0
ARC
  5
1793
  8
247
 10
-91.591637011277584
 20
-1.9818698965140269
 30
0.0
 40
0.349197280883789
 50
261.6626016879294
 51
66.338155095189762
  0
LINE
  5
1794
  8
247
 10
-92.296933466040997
 20
-2.5834176999278071
 30
0.0
 11
-91.482020389136366
 21
-1.768504623023331
 31
0.0
  0
LINE
  5
1795
  8
247
 10
-92.56502568315257
 20
-3.5183652883596741
 30
0.0
 11
-92.030984667527974
 21
-1.655945091827232
 31
0.0
  0
ARC
  5
1796
  8
247
 10
-87.961279589402665
 20
-2.6453562246390021
 30
0.0
 40
1.2222158203124971
 50
270.0
 51
104.7707939660941
  0
ARC
  5
1797
  8
247
 10
-87.961279589402665
 20
-2.6453562246390021
 30
0.0
 40
0.9894111328124999
 50
270.0
 51
104.1274364964102
  0
LINE
  5
1798
  8
247
 10
-88.95336259721519
 20
-3.0852136465139921
 30
0.0
 11
-88.803869433152556
 21
-2.5638728262014898
 31
0.0
  0
LINE
  5
1799
  8
247
 10
-88.997615526902678
 20
-2.5638728262014898
 30
0.0
 11
-88.803869433152556
 21
-2.5638728262014898
 31
0.0
  0
LINE
  5
179A
  8
247
 10
-88.729760058152664
 20
-3.3818096242972171
 30
0.0
 11
-88.593195605027674
 21
-3.5183652883596741
 31
0.0
  0
LINE
  5
179B
  8
247
 10
-88.997615526902678
 20
-2.5638728262014898
 30
0.0
 11
-88.930862597215196
 21
-2.3310681387014949
 31
0.0
  0
LINE
  5
179C
  8
247
 10
-88.930862597215196
 20
-2.3310681387014949
 30
0.0
 11
-88.252742480027678
 21
-2.3310681387014949
 31
0.0
  0
LINE
  5
179D
  8
247
 10
-88.593195605027674
 20
-3.5183652883596741
 30
0.0
 11
-88.252742480027678
 21
-2.3310681387014949
 31
0.0
  0
POLYLINE
  5
179E
  8
247
 66
     1
 10
0.0
 20
0.0
 30
0.0
 70
     1
1001
HATCH_DISTANCE
1040
1.0
1001
HATCH_DISPLAY
1070
     0
1001
HATCH_TYPE
1070
     7
  0
VERTEX
  5
179F
  8
247
 10
-88.202776659715184
 20
-1.6858630605764959
 30
0.0
  0
VERTEX
  5
17A0
  8
247
 10
-88.272887011277675
 20
-1.463526146514013
 30
0.0
  0
VERTEX
  5
17A1
  8
247
 10
-88.272887011277675
 20
-1.463526146514013
 30
0.0
  0
VERTEX
  5
17A2
  8
247
 10
-88.202776659715184
 20
-1.6858630605764959
 30
0.0
  0
SEQEND
  5
17A3
  8
247
  0
POLYLINE
  5
17A4
  8
247
 66
     1
 10
0.0
 20
0.0
 30
0.0
 70
     1
  0
VERTEX
  5
17A5
  8
247
 10
-88.202776659715184
 20
-1.6858630605764959
 30
0.0
  0
VERTEX
  5
17A6
  8
247
 10
-88.272887011277675
 20
-1.463526146514013
 30
0.0
  0
VERTEX
  5
17A7
  8
247
 10
-88.272887011277675
 20
-1.463526146514013
 30
0.0
  0
VERTEX
  5
17A8
  8
247
 10
-88.202776659715184
 20
-1.6858630605764959
 30
0.0
  0
SEQEND
  5
17A9
  8
247
  0
LINE
  5
17AA
  8
247
 10
-88.202776659715184
 20
-1.6858630605764959
 30
0.0
 11
-88.272887011277675
 21
-1.463526146514013
 31
0.0
  0
POLYLINE
  5
17AB
  8
247
 66
     1
 10
0.0
 20
0.0
 30
0.0
 70
     1
1001
HATCH_DISTANCE
1040
1.0
1001
HATCH_DISPLAY
1070
     0
1001
HATCH_TYPE
1070
     7
  0
VERTEX
  5
17AC
  8
247
 10
-88.202776659715184
 20
-1.6858630605764959
 30
0.0
  0
VERTEX
  5
17AD
  8
247
 10
-88.272887011277675
 20
-1.463526146514013
 30
0.0
  0
VERTEX
  5
17AE
  8
247
 10
-88.272887011277675
 20
-1.463526146514013
 30
0.0
  0
VERTEX
  5
17AF
  8
247
 10
-88.202776659715184
 20
-1.6858630605764959
 30
0.0
  0
SEQEND
  5
17B0
  8
247
  0
POLYLINE
  5
17B1
  8
247
 66
     1
 10
0.0
 20
0.0
 30
0.0
 70
     1
  0
VERTEX
  5
17B2
  8
247
 10
-88.202776659715184
 20
-1.6858630605764959
 30
0.0
  0
VERTEX
  5
17B3
  8
247
 10
-88.272887011277675
 20
-1.463526146514013
 30
0.0
  0
VERTEX
  5
17B4
  8
247
 10
-88.272887011277675
 20
-1.463526146514013
 30
0.0
  0
VERTEX
  5
17B5
  8
247
 10
-88.202776659715184
 20
-1.6858630605764959
 30
0.0
  0
SEQEND
  5
17B6
  8
247
  0
LINE
  5
17B7
  8
247
 10
-88.313791308152688
 20
-1.720869896514003
 30
0.0
 11
-88.383901659715164
 21
-1.4985329824514639
 31
0.0
  0
ARC
  5
17B8
  8
247
 10
-87.961279589402665
 20
-2.6453562246390021
 30
0.0
 40
1.222216369628905
 50
110.22964506332001
 51
118.57168892371681
  0
ARC
  5
17B9
  8
247
 10
-88.874586230027688
 20
-1.923668724638999
 30
0.0
 40
0.2444448051452637
 50
1.7101213820626899
 51
163.99839835444729
  0
ARC
  5
17BA
  8
247
 10
-87.961279589402665
 20
-2.6453562246390021
 30
0.0
 40
0.9894138793945311
 50
110.8721834020737
 51
132.5419489373879
  0
ARC
  5
17BB
  8
247
 10
-87.926316698777555
 20
-2.8015378652639948
 30
0.0
 40
1.9799648437499999
 50
155.20517736984129
 51
172.79482596205219
  0
ARC
  5
17BC
  8
247
 10
-89.188338183152695
 20
-3.0178366933890128
 30
0.0
 40
0.2444446334838867
 50
164.00027305718169
 51
344.00027305718208
  0
LINE
  5
17BD
  8
247
 10
-89.423313769090186
 20
-2.9504597402640078
 30
0.0
 11
-89.109561815965165
 21
-1.8562829824515039
 31
0.0
  0
ARC
  5
17BE
  8
247
 10
-88.996455370652569
 20
-2.1797468496389869
 30
0.0
 40
0.7566075439453125
 50
53.444012197057539
 51
164.0001843876851
  0
LINE
  5
17BF
  8
240
 10
-0.3554841181569657
 20
0.2458108096552086
 30
0.0
 11
-0.149908169683556
 21
0.2989763648095758
 31
0.0
  0
LINE
  5
17C0
  8
241
 10
-3.8284174687598092
 20
3.1500000000000639
 30
0.0
 11
-4.1448486772308106
 21
2.8279972628928789
 31
0.0
  0
LINE
  5
17C1
  8
241
 10
-38.034163774597317
 20
-3.7999999999999541
 30
0.0
 11
-38.034163774597317
 21
-3.1826690433735791
 31
0.0
  0
ARC
  5
17C2
  8
241
 10
-28.02785576258518
 20
-2.815960696054141
 30
0.0
 40
10.013025269280609
 50
166.17761020989059
 51
182.09882025633601
  0
ARC
  5
17C3
  8
241
 10
-36.082633869877732
 20
-1.048229044017267
 30
0.0
 40
1.781339393733846
 50
84.530482714012635
 51
159.4769430919896
  0
CIRCLE
  5
17C4
  8
246
 10
-2.4054841179678732
 20
1.765951881242865
 30
0.0
 40
1.985000000242519
  0
ARC
  5
17C5
  8
241
 10
19.671977727265109
 20
3.4545250089794362
 30
0.0
 40
20.80603520959184
 50
189.2384377328535
 51
194.3439248055052
  0
ARC
  5
17C6
  8
240
 10
-0.808769648914037
 20
2.6878154100331288
 30
0.0
 40
0.2
 50
15.500000000000149
 51
44.499999966534617
1001
GENIUS_GENODEF_13
1002
{
1000
HIER
1070
     0
1002
}
1002
{
1000
MANEDIT
1070
     0
1002
}
1002
{
1000
NOSEL
1070
     0
1002
}
1002
{
1000
BEHIND
1070
     0
1002
}
1002
{
1000
OTHER
1070
     0
1002
}
1002
{
1000
REACTOR
1002
}
1001
GENIUS_GENOBJ-N-FIL_13
1002
{
1000
OWNER
1000
GEN
1002
}
  0
ARC
  5
17C7
  8
240
 10
-0.1999841704578102
 20
0.4926058928946729
 30
0.0
 40
0.2
 50
284.49999998915843
 51
15.50000000000048
1001
GENIUS_GENODEF_13
1002
{
1000
HIER
1070
     0
1002
}
1002
{
1000
MANEDIT
1070
     0
1002
}
1002
{
1000
NOSEL
1070
     0
1002
}
1002
{
1000
BEHIND
1070
     0
1002
}
1002
{
1000
OTHER
1070
     0
1002
}
1002
{
1000
REACTOR
1002
}
1001
GENIUS_GENOBJ-N-FIL_13
1002
{
1000
OWNER
1000
GEN
1002
}
  0
ARC
  5
17C8
  8
241
 10
-2.4054841198790622
 20
-0.0777751758764542
 30
0.0
 40
0.2
 50
255.50000000000099
 51
284.49999999999937
1001
GENIUS_GENOBJ-N-FIL_13
1002
{
1000
OWNER
1000
GEN
1002
}
1001
GENIUS_GENODEF_13
1002
{
1000
HIER
1070
     0
1002
}
1002
{
1000
MANEDIT
1070
     0
1002
}
1002
{
1000
NOSEL
1070
     0
1002
}
1002
{
1000
BEHIND
1070
     0
1002
}
1002
{
1000
OTHER
1070
     0
1002
}
1002
{
1000
REACTOR
1002
}
  0
ARC
  5
17C9
  8
241
 10
-4.6109840658561856
 20
0.4926058928945225
 30
0.0
 40
0.2
 50
164.49999999999949
 51
255.50000000000099
1001
GENIUS_GENODEF_13
1002
{
1000
HIER
1070
     0
1002
}
1002
{
1000
MANEDIT
1070
     0
1002
}
1002
{
1000
NOSEL
1070
     0
1002
}
1002
{
1000
BEHIND
1070
     0
1002
}
1002
{
1000
OTHER
1070
     0
1002
}
1002
{
1000
REACTOR
1002
}
1001
GENIUS_GENOBJ-N-FIL_13
1002
{
1000
OWNER
1000
GEN
1002
}
  0
ARC
  5
17CA
  8
241
 10
-4.002198587399973
 20
2.6878154100329081
 30
0.0
 40
0.2
 50
135.49999999999969
 51
164.49999999999949
1001
GENIUS_GENODEF_13
1002
{
1000
HIER
1070
     0
1002
}
1002
{
1000
MANEDIT
1070
     0
1002
}
1002
{
1000
NOSEL
1070
     0
1002
}
1002
{
1000
BEHIND
1070
     0
1002
}
1002
{
1000
OTHER
1070
     0
1002
}
1002
{
1000
REACTOR
1002
}
1001
GENIUS_GENOBJ-N-FIL_13
1002
{
1000
OWNER
1000
GEN
1002
}
  0
ARC
  5
17CB
  8
240
 10
-2.4054841162913041
 20
4.3126438584001097
 30
0.0
 40
0.2
 50
44.500000000000313
 51
135.49999999999969
1001
GENIUS_GENODEF_13
1002
{
1000
HIER
1070
     0
1002
}
1002
{
1000
MANEDIT
1070
     0
1002
}
1002
{
1000
NOSEL
1070
     0
1002
}
1002
{
1000
BEHIND
1070
     0
1002
}
1002
{
1000
OTHER
1070
     0
1002
}
1002
{
1000
REACTOR
1002
}
1001
GENIUS_GENOBJ-N-FIL_13
1002
{
1000
OWNER
1000
GEN
1002
}
  0
LINE
  5
17CC
  8
245
 10
-98.978575481205255
 20
0.0000000000000279
 30
0.0
 11
1.9045226540711999
 21
-0.0000000000000006
 31
0.0
  0
LINE
  5
17CD
  8
240
 10
-95.955484118156974
 20
-4.9999999999999716
 30
0.0
 11
-39.00548411815695
 21
-4.9999999999999716
 31
0.0
  0
LINE
  5
17CE
  8
240
 10
-39.00548411815695
 20
5.0000000000000844
 30
0.0
 11
-95.955484118156974
 21
5.0000000000000844
 31
0.0
  0
LINE
  5
17CF
  8
240
 10
-96.955484118157003
 20
-3.9999999999999711
 30
0.0
 11
-96.955484118157003
 21
0.0000000000000279
 31
0.0
  0
ARC
  5
17D0
  8
240
 10
-95.955484118156974
 20
-4.0
 30
0.0
 40
1.0
 50
180.0
 51
270.0
  0
ARC
  5
17D1
  8
240
 10
-95.955484118156974
 20
4.0000000000000551
 30
0.0
 40
1.0
 50
90.0
 51
180.0
  0
LINE
  5
17D2
  8
240
 10
-96.955484118157003
 20
0.0000000000000279
 30
0.0
 11
-96.955484118157003
 21
4.0000000000000844
 31
0.0
  0
LINE
  5
17D3
  8
240
 10
-38.034163774597317
 20
4.028679656440401
 30
0.0
 11
-39.00548411815695
 21
5.0000000000000844
 31
0.0
  0
LINE
  5
17D4
  8
240
 10
-39.00548411815695
 20
-4.9999999999999716
 30
0.0
 11
-38.034163774597317
 21
-4.028679656440346
 31
0.0
  0
LINE
  5
17D5
  8
241
 10
-39.00548411815695
 20
-4.9999999999999716
 30
0.0
 11
-39.00548411815695
 21
0.0000000000000279
 31
0.0
  0
LINE
  5
17D6
  8
241
 10
-39.00548411815695
 20
0.0000000000000279
 30
0.0
 11
-39.00548411815695
 21
5.0000000000000844
 31
0.0
  0
ARC
  5
17D7
  8
240
 10
-35.934163774597323
 20
-3.7999999999999541
 30
0.0
 40
2.0999999999999939
 50
90.0
 51
180.0
  0
LINE
  5
17D8
  8
240
 10
-38.034163774597317
 20
-4.028679656440346
 30
0.0
 11
-38.034163774597317
 21
-3.7999999999999541
 31
0.0
  0
LINE
  5
17D9
  8
245
 10
1.9045226540711999
 20
1.449999999999988
 30
0.0
 11
-38.420179805713047
 21
1.4500000000000159
 31
0.0
  0
LINE
  5
17DA
  8
240
 10
-35.934163774597323
 20
-1.69999999999996
 30
0.0
 11
-0.485451996650113
 21
-1.69999999999996
 31
0.0
  0
LINE
  5
17DB
  8
240
 10
-3.8284174687598229
 20
3.1500000000000621
 30
0.0
 11
-35.912843431037693
 21
3.1500000000000621
 31
0.0
  0
LINE
  5
17DC
  8
241
 10
-4.7540839188629027
 20
0.7250000000000508
 30
0.0
 11
-35.912843431037693
 21
0.7250000000000507
 31
0.0
  0
ARC
  5
17DD
  8
240
 10
-35.912843431037693
 20
6.1500000000000332
 30
0.0
 40
3.0
 50
225.0
 51
270.0
  0
LINE
  5
17DE
  8
241
 10
-37.155484118157027
 20
3.419460836626711
 30
0.0
 11
-37.155484118157027
 21
0.4316485808566024
 31
0.0
  0
LINE
  5
17DF
  8
240
 10
-2.5475913813287709
 20
4.4533780956814137
 30
0.0
 11
-3.8284174687598092
 21
3.1500000000000639
 31
0.0
  0
LINE
  5
17E0
  8
240
 10
-0.6661195590013165
 20
2.82799726280978
 30
0.0
 11
-2.2628340264604669
 21
4.4528257112600809
 31
0.0
  0
LINE
  5
17E1
  8
241
 10
-2.3554081190681719
 20
-0.2714047039520762
 30
0.0
 11
-0.3554841181569657
 21
0.2458108096552086
 31
0.0
  0
LINE
  5
17E2
  8
241
 10
-4.0244960777473011
 20
3.1500000000000621
 30
0.0
 11
-4.0251445149796723
 21
3.1476618108772798
 31
0.0
  0
LINE
  5
17E3
  8
241
 10
-4.6610600666670763
 20
0.2989763648189001
 30
0.0
 11
-2.455560120689952
 21
-0.2714047039520766
 31
0.0
  0
LINE
  5
17E4
  8
241
 10
-4.1948720792231589
 20
2.7414527504608648
 30
0.0
 11
-4.803710156497913
 21
0.5460535681101755
 31
0.0
  0
LINE
  5
17E5
  8
240
 10
-0.3554841181569657
 20
-1.2999999999999829
 30
0.0
 11
-0.3554841181569799
 21
0.245810809655207
 31
0.0
  0
LINE
  5
17E6
  8
240
 10
-0.4854519966501414
 20
-1.69999999999996
 30
0.0
 11
-0.3554841181569657
 21
-1.2999999999999829
 31
0.0
  0
LINE
  5
17E7
  8
240
 10
-0.0072580798160828
 20
0.5460535681103258
 30
0.0
 11
-0.6160435582723096
 21
2.7412630852487809
 31
0.0
  0
ENDBLK
  5
17EA
  8
0
  0
BLOCK
  8
0
  2
*U31
 70
     1
 10
0.0
 20
0.0
 30
0.0
  3
*U31
  1

  0
TEXT
  5
1804
  8
250
 62
    40
 10
119.94211206958759
 20
88.000000000000114
 30
0.0
 40
3.0
  1
97
  0
ENDBLK
  5
1806
  8
0
  0
BLOCK
  8
0
  2
*U32
 70
     1
 10
0.0
 20
0.0
 30
0.0
  3
*U32
  1

  0
TEXT
  5
1808
  8
250
 62
    40
 10
99.221512867651967
 20
95.000000000000114
 30
0.0
 40
3.0
  1
59.8
  0
ENDBLK
  5
180A
  8
0
  0
BLOCK
  8
0
  2
*U33
 70
     1
 10
0.0
 20
0.0
 30
0.0
  3
*U33
  1

  0
TEXT
  5
180C
  8
250
 62
    40
 10
147.6992549267305
 20
95.000000000000114
 30
0.0
 40
3.0
  1
37.2
  0
ENDBLK
  5
180E
  8
0
  0
BLOCK
  8
0
  2
*U34
 70
     1
 10
0.0
 20
0.0
 30
0.0
  3
*U34
  1

  0
TEXT
  5
1810
  8
250
 62
    40
 10
61.999999999999979
 20
113.77536757771649
 30
0.0
 40
3.0
  1
\U+2205
 50
90.0
  0
TEXT
  5
1811
  8
250
 62
    40
 10
61.999999999999979
 20
116.4896532920022
 30
0.0
 40
3.0
  1
10
 50
90.0
  0
ENDBLK
  5
1813
  8
0
  0
BLOCK
  8
0
  2
*U35
 70
     1
 10
0.0
 20
0.0
 30
0.0
  3
*U35
  1

  0
TEXT
  5
1815
  8
250
 62
    40
 10
190.00000253324731
 20
113.0610818634308
 30
0.0
 40
3.0
  1
\U+2205
 50
90.0
  0
TEXT
  5
1816
  8
250
 62
    40
 10
190.00000253324731
 20
115.77536757771649
 30
0.0
 40
3.0
  1
9.2
 50
90.0
  0
ENDBLK
  5
1818
  8
0
  0
BLOCK
  8
0
  2
*U36
 70
     1
 10
0.0
 20
0.0
 30
0.0
  3
*U36
  1

  0
TEXT
  5
181A
  8
250
 62
    40
 10
155.1481121615634
 20
127.6210818634307
 30
0.0
 40
3.0
  1
\U+2205
 50
90.0
  0
TEXT
  5
181B
  8
250
 62
    40
 10
155.1481121615634
 20
130.3353675777164
 30
0.0
 40
3.0
  1
6.3
 50
90.0
  0
ENDBLK
  5
181D
  8
0
  0
BLOCK
  8
0
  2
*U37
 70
     1
 10
0.0
 20
0.0
 30
0.0
  3
*U37
  1

  0
TEXT
  5
181F
  8
250
 62
    40
 10
147.75013683308271
 20
99.951081697151707
 30
0.0
 40
3.0
  1
\U+2205
 50
90.0
  0
TEXT
  5
1820
  8
250
 62
    40
 10
147.75013683308271
 20
102.6653674114374
 30
0.0
 40
3.0
  1
6.3
 50
90.0
  0
ENDBLK
  5
1822
  8
0
  0
BLOCK
  8
0
  2
*U38
 70
     1
 10
0.0
 20
0.0
 30
0.0
  3
*U38
  1

  0
TEXT
  5
1824
  8
250
 62
    40
 10
165.11970967257921
 20
127.7048422564187
 30
0.0
 40
3.0
  1
45üï
 50
9.0285333698249364
  0
ENDBLK
  5
1826
  8
0
  0
BLOCK
  8
0
  2
*U39
 70
     1
 10
0.0
 20
0.0
 30
0.0
  3
*U39
  1

  0
TEXT
  5
1828
  8
250
 62
    40
 10
183.0
 20
102.8153675777164
 30
0.0
 40
3.0
  1
1.45
 50
90.0
  0
ENDBLK
  5
182A
  8
0
  0
BLOCK
  8
0
  2
*U40
 70
     1
 10
0.0
 20
0.0
 30
0.0
  3
*U40
  1

  0
TEXT
  5
182C
  8
240
 62
    40
 10
-14.155346528091171
 20
16.490289836071749
 30
0.0
 40
3.0
  1
ü£ST10-CM08-45B-35
  7
YOKO
  0
ENDBLK
  5
182E
  8
0
  0
BLOCK
  8
0
  2
*U41
 70
     1
 10
0.0
 20
0.0
 30
0.0
  3
*U41
  1

  0
TEXT
  5
1830
  8
250
 62
    40
 10
80.826599293911386
 20
9.9980952380951837
 30
0.0
 40
3.0
  1
\U+2205
 50
90.0
  0
TEXT
  5
1831
  8
250
 62
    40
 10
80.726599293911391
 20
12.712380952380901
 30
0.0
 40
2.7999999999999989
  1
6.3
 50
90.0
  0
ENDBLK
  5
1833
  8
0
  0
BLOCK
  8
0
  2
*U42
 70
     1
 10
0.0
 20
0.0
 30
0.0
  3
*U42
  1

  0
TEXT
  5
1835
  8
250
 62
    40
 10
73.428623965430774
 20
-17.671904928183821
 30
0.0
 40
3.0
  1
\U+2205
 50
90.0
  0
TEXT
  5
1836
  8
250
 62
    40
 10
73.328623965430765
 20
-14.957619213898109
 30
0.0
 40
2.7999999999999989
  1
6.3
 50
90.0
  0
ENDBLK
  5
1838
  8
0
  0
BLOCK
  8
0
  2
*U43
 70
     1
 10
0.0
 20
0.0
 30
0.0
  3
*U43
  1

  0
TEXT
  5
183A
  8
250
 62
    40
 10
-12.32151286765199
 20
-3.8952380952380921
 30
0.0
 40
3.0
  1
\U+2205
 50
90.0
  0
TEXT
  5
183B
  8
250
 62
    40
 10
-12.421512867651989
 20
-1.1809523809523781
 30
0.0
 40
2.7999999999999989
  1
10
 50
90.0
  0
ENDBLK
  5
183D
  8
0
  0
BLOCK
  8
0
  2
*U44
 70
     1
 10
0.0
 20
0.0
 30
0.0
  3
*U44
  1

  0
TEXT
  5
183F
  8
250
 62
    40
 10
91.118935011522566
 20
9.9090097964514641
 30
0.0
 40
2.7999999999999989
  1
45üï
 50
9.0285333698246202
  0
ENDBLK
  5
1841
  8
0
  0
BLOCK
  8
0
  2
*U45
 70
     1
 10
0.0
 20
0.0
 30
0.0
  3
*U45
  1

  0
TEXT
  5
1843
  8
250
 62
    40
 10
45.81107539241183
 20
-29.84679614914495
 30
0.0
 40
2.7999999999999989
  1
97
  0
ENDBLK
  5
1845
  8
0
  0
BLOCK
  8
0
  2
*U46
 70
     1
 10
0.0
 20
0.0
 30
0.0
  3
*U46
  1

  0
TEXT
  5
1847
  8
250
 62
    40
 10
73.7110753924118
 20
-22.84679614914495
 30
0.0
 40
2.7999999999999989
  1
37.2
  0
ENDBLK
  5
1849
  8
0
  0
BLOCK
  8
0
  2
*U47
 70
     1
 10
0.0
 20
0.0
 30
0.0
  3
*U47
  1

  0
TEXT
  5
184B
  8
250
 62
    40
 10
25.23333333333332
 20
-22.84679614914495
 30
0.0
 40
2.7999999999999989
  1
59.8
  0
ENDBLK
  5
184D
  8
0
  0
BLOCK
  8
0
  2
*U48
 70
     1
 10
0.0
 20
0.0
 30
0.0
  3
*U48
  1

  0
TEXT
  5
184F
  8
250
 62
    40
 10
113.2457524197537
 20
-4.561904761904775
 30
0.0
 40
3.0
  1
\U+2205
 50
90.0
  0
TEXT
  5
1850
  8
250
 62
    40
 10
113.14575241975371
 20
-1.8476190476190619
 30
0.0
 40
2.7999999999999989
  1
9.2
 50
90.0
  0
ENDBLK
  5
1852
  8
0
  0
BLOCK
  8
0
  2
*U49
 70
     1
 10
0.0
 20
0.0
 30
0.0
  3
*U49
  1

  0
TEXT
  5
1854
  8
250
 62
    40
 10
106.2457498865063
 20
-14.683809523809529
 30
0.0
 40
2.7999999999999989
  1
1.45
 50
90.0
  0
ENDBLK
  5
1856
  8
0
  0
ENDSEC
  0
SECTION
  2
ENTITIES
  0
TEXT
  5
153E
  8
241
 10
-96.955484118157003
 20
21.000000000000028
 30
0.0
 40
3.0
  1
ST10-CM08-45B-35
  7
YOKO
1001
ITEMNAME
1000
DI010
  0
LINE
  5
156E
  8
250
 10
-37.155484118157027
 20
-0.0683514170519578
 30
0.0
 11
-37.155484118157027
 21
-24.846796149144922
 31
0.0
  0
LINE
  5
156F
  8
250
 10
0.0
 20
0.2660674455422333
 30
0.0
 11
0.0
 21
-24.846796149144922
 31
0.0
  0
LINE
  5
1570
  8
250
 10
-34.925484118157037
 20
-23.846796149144922
 30
0.0
 11
-2.2300000000000031
 21
-23.846796149144922
 31
0.0
  0
LINE
  5
1574
  8
250
 10
-96.955484118157003
 20
-4.4999999999999716
 30
0.0
 11
-96.955484118157003
 21
-31.846796149144922
 31
0.0
  0
LINE
  5
1575
  8
250
 10
0.0
 20
0.2660674455422333
 30
0.0
 11
0.0
 21
-31.846796149144922
 31
0.0
  0
LINE
  5
1576
  8
250
 10
-94.725484118156984
 20
-30.846796149144922
 30
0.0
 11
-2.2300000000000031
 21
-30.846796149144922
 31
0.0
  0
LINE
  5
157A
  8
250
 10
-0.0000000000000142
 20
2.6501490749664312
 30
0.0
 11
-0.0000000000000142
 21
10.728788092420229
 31
0.0
  0
LINE
  5
157B
  8
250
 10
-2.6138314871351152
 20
4.8100033202585104
 30
0.0
 11
-6.0128475624174618
 21
8.2688672072970206
 31
0.0
  0
ARC
  5
157C
  8
250
 10
-0.0000000000000142
 20
2.1501490749664312
 30
0.0
 40
7.5786390174538028
 50
106.9205942624813
 51
117.5794057375178
  0
LINE
  5
1580
  8
250
 10
-96.455484118156988
 20
-4.9999999999999716
 30
0.0
 11
-109.27699698580891
 21
-4.999999999999968
 31
0.0
  0
LINE
  5
1581
  8
250
 10
-96.455484118156988
 20
5.0000000000000266
 30
0.0
 11
-109.27699698580891
 21
5.0000000000000311
 31
0.0
  0
LINE
  5
1582
  8
250
 10
-108.27699698580891
 20
-2.769999999999968
 30
0.0
 11
-108.27699698580891
 21
2.7700000000000311
 31
0.0
  0
LINE
  5
1586
  8
250
 10
-1.905484118156977
 20
4.5999999999999934
 30
0.0
 11
18.290268301596711
 21
4.5999999999999881
 31
0.0
  0
LINE
  5
1587
  8
250
 10
17.290268301596711
 20
2.369999999999989
 30
0.0
 11
17.290268301596711
 21
-5.2761904761904814
 31
0.0
  0
LINE
  5
158A
  8
250
 10
2.4045226540711999
 20
-0.0000000000000007
 30
0.0
 11
11.29026576834937
 21
-0.0000000000000032
 31
0.0
  0
LINE
  5
158B
  8
250
 10
2.4045226540711999
 20
1.449999999999988
 30
0.0
 11
11.29026576834937
 21
1.4499999999999851
 31
0.0
  0
LINE
  5
158C
  8
250
 10
10.29026576834937
 20
3.6799999999999851
 30
0.0
 11
10.29026576834937
 21
5.909999999999985
 31
0.0
  0
LINE
  5
158D
  8
250
 10
10.29026576834937
 20
-2.2300000000000031
 30
0.0
 11
10.29026576834937
 21
-14.88380952380952
 31
0.0
  0
LINE
  5
158E
  8
250
 10
10.29026576834937
 20
1.4499999999999851
 30
0.0
 11
10.29026576834937
 21
-0.0000000000000029
 31
0.0
  0
TEXT
  5
1592
  8
250
 10
-51.144408725745151
 20
-29.846796149144922
 30
0.0
 40
2.7999999999999989
  1
97
  0
LINE
  5
1593
  8
250
 10
-2.2300000000000031
 20
-30.475129482478259
 30
0.0
 11
0.0
 21
-30.846796149144922
 31
0.0
  0
LINE
  5
1594
  8
250
 10
-2.2300000000000031
 20
-31.218462815811591
 30
0.0
 11
0.0
 21
-30.846796149144922
 31
0.0
  0
LINE
  5
1595
  8
250
 10
0.0
 20
-30.846796149144922
 30
0.0
 11
-2.2300000000000031
 21
-30.846796149144922
 31
0.0
  0
LINE
  5
1596
  8
250
 10
-94.725484118156984
 20
-31.218462815811591
 30
0.0
 11
-96.955484118157003
 21
-30.846796149144922
 31
0.0
  0
LINE
  5
1597
  8
250
 10
-94.725484118156984
 20
-30.475129482478259
 30
0.0
 11
-96.955484118157003
 21
-30.846796149144922
 31
0.0
  0
LINE
  5
1598
  8
250
 10
-96.955484118157003
 20
-30.846796149144922
 30
0.0
 11
-94.725484118156984
 21
-30.846796149144922
 31
0.0
  0
TEXT
  5
1599
  8
250
 10
-23.244408725745188
 20
-22.846796149144922
 30
0.0
 40
2.7999999999999989
  1
37.2
  0
LINE
  5
159A
  8
250
 10
-2.2300000000000031
 20
-23.475129482478259
 30
0.0
 11
0.0
 21
-23.846796149144922
 31
0.0
  0
LINE
  5
159B
  8
250
 10
-2.2300000000000031
 20
-24.218462815811591
 30
0.0
 11
0.0
 21
-23.846796149144922
 31
0.0
  0
LINE
  5
159C
  8
250
 10
0.0
 20
-23.846796149144922
 30
0.0
 11
-2.2300000000000031
 21
-23.846796149144922
 31
0.0
  0
LINE
  5
159D
  8
250
 10
-34.925484118157037
 20
-24.218462815811591
 30
0.0
 11
-37.155484118157027
 21
-23.846796149144922
 31
0.0
  0
LINE
  5
159E
  8
250
 10
-34.925484118157037
 20
-23.475129482478259
 30
0.0
 11
-37.155484118157027
 21
-23.846796149144922
 31
0.0
  0
LINE
  5
159F
  8
250
 10
-37.155484118157027
 20
-23.846796149144922
 30
0.0
 11
-34.925484118157037
 21
-23.846796149144922
 31
0.0
  0
TEXT
  5
15A0
  8
250
 10
-109.27699698580891
 20
-3.895238095238065
 30
0.0
 40
3.0
  1
\U+2205
 50
90.0
  0
TEXT
  5
15A1
  8
250
 10
-109.376996985809
 20
-1.1809523809523499
 30
0.0
 40
2.7999999999999989
  1
10
 50
90.0
  0
LINE
  5
15A2
  8
250
 10
-108.64866365247561
 20
2.7700000000000311
 30
0.0
 11
-108.27699698580891
 21
5.0000000000000311
 31
0.0
  0
LINE
  5
15A3
  8
250
 10
-107.90533031914229
 20
2.7700000000000311
 30
0.0
 11
-108.27699698580891
 21
5.0000000000000311
 31
0.0
  0
LINE
  5
15A4
  8
250
 10
-108.27699698580891
 20
5.0000000000000311
 30
0.0
 11
-108.27699698580891
 21
2.7700000000000311
 31
0.0
  0
LINE
  5
15A5
  8
250
 10
-107.90533031914229
 20
-2.769999999999968
 30
0.0
 11
-108.27699698580891
 21
-4.999999999999968
 31
0.0
  0
LINE
  5
15A6
  8
250
 10
-108.64866365247561
 20
-2.769999999999968
 30
0.0
 11
-108.27699698580891
 21
-4.999999999999968
 31
0.0
  0
LINE
  5
15A7
  8
250
 10
-108.27699698580891
 20
-4.999999999999968
 30
0.0
 11
-108.27699698580891
 21
-2.769999999999968
 31
0.0
  0
TEXT
  5
15A8
  8
250
 10
9.2902657683493715
 20
-14.683809523809501
 30
0.0
 40
2.7999999999999989
  1
1.45
 50
90.0
  0
LINE
  5
15A9
  8
250
 10
9.9185991016827018
 20
-2.2300000000000022
 30
0.0
 11
10.29026576834937
 21
-0.0000000000000029
 31
0.0
  0
LINE
  5
15AA
  8
250
 10
10.661932435016039
 20
-2.2300000000000022
 30
0.0
 11
10.29026576834937
 21
-0.0000000000000029
 31
0.0
  0
LINE
  5
15AB
  8
250
 10
10.29026576834937
 20
-0.0000000000000029
 30
0.0
 11
10.29026576834937
 21
-2.2300000000000022
 31
0.0
  0
LINE
  5
15AC
  8
250
 10
10.661932435016039
 20
3.6799999999999851
 30
0.0
 11
10.29026576834937
 21
1.4499999999999851
 31
0.0
  0
LINE
  5
15AD
  8
250
 10
9.9185991016827018
 20
3.6799999999999851
 30
0.0
 11
10.29026576834937
 21
1.4499999999999851
 31
0.0
  0
LINE
  5
15AE
  8
250
 10
10.29026576834937
 20
1.4499999999999851
 30
0.0
 11
10.29026576834937
 21
3.6799999999999851
 31
0.0
  0
TEXT
  5
15AF
  8
250
 10
16.290268301596711
 20
-4.5619047619047484
 30
0.0
 40
3.0
  1
\U+2205
 50
90.0
  0
TEXT
  5
15B0
  8
250
 10
16.19026830159671
 20
-1.8476190476190331
 30
0.0
 40
2.7999999999999989
  1
9.2
 50
90.0
  0
LINE
  5
15B1
  8
250
 10
16.918601634930042
 20
2.3699999999999881
 30
0.0
 11
17.290268301596711
 21
4.5999999999999881
 31
0.0
  0
LINE
  5
15B2
  8
250
 10
17.661934968263381
 20
2.3699999999999881
 30
0.0
 11
17.290268301596711
 21
4.5999999999999881
 31
0.0
  0
LINE
  5
15B3
  8
250
 10
17.290268301596711
 20
4.5999999999999881
 30
0.0
 11
17.290268301596711
 21
2.3699999999999881
 31
0.0
  0
TEXT
  5
15B4
  8
250
 10
-5.8365491066344068
 20
9.9090097964514925
 30
0.0
 40
2.7999999999999989
  1
45üï
 50
9.0285333698246202
  0
LINE
  5
15B5
  8
250
 10
-3.2900706289871371
 20
8.5670945085832173
 30
0.0
 11
-5.3119382981176244
 21
7.5556167581428291
 31
0.0
  0
LINE
  5
15B6
  8
250
 10
-3.727407611245126
 20
9.1681609012503813
 30
0.0
 11
-5.3119382981176244
 21
7.5556167581428291
 31
0.0
  0
LINE
  5
15B7
  8
250
 10
-5.3119382981176244
 20
7.5556167581428291
 30
0.0
 11
-3.508739120116132
 21
8.8676277049167993
 31
0.0
  0
LINE
  5
15B8
  8
250
 10
-2.2604143531069378
 20
9.7683236887763272
 30
0.0
 11
0.0
 21
9.7287880924202348
 31
0.0
  0
LINE
  5
15B9
  8
250
 10
-2.1510521490544932
 20
9.0330792717494237
 30
0.0
 11
0.0
 21
9.7287880924202348
 31
0.0
  0
LINE
  5
15BA
  8
250
 10
0.0
 20
9.7287880924202348
 30
0.0
 11
-2.2057332510807148
 21
9.4007014802628763
 31
0.0
  0
INSERT
  5
17EB
  8
240
  2
A$C116322F9
 10
0.0
 20
0.0
 30
0.0
  0
VIEWPORT
  5
22
 67
     1
  8
0
 10
261.51769911504419
 20
148.5
 30
0.0
 40
523.0353982300885
 41
297.0
 68
     1
 69
     1
1001
ACAD
1000
MVIEW
1002
{
1070
    16
1010
0.0
1020
0.0
1030
0.0
1010
0.0
1020
0.0
1030
1.0
1040
0.0
1040
297.0
1040
261.51769911504419
1040
148.5
1040
50.0
1040
0.0
1040
0.0
1070
     0
1070
   100
1070
     1
1070
     1
1070
     0
1070
     0
1070
     0
1070
     0
1040
0.0
1040
0.0
1040
0.0
1040
1.0
1040
1.0
1040
10.0
1040
10.0
1070
     0
1002
{
1002
}
1002
}
1001
GENIUS_GENODEF_13
1002
{
1000
HIER
1070
     0
1002
}
1002
{
1000
MANEDIT
1070
     0
1002
}
1002
{
1000
NOSEL
1070
     0
1002
}
1002
{
1000
BEHIND
1070
     0
1002
}
1002
{
1000
OTHER
1070
     0
1002
}
1002
{
1000
REACTOR
1002
}
1001
GENIUS_GENOBJ-N-SDF_13
1002
{
1000
OWNER
1000
GEN
1002
}
1001
GENIUS_GENSCREG_15
1000
PF
1040
1.0
1000
DF
1040
1.0
1000
MIN
1011
0.0
1021
9.7728732151405160E+015
1031
0.0
1021
0.0
1031
0.0
1000
MAX
1011
523.0353982300885
1021
9.7728732151405160E+015
1031
0.0
1021
297.0
1031
0.0
1000
FLAGS
1070
     2
  0
ENDSEC
  0
EOF
