  0
SECTION
  2
HEADER
  9
$ACADVER
  1
AC1009
  9
$INSBASE
 10
0.0
 20
0.0
 30
0.0
  9
$EXTMIN
 10
-164.80000000000001
 20
-10.60660171779821
 30
0.0
  9
$EXTMAX
 10
22.0
 20
47.0
 30
0.0
  9
$LIMMIN
 10
0.0
 20
0.0
  9
$LIMMAX
 10
297.0
 20
210.0
  9
$ORTHOMODE
 70
     1
  9
$REGENMODE
 70
     1
  9
$FILLMODE
 70
     1
  9
$QTEXTMODE
 70
     0
  9
$MIRRTEXT
 70
     1
  9
$DRAGMODE
 70
     2
  9
$LTSCALE
 40
10.0
  9
$OSMODE
 70
  2799
  9
$ATTMODE
 70
     1
  9
$TEXTSIZE
 40
3.0
  9
$TRACEWID
 40
1.0
  9
$TEXTSTYLE
  7
YOKO
  9
$CLAYER
  8
240
  9
$CELTYPE
  6
BYLAYER
  9
$CECOLOR
 62
   256
  9
$DIMSCALE
 40
1.0
  9
$DIMASZ
 40
2.2299999999999991
  9
$DIMEXO
 40
0.5
  9
$DIMDLI
 40
7.0
  9
$DIMRND
 40
0.0
  9
$DIMDLE
 40
0.0
  9
$DIMEXE
 40
1.0
  9
$DIMTP
 40
0.0
  9
$DIMTM
 40
0.0
  9
$DIMTXT
 40
2.799999999999998
  9
$DIMCEN
 40
0.0
  9
$DIMTSZ
 40
0.0
  9
$DIMTOL
 70
     0
  9
$DIMLIM
 70
     0
  9
$DIMTIH
 70
     0
  9
$DIMTOH
 70
     0
  9
$DIMSE1
 70
     0
  9
$DIMSE2
 70
     0
  9
$DIMTAD
 70
     3
  9
$DIMZIN
 70
     9
  9
$DIMBLK
  1
OPEN
  9
$DIMASO
 70
     1
  9
$DIMSHO
 70
     1
  9
$DIMPOST
  1

  9
$DIMAPOST
  1

  9
$DIMALT
 70
     0
  9
$DIMALTD
 70
     2
  9
$DIMALTF
 40
25.399999999999999
  9
$DIMLFAC
 40
1.0
  9
$DIMTOFL
 70
     1
  9
$DIMTVP
 40
0.0
  9
$DIMTIX
 70
     1
  9
$DIMSOXD
 70
     0
  9
$DIMSAH
 70
     0
  9
$DIMBLK1
  1

  9
$DIMBLK2
  1

  9
$DIMSTYLE
  2
BIGT
  9
$DIMCLRD
 70
   256
  9
$DIMCLRE
 70
   256
  9
$DIMCLRT
 70
    40
  9
$DIMTFAC
 40
1.0
  9
$DIMGAP
 40
1.0
  9
$LUNITS
 70
     2
  9
$LUPREC
 70
     3
  9
$SKETCHINC
 40
1.0
  9
$FILLETRAD
 40
0.0
  9
$AUNITS
 70
     0
  9
$AUPREC
 70
     3
  9
$MENU
  1
.
  9
$ELEVATION
 40
0.0
  9
$PELEVATION
 40
0.0
  9
$THICKNESS
 40
0.0
  9
$LIMCHECK
 70
     0
  9
$BLIPMODE
 70
     0
  9
$CHAMFERA
 40
0.25
  9
$CHAMFERB
 40
0.25
  9
$SKPOLY
 70
     0
  9
$TDCREATE
 40
2452787.5487150932
  9
$TDUPDATE
 40
2454656.8180322228
  9
$TDINDWG
 40
0.0128799074
  9
$TDUSRTIMER
 40
0.012879537
  9
$USRTIMER
 70
     1
  9
$ANGBASE
 50
0.0
  9
$ANGDIR
 70
     0
  9
$PDMODE
 70
    35
  9
$PDSIZE
 40
-5.0
  9
$PLINEWID
 40
0.0
  9
$COORDS
 70
     1
  9
$SPLFRAME
 70
     0
  9
$SPLINETYPE
 70
     6
  9
$SPLINESEGS
 70
     4
  9
$ATTDIA
 70
     1
  9
$ATTREQ
 70
     1
  9
$HANDLING
 70
     1
  9
$HANDSEED
  5
1BF1
  9
$SURFTAB1
 70
     6
  9
$SURFTAB2
 70
     6
  9
$SURFTYPE
 70
     6
  9
$SURFU
 70
     6
  9
$SURFV
 70
     6
  9
$UCSNAME
  2

  9
$UCSORG
 10
0.0
 20
0.0
 30
0.0
  9
$UCSXDIR
 10
1.0
 20
0.0
 30
0.0
  9
$UCSYDIR
 10
0.0
 20
1.0
 30
0.0
  9
$PUCSNAME
  2

  9
$PUCSORG
 10
0.0
 20
0.0
 30
0.0
  9
$PUCSXDIR
 10
1.0
 20
0.0
 30
0.0
  9
$PUCSYDIR
 10
0.0
 20
1.0
 30
0.0
  9
$USERI1
 70
     1
  9
$USERI2
 70
     0
  9
$USERI3
 70
     0
  9
$USERI4
 70
     0
  9
$USERI5
 70
     0
  9
$USERR1
 40
0.0
  9
$USERR2
 40
0.0
  9
$USERR3
 40
0.0
  9
$USERR4
 40
0.0
  9
$USERR5
 40
0.0
  9
$WORLDVIEW
 70
     1
  9
$SHADEDGE
 70
     3
  9
$SHADEDIF
 70
    70
  9
$TILEMODE
 70
     1
  9
$MAXACTVP
 70
    16
  9
$PLIMCHECK
 70
     0
  9
$PEXTMIN
 10
1.0000000000000000E+020
 20
1.0000000000000000E+020
 30
1.0000000000000000E+020
  9
$PEXTMAX
 10
-1.0000000000000000E+020
 20
-1.0000000000000000E+020
 30
-1.0000000000000000E+020
  9
$PLIMMIN
 10
0.0
 20
0.0
  9
$PLIMMAX
 10
420.0
 20
297.0
  9
$UNITMODE
 70
     0
  9
$VISRETAIN
 70
     1
  9
$PLINEGEN
 70
     0
  9
$PSLTSCALE
 70
     1
  0
ENDSEC
  0
SECTION
  2
TABLES
  0
TABLE
  2
VPORT
 70
     3
  0
VPORT
  2
*ACTIVE
 70
     0
 10
0.0
 20
0.0
 11
1.0
 21
1.0
 12
-70.752541480883053
 22
18.201249309808119
 13
0.0
 23
0.0
 14
7.0
 24
7.0
 15
7.0
 25
7.0
 16
0.0
 26
0.0
 36
1.0
 17
0.0
 27
0.0
 37
0.0
 40
121.31954080696769
 41
1.556690500510725
 42
50.0
 43
0.0
 44
0.0
 50
0.0
 51
0.0
 71
     0
 72
   500
 73
     1
 74
     0
 75
     0
 76
     0
 77
     0
 78
     0
  0
ENDTAB
  0
TABLE
  2
LTYPE
 70
    16
  0
LTYPE
  2
CONTINUOUS
 70
     0
  3
Solid line
 72
    65
 73
     0
 40
0.0
  0
LTYPE
  2
CENTER2
 70
     0
  3
___ _ ___ _ ___ _ ___ _ ___ _ ___ _ ___ _ ___ _
 72
    65
 73
     4
 40
1.125
 49
0.75
 49
-0.125
 49
0.125
 49
-0.125
  0
LTYPE
  2
CENTER
 70
     0
  3
____ _ ____ _ ____ _ ____ _ ____ _ ____ _ ____ 
 72
    65
 73
     4
 40
2.0
 49
1.25
 49
-0.25
 49
0.25
 49
-0.25
  0
LTYPE
  2
AMCONSTR
 70
     0
  3
_______________________
 72
    65
 73
     2
 40
9999.0
 49
9999.0
 49
0.0
  0
LTYPE
  2
HIDDEN2
 70
     0
  3
_ _ _ _ _ _ _ _ _ _ _ _ _ _ _ _ _ _ _ _ _ _ _ _
 72
    65
 73
     2
 40
0.1875
 49
0.125
 49
-0.0625
  0
LTYPE
  2
PHANTOM2
 70
     0
  3
___ _ _ ___ _ _ ___ _ _ ___ _ _ ___ _ _ ___ _ _
 72
    65
 73
     6
 40
1.25
 49
0.625
 49
-0.125
 49
0.125
 49
-0.125
 49
0.125
 49
-0.125
  0
LTYPE
  2
HIDDEN
 70
     0
  3
Hidden __ __ __ __ __ __ __ __ __ __ __ __ __ _
 72
    65
 73
     2
 40
9.5249999999999986
 49
6.3499999999999979
 49
-3.174999999999998
  0
LTYPE
  2
AMZIGZAG2
 70
     0
  3
/\/-/\/-/\/-/\/-/\/-/\/
 72
    65
 73
     2
 40
0.4401
 49
0.0001
 49
-0.4400000000000001
  0
LTYPE
  2
ACANSTGB
 70
     0
  3
__ . . __ . .
 72
    65
 73
     6
 40
0.35433070866
 49
0.15748031496
 49
-0.03937007874
 49
0.03937007874
 49
-0.03937007874
 49
0.03937007874
 49
-0.03937007874
  0
LTYPE
  2
ACANSTGL
 70
     0
  3
_ _ _ _ _
 72
    65
 73
     2
 40
0.11811023622
 49
0.07874015748
 49
-0.03937007874
  0
LTYPE
  2
AM_ISO02W050
 70
     0
  3
__ __ __ __ __ __ __ __ __ __ __ __ __ __ __
 72
    65
 73
     2
 40
7.5
 49
6.0
 49
-1.5
  0
LTYPE
  2
AM_ISO08W050
 70
     0
  3
____ . ____ . ____ . ____ . ____ . ____ . ____
 72
    65
 73
     4
 40
18.0
 49
12.0
 49
-1.5
 49
3.0
 49
-1.5
  0
LTYPE
  2
AM_ISO09W050
 70
     0
  3
_____ . . _____ . . _____ . . ____ .. ____
 72
    65
 73
     6
 40
22.5
 49
12.0
 49
-1.5
 49
3.0
 49
-1.5
 49
3.0
 49
-1.5
  0
LTYPE
  2
AM_ISO08W050X2
 70
     0
  3
__ . __ . __ . __ . __ . __
 72
    65
 73
     4
 40
9.0
 49
6.0
 49
-0.75
 49
1.5
 49
-0.75
  0
LTYPE
  2
AM_ISO02W050X2
 70
     0
  3
 _ _ _ _ _ _ _ _ _ _ _ _
 72
    65
 73
     2
 40
3.75
 49
3.0
 49
-0.75
  0
LTYPE
  2
AMZIGZAG
 70
     0
  3
/\/-/\/-/\/-/\/-/\/-/\/
 72
    65
 73
     2
 40
11.0001
 49
0.0001
 49
-11.0
  0
ENDTAB
  0
TABLE
  2
LAYER
 70
     7
  0
LAYER
  2
0
 70
     0
 62
     7
  6
CONTINUOUS
  0
LAYER
  2
240
 70
     0
 62
     4
  6
CONTINUOUS
  0
LAYER
  2
DEFPOINTS
 70
     0
 62
     7
  6
CONTINUOUS
  0
LAYER
  2
245
 70
     0
 62
     2
  6
CENTER2
  0
LAYER
  2
241
 70
     0
 62
   211
  6
CONTINUOUS
  0
LAYER
  2
247
 70
     0
 62
    60
  6
CONTINUOUS
  0
LAYER
  2
250
 70
     0
 62
     7
  6
CONTINUOUS
  0
ENDTAB
  0
TABLE
  2
STYLE
 70
     5
  0
STYLE
  2
STANDARD
 70
     0
 40
0.0
 41
1.0
 50
0.0
 71
     0
 42
3.0
  3
romans.shx
  4
extfont.shx
  0
STYLE
  2
YOKO
 70
     0
 40
0.0
 41
1.0
 50
0.0
 71
     0
 42
3.0
  3
romans.shx
  4
extfont.shx
  0
STYLE
  2

 70
     1
 40
0.0
 41
1.0
 50
0.0
 71
     0
 42
3.0
  3
ltypeshp.shx
  4

  0
STYLE
  2
ACANSTS
 70
     0
 40
1.0
 41
1.0
 50
0.0
 71
     0
 42
3.0
  3
romans.shx
  4
extfont.shx
  0
STYLE
  2
ACANSGDT
 70
     0
 40
0.0
 41
1.0
 50
0.0
 71
     0
 42
3.0
  3
amgdtans.shx
  4

  0
ENDTAB
  0
TABLE
  2
VIEW
 70
     0
  0
ENDTAB
  0
TABLE
  2
UCS
 70
     0
  0
ENDTAB
  0
TABLE
  2
APPID
 70
    33
  0
APPID
  2
ACAD
 70
     0
  0
APPID
  2
GLOBAL
 70
     0
  0
APPID
  2
DETAIL
 70
     0
  0
APPID
  2
GRPNAME
 70
     0
  0
APPID
  2
GPARA
 70
     0
  0
APPID
  2
MCAD_NO_VIS
 70
     0
  0
APPID
  2
ACAD_TEMP_GRAPHIC
 70
     0
  0
APPID
  2
ACATTRIBSERVICES
 70
     0
  0
APPID
  2
GENIUS_GENSCREG_15
 70
     0
  0
APPID
  2
GENIUS_GENODEF_13
 70
     0
  0
APPID
  2
GENIUS_GENOBJ-N-SDF_13
 70
     0
  0
APPID
  2
GENIUS_GENREC_14
 70
     0
  0
APPID
  2
GENIUS_GENOBJ-N-REC_13
 70
     0
  0
APPID
  2
GENIUS_GENDIMSH_14
 70
     0
  0
APPID
  2
GENIUS_GENOBJ-N-DIM_13
 70
     0
  0
APPID
  2
GENIUS_GENDIM_13
 70
     0
  0
APPID
  2
GENIUS_GENDTOL_13
 70
     0
  0
APPID
  2
GENIUS_GENOLIS_13
 70
     0
  0
APPID
  2
GENIUS_GENOENT_13
 70
     0
  0
APPID
  2
GENIUS_GENOBJ-F-FEM_13
 70
     0
  0
APPID
  2
GENIUS_GENOREF_13
 70
     0
  0
APPID
  2
GENIUS_GEFFEM_13
 70
     0
  0
APPID
  2
GENIUS_GEFFEMP_13
 70
     0
  0
APPID
  2
GENIUS_GENFIL_13
 70
     0
  0
APPID
  2
GENIUS_GENOBJ-N-CHA_13
 70
     0
  0
APPID
  2
GENIUS_GENOBJ-N-FIL_13
 70
     0
  0
APPID
  2
HATCH_TYPE
 70
     0
  0
APPID
  2
HATCH_DISPLAY
 70
     0
  0
APPID
  2
HATCH_DISTANCE
 70
     0
  0
APPID
  2
AD_DRAW
 70
     0
  0
APPID
  2
DESIGNERASSEMBLIES
 70
     0
  0
APPID
  2
ACADM_DIM_EDIT
 70
     0
  0
APPID
  2
AMDT_DM_ADJ
 70
     0
  0
ENDTAB
  0
TABLE
  2
DIMSTYLE
 70
     7
  0
DIMSTYLE
  2
BIGT
 70
     0
  3

  4

  5

  6

  7

 40
1.0
 41
2.2299999999999991
 42
0.5
 43
7.0
 44
1.0
 45
0.0
 46
0.0
 47
0.0
 48
0.01
140
2.799999999999998
141
0.0
142
0.0
143
25.399999999999999
144
1.0
145
0.0
146
1.0
147
1.0
 71
     0
 72
     0
 73
     0
 74
     0
 75
     0
 76
     0
 77
     3
 78
     9
170
     0
171
     2
172
     1
173
     0
174
     1
175
     0
176
   256
177
   256
178
    40
  0
DIMSTYLE
  2
AM_ANSI
 70
     0
  3

  4
mm
  5

  6

  7

 40
1.0
 41
0.1
 42
0.05
 43
0.5
 44
0.1
 45
0.0
 46
0.0
 47
0.1
 48
0.1
140
0.12
141
0.0
142
0.0
143
25.399999999999999
144
1.0
145
0.0
146
0.71
147
0.06
 71
     0
 72
     0
 73
     1
 74
     1
 75
     0
 76
     0
 77
     0
 78
     7
170
     0
171
     2
172
     0
173
     0
174
     0
175
     0
176
   256
177
   256
178
     2
  0
DIMSTYLE
  2
AM_ANSI$3
 70
     0
  3

  4
mm
  5

  6

  7

 40
1.0
 41
0.1
 42
0.05
 43
0.5
 44
0.1
 45
0.0
 46
0.0
 47
0.1
 48
0.1
140
0.12
141
0.0
142
0.0
143
25.399999999999999
144
1.0
145
0.0
146
0.71
147
0.06
 71
     0
 72
     0
 73
     1
 74
     1
 75
     0
 76
     0
 77
     0
 78
     7
170
     0
171
     2
172
     0
173
     0
174
     0
175
     0
176
   256
177
   256
178
     2
  0
DIMSTYLE
  2
AM_ANSI$4
 70
     0
  3

  4
mm
  5

  6

  7

 40
1.0
 41
0.1
 42
0.05
 43
0.5
 44
0.1
 45
0.0
 46
0.0
 47
0.1
 48
0.1
140
0.12
141
0.0
142
0.0
143
25.399999999999999
144
1.0
145
0.0
146
0.71
147
0.06
 71
     0
 72
     0
 73
     1
 74
     1
 75
     0
 76
     0
 77
     0
 78
     7
170
     0
171
     2
172
     0
173
     0
174
     0
175
     0
176
   256
177
   256
178
     2
  0
DIMSTYLE
  2
AM_ANSI$7
 70
     0
  3

  4
mm
  5

  6

  7

 40
1.0
 41
0.1
 42
0.05
 43
0.5
 44
0.1
 45
0.0
 46
0.0
 47
0.1
 48
0.1
140
0.24
141
0.0
142
0.0
143
25.399999999999999
144
1.0
145
0.0
146
0.71
147
0.06
 71
     0
 72
     0
 73
     1
 74
     1
 75
     0
 76
     0
 77
     0
 78
     7
170
     0
171
     2
172
     0
173
     0
174
     0
175
     0
176
   256
177
   256
178
     2
  0
DIMSTYLE
  2
AM_ANSI$SF
 70
     0
  3

  4
mm
  5

  6

  7

 40
1.0
 41
0.1
 42
0.05
 43
0.5
 44
0.1
 45
0.0
 46
0.0
 47
0.1
 48
0.1
140
0.12
141
0.0
142
0.0
143
25.399999999999999
144
1.0
145
0.0
146
0.71
147
0.06
 71
     0
 72
     0
 73
     1
 74
     1
 75
     1
 76
     1
 77
     0
 78
     7
170
     0
171
     2
172
     0
173
     0
174
     0
175
     0
176
   256
177
   256
178
     2
  0
DIMSTYLE
  2
AM_ANSI$SH
 70
     0
  3

  4
mm
  5

  6
GENAXEH
  7

 40
1.0
 41
0.1
 42
0.05
 43
0.5
 44
0.1
 45
0.0
 46
0.0
 47
0.1
 48
0.1
140
0.12
141
0.0
142
0.0
143
25.399999999999999
144
1.0
145
0.0
146
0.71
147
0.06
 71
     0
 72
     0
 73
     1
 74
     1
 75
     1
 76
     1
 77
     0
 78
     7
170
     0
171
     2
172
     0
173
     1
174
     0
175
     0
176
   256
177
   256
178
     2
  0
ENDTAB
  0
ENDSEC
  0
SECTION
  2
BLOCKS
  0
BLOCK
  8
0
  2
$MODEL_SPACE
 70
     0
 10
0.0
 20
0.0
 30
0.0
  3
$MODEL_SPACE
  1

  0
ENDBLK
  5
19B3
  8
0
  0
BLOCK
 67
     1
  8
0
  2
$PAPER_SPACE
 70
     0
 10
0.0
 20
0.0
 30
0.0
  3
$PAPER_SPACE
  1

  0
ENDBLK
  5
19AF
 67
     1
  8
0
  0
BLOCK
  8
0
  2
_OPEN
 70
     0
 10
0.0
 20
0.0
 30
0.0
  3
_OPEN
  1

  0
LINE
  5
1929
  8
0
  6
BYBLOCK
 62
     0
 10
-1.0
 20
0.1666666666666666
 30
0.0
 11
0.0
 21
0.0
 31
0.0
  0
LINE
  5
192A
  8
0
  6
BYBLOCK
 62
     0
 10
-1.0
 20
-0.1666666666666666
 30
0.0
 11
0.0
 21
0.0
 31
0.0
  0
LINE
  5
192B
  8
0
  6
BYBLOCK
 62
     0
 10
0.0
 20
0.0
 30
0.0
 11
-1.0
 21
0.0
 31
0.0
  0
ENDBLK
  5
192C
  8
0
  0
BLOCK
  8
0
  2
GENAXEH
 70
     0
 10
0.0
 20
0.0
 30
0.0
  3
GENAXEH
  1

  0
LINE
  5
1954
  8
0
 10
-1.0
 20
0.0
 30
0.0
 11
1.0
 21
0.0
 31
0.0
  0
ENDBLK
  5
1955
  8
0
  0
ENDSEC
  0
SECTION
  2
ENTITIES
  0
TEXT
  5
1415
  8
241
 10
-147.0
 20
42.0
 30
0.0
 40
5.0
  1
ST10-CBY09010
  7
YOKO
  0
LINE
  5
1792
  8
250
 10
0.3535533905932738
 20
-0.3535533905932737
 30
0.0
 11
10.60660171779821
 21
-10.60660171779821
 31
0.0
  0
LINE
  5
1793
  8
250
 10
0.3535533905932739
 20
0.3535533905932736
 30
0.0
 11
10.60660171779821
 21
10.606601717798201
 31
0.0
  0
ARC
  5
1794
  8
250
 10
0.0
 20
0.0
 30
0.0
 40
14.0
 50
324.13607491042018
 51
35.86392508957983
  0
LINE
  5
1798
  8
250
 10
-4.5
 20
5.0
 30
0.0
 11
22.0
 21
4.999999999999992
 31
0.0
  0
LINE
  5
1799
  8
250
 10
-4.5
 20
-5.0
 30
0.0
 11
22.0
 21
-5.0000000000000062
 31
0.0
  0
LINE
  5
179A
  8
250
 10
21.0
 20
2.7699999999999911
 30
0.0
 11
21.0
 21
-2.7700000000000049
 31
0.0
  0
LINE
  5
179E
  8
250
 10
-149.0
 20
5.0
 30
0.0
 11
-162.0
 21
5.0000000000000009
 31
0.0
  0
LINE
  5
179F
  8
250
 10
-149.0
 20
-5.0
 30
0.0
 11
-162.0
 21
-4.9999999999999938
 31
0.0
  0
LINE
  5
17A0
  8
250
 10
-161.0
 20
2.770000000000004
 30
0.0
 11
-161.0
 21
-2.769999999999996
 31
0.0
  0
LINE
  5
17A4
  8
250
 10
-150.0
 20
4.3452994616207521
 30
0.0
 11
-150.0
 21
29.0
 31
0.0
  0
LINE
  5
17A5
  8
250
 10
0.0000000000000005
 20
0.5
 30
0.0
 11
0.0000000000000022
 21
29.0
 31
0.0
  0
LINE
  5
17A6
  8
250
 10
-147.77000000000001
 20
28.0
 30
0.0
 11
-2.2299999999999951
 21
28.0
 31
0.0
  0
TEXT
  5
17AA
  8
250
 10
-79.200000000000003
 20
29.0
 30
0.0
 40
2.799999999999998
  1
150
1001
ACAD
1000
MTEXTBEGIN
1070
    73
1070
     1
1070
    44
1040
1.0
1070
    74
1070
     0
1000
MTEXTEND
  0
LINE
  5
17AB
  8
250
 10
-2.2299999999999951
 20
28.371666666666659
 30
0.0
 11
0.0000000000000022
 21
28.0
 31
0.0
  0
LINE
  5
17AC
  8
250
 10
-2.2299999999999951
 20
27.62833333333333
 30
0.0
 11
0.0000000000000022
 21
28.0
 31
0.0
  0
LINE
  5
17AD
  8
250
 10
0.0000000000000022
 20
28.0
 30
0.0
 11
-2.2299999999999951
 21
28.0
 31
0.0
  0
LINE
  5
17AE
  8
250
 10
-147.77000000000001
 20
27.62833333333333
 30
0.0
 11
-150.0
 21
28.0
 31
0.0
  0
LINE
  5
17AF
  8
250
 10
-147.77000000000001
 20
28.371666666666659
 30
0.0
 11
-150.0
 21
28.0
 31
0.0
  0
LINE
  5
17B0
  8
250
 10
-150.0
 20
28.0
 30
0.0
 11
-147.77000000000001
 21
28.0
 31
0.0
  0
TEXT
  5
17B1
  8
250
 10
-162.0
 20
-3.8000000000000189
 30
0.0
 40
2.799999999999998
  1
\U+220510
 50
90.0
1001
ACAD
1000
MTEXTBEGIN
1070
    73
1070
     1
1070
    44
1040
1.0
1070
    74
1070
     0
1000
MTEXTEND
  0
LINE
  5
17B2
  8
250
 10
-160.6283333333333
 20
-2.769999999999996
 30
0.0
 11
-161.0
 21
-4.9999999999999938
 31
0.0
  0
LINE
  5
17B3
  8
250
 10
-161.37166666666661
 20
-2.769999999999996
 30
0.0
 11
-161.0
 21
-4.9999999999999938
 31
0.0
  0
LINE
  5
17B4
  8
250
 10
-161.0
 20
-4.9999999999999938
 30
0.0
 11
-161.0
 21
-2.769999999999996
 31
0.0
  0
LINE
  5
17B5
  8
250
 10
-161.37166666666661
 20
2.7700000000000031
 30
0.0
 11
-161.0
 21
5.0000000000000009
 31
0.0
  0
LINE
  5
17B6
  8
250
 10
-160.6283333333333
 20
2.7700000000000031
 30
0.0
 11
-161.0
 21
5.0000000000000009
 31
0.0
  0
LINE
  5
17B7
  8
250
 10
-161.0
 20
5.0000000000000009
 30
0.0
 11
-161.0
 21
2.7700000000000031
 31
0.0
  0
TEXT
  5
17B8
  8
250
 10
20.000000000000011
 20
-3.8000000000000012
 30
0.0
 40
2.799999999999998
  1
\U+220510
 50
90.0
1001
ACAD
1000
MTEXTBEGIN
1070
    73
1070
     1
1070
    44
1040
1.0
1070
    74
1070
     0
1000
MTEXTEND
  0
LINE
  5
17B9
  8
250
 10
21.37166666666667
 20
-2.7700000000000071
 30
0.0
 11
21.0
 21
-5.0000000000000062
 31
0.0
  0
LINE
  5
17BA
  8
250
 10
20.62833333333333
 20
-2.7700000000000071
 30
0.0
 11
21.0
 21
-5.0000000000000062
 31
0.0
  0
LINE
  5
17BB
  8
250
 10
21.0
 20
-5.0000000000000062
 30
0.0
 11
21.0
 21
-2.7700000000000071
 31
0.0
  0
LINE
  5
17BC
  8
250
 10
20.62833333333333
 20
2.7699999999999911
 30
0.0
 11
21.0
 21
4.999999999999992
 31
0.0
  0
LINE
  5
17BD
  8
250
 10
21.37166666666667
 20
2.7699999999999911
 30
0.0
 11
21.0
 21
4.999999999999992
 31
0.0
  0
LINE
  5
17BE
  8
250
 10
21.0
 20
4.999999999999992
 30
0.0
 11
21.0
 21
2.7699999999999911
 31
0.0
  0
TEXT
  5
17BF
  8
250
 10
12.999999999999989
 20
-4.5466666666666651
 30
0.0
 40
2.799999999999998
  1
90üï
 50
90.0
1001
ACAD
1000
MTEXTBEGIN
1070
    73
1070
     1
1070
    44
1040
1.0
1070
    74
1070
     0
1000
MTEXTEND
  0
LINE
  5
17C0
  8
250
 10
11.062845469261379
 20
7.961028622925828
 30
0.0
 11
9.8994949366116671
 21
9.89949493661166
 31
0.0
  0
LINE
  5
17C1
  8
250
 10
11.628653434097339
 20
8.4431134612817278
 30
0.0
 11
9.8994949366116671
 21
9.89949493661166
 31
0.0
  0
LINE
  5
17C2
  8
250
 10
9.8994949366116671
 20
9.89949493661166
 30
0.0
 11
11.34574945167936
 21
8.2020710421037784
 31
0.0
  0
LINE
  5
17C3
  8
250
 10
11.628653434097339
 20
-8.4431134612817313
 30
0.0
 11
9.8994949366116671
 21
-9.8994949366116636
 31
0.0
  0
LINE
  5
17C4
  8
250
 10
11.062845469261379
 20
-7.9610286229258334
 30
0.0
 11
9.8994949366116671
 21
-9.8994949366116636
 31
0.0
  0
LINE
  5
17C5
  8
250
 10
9.8994949366116671
 20
-9.8994949366116636
 30
0.0
 11
11.34574945167936
 21
-8.2020710421037784
 31
0.0
  0
LINE
  5
1A9A
  8
247
 10
-58.72297194968607
 20
3.702530093717562
 30
0.0
 11
-58.72297194968607
 21
3.702530093717562
 31
0.0
1001
HATCH_DISTANCE
1040
1.0
1001
HATCH_DISPLAY
1070
     0
1001
HATCH_TYPE
1070
     7
  0
LINE
  5
1A9B
  8
247
 10
-58.814261469949749
 20
3.9920312839031071
 30
0.0
 11
-58.72297194968607
 21
3.702530093717562
 31
0.0
1001
HATCH_DISTANCE
1040
1.0
1001
HATCH_DISPLAY
1070
     0
1001
HATCH_TYPE
1070
     7
  0
LINE
  5
1A9C
  8
247
 10
-58.814261469949749
 20
3.9920312839031071
 30
0.0
 11
-58.814261469949749
 21
3.9920312839031071
 31
0.0
1001
HATCH_DISTANCE
1040
1.0
1001
HATCH_DISPLAY
1070
     0
1001
HATCH_TYPE
1070
     7
  0
LINE
  5
1A9D
  8
247
 10
-58.72297194968607
 20
3.702530093717562
 30
0.0
 11
-58.814261469949749
 21
3.9920312839031071
 31
0.0
1001
HATCH_DISTANCE
1040
1.0
1001
HATCH_DISPLAY
1070
     0
1001
HATCH_TYPE
1070
     7
  0
LINE
  5
1A9E
  8
247
 10
-58.72297194968607
 20
3.702530093717562
 30
0.0
 11
-58.72297194968607
 21
3.702530093717562
 31
0.0
  0
LINE
  5
1A9F
  8
247
 10
-58.814261469949749
 20
3.9920312839031071
 30
0.0
 11
-58.72297194968607
 21
3.702530093717562
 31
0.0
  0
LINE
  5
1AA0
  8
247
 10
-58.814261469949749
 20
3.9920312839031071
 30
0.0
 11
-58.814261469949749
 21
3.9920312839031071
 31
0.0
  0
LINE
  5
1AA1
  8
247
 10
-58.72297194968607
 20
3.702530093717562
 30
0.0
 11
-58.814261469949749
 21
3.9920312839031071
 31
0.0
  0
LINE
  5
1AA2
  8
247
 10
-58.72297194968607
 20
3.702530093717562
 30
0.0
 11
-58.72297194968607
 21
3.702530093717562
 31
0.0
1001
HATCH_DISTANCE
1040
1.0
1001
HATCH_DISPLAY
1070
     0
1001
HATCH_TYPE
1070
     7
  0
LINE
  5
1AA3
  8
247
 10
-58.814261469949749
 20
3.9920312839031071
 30
0.0
 11
-58.72297194968607
 21
3.702530093717562
 31
0.0
1001
HATCH_DISTANCE
1040
1.0
1001
HATCH_DISPLAY
1070
     0
1001
HATCH_TYPE
1070
     7
  0
LINE
  5
1AA4
  8
247
 10
-58.814261469949749
 20
3.9920312839031071
 30
0.0
 11
-58.814261469949749
 21
3.9920312839031071
 31
0.0
1001
HATCH_DISTANCE
1040
1.0
1001
HATCH_DISPLAY
1070
     0
1001
HATCH_TYPE
1070
     7
  0
LINE
  5
1AA5
  8
247
 10
-58.72297194968607
 20
3.702530093717562
 30
0.0
 11
-58.814261469949749
 21
3.9920312839031071
 31
0.0
1001
HATCH_DISTANCE
1040
1.0
1001
HATCH_DISPLAY
1070
     0
1001
HATCH_TYPE
1070
     7
  0
LINE
  5
1AA6
  8
247
 10
-58.72297194968607
 20
3.702530093717562
 30
0.0
 11
-58.72297194968607
 21
3.702530093717562
 31
0.0
  0
LINE
  5
1AA7
  8
247
 10
-58.814261469949749
 20
3.9920312839031071
 30
0.0
 11
-58.72297194968607
 21
3.702530093717562
 31
0.0
  0
LINE
  5
1AA8
  8
247
 10
-58.814261469949749
 20
3.9920312839031071
 30
0.0
 11
-58.814261469949749
 21
3.9920312839031071
 31
0.0
  0
LINE
  5
1AA9
  8
247
 10
-58.72297194968607
 20
3.702530093717562
 30
0.0
 11
-58.814261469949749
 21
3.9920312839031071
 31
0.0
  0
LINE
  5
1AAA
  8
247
 10
-60.76682952414896
 20
4.0446168857097469
 30
0.0
 11
-61.555190119852057
 21
4.0446168857097469
 31
0.0
1001
HATCH_DISTANCE
1040
1.0
1001
HATCH_DISPLAY
1070
     0
1001
HATCH_TYPE
1070
     7
  0
LINE
  5
1AAB
  8
247
 10
-61.549113307107937
 20
1.316459484624849
 30
0.0
 11
-60.76682952414896
 21
4.0446168857097469
 31
0.0
1001
HATCH_DISTANCE
1040
1.0
1001
HATCH_DISPLAY
1070
     0
1001
HATCH_TYPE
1070
     7
  0
LINE
  5
1AAC
  8
247
 10
-62.227107081522007
 20
1.316459484624849
 30
0.0
 11
-61.549113307107937
 21
1.316459484624849
 31
0.0
1001
HATCH_DISTANCE
1040
1.0
1001
HATCH_DISPLAY
1070
     0
1001
HATCH_TYPE
1070
     7
  0
LINE
  5
1AAD
  8
247
 10
-61.540427241434088
 20
3.7111818271159982
 30
0.0
 11
-62.227107081522007
 21
1.316459484624849
 31
0.0
1001
HATCH_DISTANCE
1040
1.0
1001
HATCH_DISPLAY
1070
     0
1001
HATCH_TYPE
1070
     7
  0
LINE
  5
1AAE
  8
247
 10
-61.650805506814947
 20
3.7111818271159982
 30
0.0
 11
-61.540427241434088
 21
3.7111818271159982
 31
0.0
1001
HATCH_DISTANCE
1040
1.0
1001
HATCH_DISPLAY
1070
     0
1001
HATCH_TYPE
1070
     7
  0
LINE
  5
1AAF
  8
247
 10
-61.555190119852057
 20
4.0446168857097469
 30
0.0
 11
-61.650805506814947
 21
3.7111818271159982
 31
0.0
1001
HATCH_DISTANCE
1040
1.0
1001
HATCH_DISPLAY
1070
     0
1001
HATCH_TYPE
1070
     7
  0
LINE
  5
1AB0
  8
247
 10
-60.76682952414896
 20
4.0446168857097469
 30
0.0
 11
-61.555190119852057
 21
4.0446168857097469
 31
0.0
  0
LINE
  5
1AB1
  8
247
 10
-61.549113307107937
 20
1.316459484624849
 30
0.0
 11
-60.76682952414896
 21
4.0446168857097469
 31
0.0
  0
LINE
  5
1AB2
  8
247
 10
-62.227107081522007
 20
1.316459484624849
 30
0.0
 11
-61.549113307107937
 21
1.316459484624849
 31
0.0
  0
LINE
  5
1AB3
  8
247
 10
-61.540427241434088
 20
3.7111818271159982
 30
0.0
 11
-62.227107081522007
 21
1.316459484624849
 31
0.0
  0
LINE
  5
1AB4
  8
247
 10
-61.650805506814947
 20
3.7111818271159982
 30
0.0
 11
-61.540427241434088
 21
3.7111818271159982
 31
0.0
  0
LINE
  5
1AB5
  8
247
 10
-61.555190119852057
 20
4.0446168857097469
 30
0.0
 11
-61.650805506814947
 21
3.7111818271159982
 31
0.0
  0
LINE
  5
1AB6
  8
247
 10
-61.566929313752361
 20
1.3164594846248421
 30
0.0
 11
-61.541950882505859
 21
1.3414379158713741
 31
0.0
  0
LINE
  5
1AB7
  8
247
 10
-61.903688918292467
 20
1.3164594846248501
 30
0.0
 11
-61.406566150972701
 21
1.8135822519446161
 31
0.0
  0
LINE
  5
1AB8
  8
247
 10
-62.22174345692089
 20
1.3351645505365251
 30
0.0
 11
-61.271181419439557
 21
2.285726588017837
 31
0.0
  0
LINE
  5
1AB9
  8
247
 10
-62.086356877799879
 20
1.80731073419762
 30
0.0
 11
-61.135796687906421
 21
2.7578709240910779
 31
0.0
  0
LINE
  5
1ABA
  8
247
 10
-61.950970298678897
 20
2.2794569178587021
 30
0.0
 11
-61.000411956373291
 21
3.230015260164306
 31
0.0
  0
LINE
  5
1ABB
  8
247
 10
-61.815583719557878
 20
2.7516031015197981
 30
0.0
 11
-60.865027224840148
 21
3.7021595962375349
 31
0.0
  0
LINE
  5
1ABC
  8
247
 10
-61.680197140436903
 20
3.223749285180872
 30
0.0
 11
-60.859329539908018
 21
4.0446168857097362
 31
0.0
  0
LINE
  5
1ABD
  8
247
 10
-61.544810561315899
 20
3.6958954688419752
 30
0.0
 11
-61.196089144448109
 21
4.0446168857097504
 31
0.0
  0
LINE
  5
1ABE
  8
247
 10
-61.56417246687905
 20
4.0132931678189294
 30
0.0
 11
-61.532848748988222
 21
4.0446168857097433
 31
0.0
  0
LINE
  5
1ABF
  8
247
 10
-57.895578784072292
 20
0.9466947598237778
 30
0.0
 11
-56.902027362862569
 21
1.940246181033515
 31
0.0
  0
LINE
  5
1AC0
  8
247
 10
-57.21789736716962
 20
1.96113578126657
 30
0.0
 11
-56.819876305079433
 21
2.3591568433567489
 31
0.0
  0
LINE
  5
1AC1
  8
247
 10
-58.314489446395541
 20
0.8645437020406561
 30
0.0
 11
-57.916468384305361
 21
1.2625647641308351
 31
0.0
  0
LINE
  5
1AC2
  8
247
 10
-57.121577454429449
 20
2.394215298546825
 30
0.0
 11
-56.833651042188713
 21
2.682141710787576
 31
0.0
  0
LINE
  5
1AC3
  8
247
 10
-58.654029915823472
 20
0.8617628371528168
 30
0.0
 11
-58.349547901585638
 21
1.16624485139065
 31
0.0
  0
LINE
  5
1AC4
  8
247
 10
-57.145488903963283
 20
2.7070634535530962
 30
0.0
 11
-56.898100260306123
 21
2.954452097210257
 31
0.0
  0
LINE
  5
1AC5
  8
247
 10
-58.990789520363542
 20
0.861762837152824
 30
0.0
 11
-58.687658424649349
 21
1.164893932867022
 31
0.0
  0
LINE
  5
1AC6
  8
247
 10
-57.225668702592593
 20
2.9636432594638631
 30
0.0
 11
-56.998409330533427
 21
3.1909026315230302
 31
0.0
  0
LINE
  5
1AC7
  8
247
 10
-59.327549124903641
 20
0.8617628371528168
 30
0.0
 11
-59.024418029189427
 21
1.1648939328670149
 31
0.0
  0
LINE
  5
1AC8
  8
247
 10
-57.345331085816497
 20
3.1807404807800719
 30
0.0
 11
-57.127977514267741
 21
3.3980940523288279
 31
0.0
  0
LINE
  5
1AC9
  8
247
 10
-59.664308729443761
 20
0.861762837152824
 30
0.0
 11
-59.361177633729547
 21
1.164893932867022
 31
0.0
  0
LINE
  5
1ACA
  8
247
 10
-57.498119400687159
 20
3.3647117704495102
 30
0.0
 11
-57.283773309104653
 21
3.579057862032001
 31
0.0
  0
LINE
  5
1ACB
  8
247
 10
-60.001068333983831
 20
0.861762837152824
 30
0.0
 11
-59.697937238269631
 21
1.16489393286703
 31
0.0
  0
LINE
  5
1ACC
  8
247
 10
-57.682301054733543
 20
3.5172897209431961
 30
0.0
 11
-57.464906384739621
 21
3.734684390937133
 31
0.0
  0
LINE
  5
1ACD
  8
247
 10
-60.337827938523922
 20
0.8617628371528168
 30
0.0
 11
-60.034696842809723
 21
1.16489393286703
 31
0.0
  0
LINE
  5
1ACE
  8
247
 10
-57.899632914321053
 20
3.6367174658957988
 30
0.0
 11
-57.672279336761719
 21
3.8640710434551191
 31
0.0
  0
LINE
  5
1ACF
  8
247
 10
-60.674587543064021
 20
0.861762837152831
 30
0.0
 11
-60.371456447349807
 21
1.164893932867038
 31
0.0
  0
LINE
  5
1AD0
  8
247
 10
-58.156513015462657
 20
3.7165969692942862
 30
0.0
 11
-57.908940945307272
 21
3.964169039449672
 31
0.0
  0
LINE
  5
1AD1
  8
247
 10
-61.011347147604113
 20
0.861762837152824
 30
0.0
 11
-60.708216051889899
 21
1.16489393286703
 31
0.0
  0
LINE
  5
1AD2
  8
247
 10
-58.469844049300242
 20
3.7400255399967852
 30
0.0
 11
-58.181525104622708
 21
4.0283444846743119
 31
0.0
  0
LINE
  5
1AD3
  8
247
 10
-61.348106752144211
 20
0.861762837152824
 30
0.0
 11
-61.044975656430012
 21
1.1648939328670149
 31
0.0
  0
LINE
  5
1AD4
  8
247
 10
-58.75201057681258
 20
3.794618617024518
 30
0.0
 11
-58.504935464036741
 21
4.0416937298003628
 31
0.0
  0
LINE
  5
1AD5
  8
247
 10
-61.684866356684289
 20
0.861762837152824
 30
0.0
 11
-61.381735260970061
 21
1.164893932867038
 31
0.0
  0
LINE
  5
1AD6
  8
247
 10
-62.021625961224387
 20
0.861762837152824
 30
0.0
 11
-61.718494865510181
 21
1.16489393286703
 31
0.0
  0
LINE
  5
1AD7
  8
247
 10
-62.3583855657645
 20
0.861762837152831
 30
0.0
 11
-62.055254470050279
 21
1.164893932867052
 31
0.0
  0
LINE
  5
1AD8
  8
247
 10
-62.695145170304578
 20
0.8617628371528168
 30
0.0
 11
-62.39201407459035
 21
1.164893932867038
 31
0.0
  0
LINE
  5
1AD9
  8
247
 10
-63.031904774844662
 20
0.8617628371528383
 30
0.0
 11
-62.728773679130462
 21
1.164893932867044
 31
0.0
  0
LINE
  5
1ADA
  8
247
 10
-63.368664379384782
 20
0.861762837152824
 30
0.0
 11
-63.065533283670568
 21
1.16489393286703
 31
0.0
  0
LINE
  5
1ADB
  8
247
 10
-63.705423983924859
 20
0.8617628371528383
 30
0.0
 11
-63.402292888210631
 21
1.164893932867044
 31
0.0
  0
LINE
  5
1ADC
  8
247
 10
-64.042183588464923
 20
0.861762837152831
 30
0.0
 11
-63.739052492750737
 21
1.16489393286703
 31
0.0
  0
LINE
  5
1ADD
  8
247
 10
-64.378943193005028
 20
0.8617628371528454
 30
0.0
 11
-64.075812097290822
 21
1.164893932867038
 31
0.0
  0
LINE
  5
1ADE
  8
247
 10
-64.708911137800754
 20
0.8685544968972037
 30
0.0
 11
-64.412571701830899
 21
1.164893932867038
 31
0.0
  0
LINE
  5
1ADF
  8
247
 10
-64.993000300076687
 20
0.9212249391613768
 30
0.0
 11
-64.73734816422396
 21
1.1768770750141031
 31
0.0
  0
LINE
  5
1AE0
  8
247
 10
-65.238362253454895
 20
1.0126225903232451
 30
0.0
 11
-65.006862122603252
 21
1.2441227211749091
 31
0.0
  0
LINE
  5
1AE1
  8
247
 10
-65.45312221404626
 20
1.134622234272
 30
0.0
 11
-65.233831185703863
 21
1.3539132626143899
 31
0.0
  0
LINE
  5
1AE2
  8
247
 10
-65.641073488042252
 20
1.2834305648160791
 30
0.0
 11
-65.426511937691842
 21
1.497992115166503
 31
0.0
  0
LINE
  5
1AE3
  8
247
 10
-65.80362417243353
 20
1.457639484964893
 30
0.0
 11
-65.587678043982478
 21
1.673585613415943
 31
0.0
  0
LINE
  5
1AE4
  8
247
 10
-65.940365678763996
 20
1.657657583174533
 30
0.0
 11
-65.71653967847088
 21
1.881483583467648
 31
0.0
  0
LINE
  5
1AE5
  8
247
 10
-64.193297084284495
 20
3.741485782194117
 30
0.0
 11
-63.954484005097129
 21
3.98029886138149
 31
0.0
  0
LINE
  5
1AE6
  8
247
 10
-66.048915721606718
 20
1.8858671448719011
 30
0.0
 11
-65.808241876622361
 21
2.1265409898562591
 31
0.0
  0
LINE
  5
1AE7
  8
247
 10
-64.530056688824573
 20
3.7414857821941241
 30
0.0
 11
-64.226925585308962
 21
4.0446168857097504
 31
0.0
  0
LINE
  5
1AE8
  8
247
 10
-66.12387040491393
 20
2.1476720661047741
 30
0.0
 11
-65.849953247666775
 21
2.421589223351936
 31
0.0
  0
LINE
  5
1AE9
  8
247
 10
-64.91655209176318
 20
3.6917499837956309
 30
0.0
 11
-64.563686035809965
 21
4.0446160397488438
 31
0.0
  0
LINE
  5
1AEA
  8
247
 10
-66.153471134242722
 20
2.4548309413160951
 30
0.0
 11
-65.800605078289493
 21
2.8076969972693102
 31
0.0
  0
LINE
  5
1AEB
  8
247
 10
-66.10597662185549
 20
2.8390850582434179
 30
0.0
 11
-64.947940152737317
 21
3.9971215273615921
 31
0.0
  0
LINE
  5
1AEC
  8
247
 10
-59.388855888007903
 20
1.473975283128772
 30
0.0
 11
-59.104675053795447
 21
1.758156117341221
 31
0.0
  0
LINE
  5
1AED
  8
247
 10
-59.878534431321221
 20
1.3210563443555241
 30
0.0
 11
-58.969289012917699
 21
2.230301762759046
 31
0.0
  0
LINE
  5
1AEE
  8
247
 10
-59.735519008773061
 20
1.800831371443776
 30
0.0
 11
-58.833902972039951
 21
2.7024474081768859
 31
0.0
  0
LINE
  5
1AEF
  8
247
 10
-60.19477800660917
 20
1.341572373607675
 30
0.0
 11
-59.838897128779458
 21
1.697453251437379
 31
0.0
  0
LINE
  5
1AF0
  8
247
 10
-59.582763069460391
 20
2.2903469152965301
 30
0.0
 11
-59.010690669847968
 21
2.8624193149089621
 31
0.0
  0
LINE
  5
1AF1
  8
247
 10
-60.43956025175455
 20
1.4335497330023861
 30
0.0
 11
-60.174873576881929
 21
1.6982364078750081
 31
0.0
  0
LINE
  5
1AF2
  8
247
 10
-59.650581377903677
 20
2.5592882113933499
 30
0.0
 11
-59.347450274388081
 21
2.8624193149089678
 31
0.0
  0
LINE
  5
1AF3
  8
247
 10
-60.63683195147199
 20
1.573037637825045
 30
0.0
 11
-60.315793550138608
 21
1.894076039158413
 31
0.0
  0
LINE
  5
1AF4
  8
247
 10
-58.904395189776011
 20
3.6422340040611161
 30
0.0
 11
-58.872834514194437
 21
3.6737946796426599
 31
0.0
  0
LINE
  5
1AF5
  8
247
 10
-60.792646656805928
 20
1.7539825370311899
 30
0.0
 11
-60.240452587108102
 21
2.3061766067290019
 31
0.0
  0
LINE
  5
1AF6
  8
247
 10
-59.325527973629981
 20
3.5578608247472361
 30
0.0
 11
-58.953568161048331
 21
3.9298206373288722
 31
0.0
  0
LINE
  5
1AF7
  8
247
 10
-60.904516033581011
 20
1.978872764796193
 30
0.0
 11
-60.105066086034022
 21
2.7783227123431811
 31
0.0
  0
LINE
  5
1AF8
  8
247
 10
-59.518890771745113
 20
3.7012576311722101
 30
0.0
 11
-59.29190826721036
 21
3.928240135706949
 31
0.0
  0
LINE
  5
1AF9
  8
247
 10
-60.958089458576282
 20
2.262058944341041
 30
0.0
 11
-59.969679584959962
 21
3.2504688179573531
 31
0.0
  0
LINE
  5
1AFA
  8
247
 10
-60.91037236639346
 20
2.646535641063934
 30
0.0
 11
-59.537026636623821
 21
4.0198813708335717
 31
0.0
  0
LINE
  5
1AFB
  8
247
 10
-60.798570595024628
 20
3.0950970169728711
 30
0.0
 11
-59.853883442941417
 21
4.0397841690560679
 31
0.0
  0
LINE
  5
1AFC
  8
240
 10
-5.0
 20
-5.0
 30
0.0
 11
0.0
 21
0.0
 31
0.0
  0
LINE
  5
1AFD
  8
240
 10
0.0
 20
0.0
 30
0.0
 11
-5.0
 21
5.0
 31
0.0
  0
LINE
  5
1AFE
  8
240
 10
-12.25
 20
5.0
 30
0.0
 11
-5.0
 21
5.0
 31
0.0
  0
LINE
  5
1AFF
  8
240
 10
-12.25
 20
-5.0
 30
0.0
 11
-5.0
 21
-5.0
 31
0.0
  0
LINE
  5
1B00
  8
241
 10
-12.5
 20
4.75
 30
0.0
 11
-12.5
 21
-4.75
 31
0.0
  0
LINE
  5
1B01
  8
240
 10
-12.25
 20
5.0
 30
0.0
 11
-12.5
 21
4.75
 31
0.0
1001
GENIUS_GENFIL_13
1070
     0
1040
0.25
1040
0.25
1040
0.2500000000000284
1040
45.00000000000162
1002
{
1002
}
1001
GENIUS_GENOBJ-N-CHA_13
1002
{
1000
OWNER
1000
GEN
1002
}
1001
GENIUS_GENODEF_13
1002
{
1000
HIER
1070
     0
1002
}
1002
{
1000
MANEDIT
1070
     0
1002
}
1002
{
1000
NOSEL
1070
     0
1002
}
1002
{
1000
BEHIND
1070
     0
1002
}
1002
{
1000
OTHER
1070
     0
1002
}
1002
{
1000
REACTOR
1002
}
  0
LINE
  5
1B02
  8
240
 10
-12.25
 20
-5.0
 30
0.0
 11
-12.5
 21
-4.75
 31
0.0
1001
GENIUS_GENFIL_13
1070
     0
1040
0.25
1040
0.25
1040
0.2500000000000284
1040
45.00000000000162
1002
{
1002
}
1001
GENIUS_GENOBJ-N-CHA_13
1002
{
1000
OWNER
1000
GEN
1002
}
1001
GENIUS_GENODEF_13
1002
{
1000
HIER
1070
     0
1002
}
1002
{
1000
MANEDIT
1070
     0
1002
}
1002
{
1000
NOSEL
1070
     0
1002
}
1002
{
1000
BEHIND
1070
     0
1002
}
1002
{
1000
OTHER
1070
     0
1002
}
1002
{
1000
REACTOR
1002
}
  0
ARC
  5
1B03
  8
241
 10
-8.0574717280479575
 20
8.2786110553472128
 30
0.0
 40
11.228673452423511
 50
308.82016656727268
 51
314.20208026838571
  0
LINE
  5
1B04
  8
241
 10
-1.0184624904799711
 20
-0.4698434627144256
 30
0.0
 11
-6.4899241650625452
 21
5.0
 31
0.0
  0
LINE
  5
1B05
  8
240
 10
-148.5
 20
5.0
 30
0.0
 11
-12.75
 21
5.0
 31
0.0
  0
LINE
  5
1B06
  8
240
 10
-148.5
 20
-5.0
 30
0.0
 11
-12.75
 21
-5.0
 31
0.0
  0
LINE
  5
1B07
  8
240
 10
-12.5
 20
-4.75
 30
0.0
 11
-12.75
 21
-5.0
 31
0.0
1001
GENIUS_GENFIL_13
1070
     0
1040
0.25
1040
0.25
1040
0.2500000000000284
1040
45.00000000000162
1002
{
1002
}
1001
GENIUS_GENOBJ-N-CHA_13
1002
{
1000
OWNER
1000
GEN
1002
}
1001
GENIUS_GENODEF_13
1002
{
1000
HIER
1070
     0
1002
}
1002
{
1000
MANEDIT
1070
     0
1002
}
1002
{
1000
NOSEL
1070
     0
1002
}
1002
{
1000
BEHIND
1070
     0
1002
}
1002
{
1000
OTHER
1070
     0
1002
}
1002
{
1000
REACTOR
1002
}
  0
LINE
  5
1B08
  8
240
 10
-12.5
 20
4.75
 30
0.0
 11
-12.75
 21
5.0
 31
0.0
1001
GENIUS_GENFIL_13
1070
     0
1040
0.25
1040
0.25
1040
0.2500000000000284
1040
45.00000000000162
1002
{
1002
}
1001
GENIUS_GENOBJ-N-CHA_13
1002
{
1000
OWNER
1000
GEN
1002
}
1001
GENIUS_GENODEF_13
1002
{
1000
HIER
1070
     0
1002
}
1002
{
1000
MANEDIT
1070
     0
1002
}
1002
{
1000
NOSEL
1070
     0
1002
}
1002
{
1000
BEHIND
1070
     0
1002
}
1002
{
1000
OTHER
1070
     0
1002
}
1002
{
1000
REACTOR
1002
}
  0
LINE
  5
1B09
  8
240
 10
-150.0
 20
3.8452994616207521
 30
0.0
 11
-150.0
 21
-3.8452994616207401
 31
0.0
  0
LINE
  5
1B0A
  8
240
 10
-148.5
 20
5.0
 30
0.0
 11
-149.75
 21
4.2783121635129771
 31
0.0
  0
LINE
  5
1B0B
  8
240
 10
-149.75
 20
-4.278312163512962
 30
0.0
 11
-148.5
 21
-5.0
 31
0.0
  0
ARC
  5
1B0C
  8
240
 10
-149.5
 20
-3.8452994616207401
 30
0.0
 40
0.5
 50
180.0
 51
239.9999999999998
1001
GENIUS_GENOBJ-N-FIL_13
1002
{
1000
OWNER
1000
GEN
1002
}
1001
GENIUS_GENODEF_13
1002
{
1000
HIER
1070
     0
1002
}
1002
{
1000
MANEDIT
1070
     0
1002
}
1002
{
1000
NOSEL
1070
     0
1002
}
1002
{
1000
BEHIND
1070
     0
1002
}
1002
{
1000
OTHER
1070
     0
1002
}
1002
{
1000
REACTOR
1002
}
  0
ARC
  5
1B0D
  8
240
 10
-149.5
 20
3.8452994616207521
 30
0.0
 40
0.5
 50
120.0000000000001
 51
180.0
1001
GENIUS_GENODEF_13
1002
{
1000
HIER
1070
     0
1002
}
1002
{
1000
MANEDIT
1070
     0
1002
}
1002
{
1000
NOSEL
1070
     0
1002
}
1002
{
1000
BEHIND
1070
     0
1002
}
1002
{
1000
OTHER
1070
     0
1002
}
1002
{
1000
REACTOR
1002
}
1001
GENIUS_GENOBJ-N-FIL_13
1002
{
1000
OWNER
1000
GEN
1002
}
  0
LINE
  5
1B0E
  8
245
 10
3.305763866557526
 20
0.0
 30
0.0
 11
-154.0
 21
0.0
 31
0.0
  0
TEXT
  5
1B0F
  8
247
 10
-55.809796514475558
 20
1.2939583807313311
 30
0.0
 40
2.5
  1
ST10-CBY09010
  7
YOKO
 11
-55.809796514475558
 21
1.2939583807313311
 31
0.0
 73
     1
  0
LINE
  5
1B10
  8
247
 10
-58.867522273172398
 20
3.6569482760906
 30
0.0
 11
-58.95881179343607
 21
3.946449466276146
 31
0.0
  0
ARC
  5
1B11
  8
247
 10
-58.4085226393833
 20
2.4531900363445152
 30
0.0
 40
1.288299322128293
 50
110.8721834020771
 51
132.54194893738571
  0
ARC
  5
1B12
  8
247
 10
-59.597723994363797
 20
3.3928873019695152
 30
0.0
 40
0.3182875066995621
 50
1.7101213820643839
 51
163.99839835444831
  0
LINE
  5
1B13
  8
247
 10
-60.312212977518101
 20
2.0559198337078031
 30
0.0
 11
-59.903681788553257
 21
3.480629153776162
 31
0.0
  0
ARC
  5
1B14
  8
247
 10
-60.006255183328641
 20
1.9681894259929511
 30
0.0
 40
0.3182872831821442
 50
164.00027305718379
 51
344.00027305718368
  0
LINE
  5
1B15
  8
247
 10
-59.700297389139173
 20
1.880459018278116
 30
0.0
 11
-59.505644831766148
 21
2.5592882113933491
 31
0.0
  0
LINE
  5
1B16
  8
247
 10
-59.75791839133646
 20
2.5592882113933491
 30
0.0
 11
-59.505644831766148
 21
2.5592882113933491
 31
0.0
  0
LINE
  5
1B17
  8
247
 10
-59.75791839133646
 20
2.5592882113933491
 30
0.0
 11
-59.671000514139173
 21
2.8624193149089741
 31
0.0
  0
LINE
  5
1B18
  8
247
 10
-59.671000514139173
 20
2.8624193149089741
 30
0.0
 11
-58.788031611551283
 21
2.8624193149089598
 31
0.0
  0
LINE
  5
1B19
  8
247
 10
-59.231329951395033
 20
1.3164594846248561
 30
0.0
 11
-58.788031611551283
 21
2.8624193149089598
 31
0.0
  0
LINE
  5
1B1A
  8
247
 10
-59.409148249734891
 20
1.4942663388729041
 30
0.0
 11
-59.231329951395033
 21
1.3164594846248561
 31
0.0
  0
ARC
  5
1B1B
  8
247
 10
-59.973708186258321
 20
2.3016244845867
 30
0.0
 40
0.9851760864257813
 50
163.99975070172721
 51
304.96387329163082
  0
ARC
  5
1B1C
  8
247
 10
-58.362998042215352
 20
2.2498285251140451
 30
0.0
 40
2.5780792236328121
 50
155.20517736984189
 51
172.79482596205031
  0
ARC
  5
1B1D
  8
247
 10
-59.756407771219251
 20
3.0594522433757638
 30
0.0
 40
0.9851660728454588
 50
53.444012197055507
 51
164.0001843876851
  0
ARC
  5
1B1E
  8
247
 10
-58.4085226393833
 20
2.4531900363445152
 30
0.0
 40
1.591427564620969
 50
110.22964506332001
 51
118.57168892371671
  0
LINE
  5
1B1F
  8
247
 10
-63.936041865457533
 20
4.0446168857097549
 30
0.0
 11
-64.02295974265482
 21
3.7414857821941312
 31
0.0
  0
LINE
  5
1B20
  8
247
 10
-64.562045130838385
 20
4.0446168857097549
 30
0.0
 11
-63.936041865457533
 21
4.0446168857097549
 31
0.0
  0
LINE
  5
1B21
  8
247
 10
-64.562045130838385
 20
3.7414857821941312
 30
0.0
 11
-64.02295974265482
 21
3.7414857821941312
 31
0.0
  0
ARC
  5
1B22
  8
247
 10
-64.562045130838385
 20
2.4531900363445152
 30
0.0
 40
1.288295745849608
 50
90.0
 51
270.0
  0
ARC
  5
1B23
  8
247
 10
-64.562045130838385
 20
2.4531900363445152
 30
0.0
 40
1.591426849365233
 50
90.0
 51
270.0
  0
LINE
  5
1B24
  8
247
 10
-64.562045130838385
 20
0.8617628371528379
 30
0.0
 11
-58.4085226393833
 21
0.861762837152824
 31
0.0
  0
LINE
  5
1B25
  8
247
 10
-64.562045130838385
 20
1.164893932867044
 30
0.0
 11
-58.4085226393833
 21
1.164893932867028
 31
0.0
  0
ARC
  5
1B26
  8
247
 10
-58.4085226393833
 20
2.4531900363445152
 30
0.0
 40
1.591426849365233
 50
270.0
 51
104.7707939660941
  0
ARC
  5
1B27
  8
247
 10
-58.4085226393833
 20
2.4531900363445152
 30
0.0
 40
1.288295745849608
 50
270.0
 51
104.1274364964119
  0
LINE
  5
1B28
  8
247
 10
-58.72297194968607
 20
3.7025300937175518
 30
0.0
 11
-58.814261469949749
 21
3.9920312839031
 31
0.0
  0
LINE
  5
1B29
  8
247
 10
-61.549113307107937
 20
1.3164594846248561
 30
0.0
 11
-60.76682952414896
 21
4.0446168857097549
 31
0.0
  0
LINE
  5
1B2A
  8
247
 10
-64.402983698953619
 20
1.3164594846248561
 30
0.0
 11
-63.707617793192249
 21
3.7414857821932488
 31
0.0
  0
LINE
  5
1B2B
  8
247
 10
-63.039023347976247
 20
2.201682682181624
 30
0.0
 11
-62.045043672044848
 21
3.195662358113053
 31
0.0
  0
LINE
  5
1B2C
  8
247
 10
-64.18929091293306
 20
2.0616939308451361
 30
0.0
 11
-63.128201708673167
 21
3.122783135104978
 31
0.0
  0
ARC
  5
1B2D
  8
247
 10
-63.135550532449749
 20
3.3171045260906071
 30
0.0
 40
0.4546839594841006
 50
261.6626016879294
 51
66.338155095189762
  0
LINE
  5
1B2E
  8
247
 10
-63.156576197794742
 20
2.4208894369032201
 30
0.0
 11
-62.071827990195032
 21
3.5056376445029391
 31
0.0
  0
ARC
  5
1B2F
  8
247
 10
-62.797366175760288
 20
3.2868005710124821
 30
0.0
 40
0.7578227519989014
 50
287.66957754739792
 51
90.236159842671583
  0
LINE
  5
1B30
  8
247
 10
-64.053905291256072
 20
2.533839157062201
 30
0.0
 11
-62.99282055570329
 21
3.5949238926149558
 31
0.0
  0
LINE
  5
1B31
  8
247
 10
-62.953067406881672
 20
3.7335627015356718
 30
0.0
 11
-63.201479938396652
 21
2.867225857510276
 31
0.0
  0
LINE
  5
1B32
  8
247
 10
-62.227107081522007
 20
1.3164594846248561
 30
0.0
 11
-61.540427241434088
 21
3.7111818271160062
 31
0.0
  0
LINE
  5
1B33
  8
247
 10
-61.555190119852057
 20
4.0446168857097549
 30
0.0
 11
-60.76682952414896
 21
4.0446168857097549
 31
0.0
  0
LINE
  5
1B34
  8
247
 10
-62.888760269533464
 20
3.6989841787847961
 30
0.0
 11
-62.576132789899127
 21
4.0116116584191248
 31
0.0
  0
LINE
  5
1B35
  8
247
 10
-62.729426983385189
 20
3.521557860392988
 30
0.0
 11
-62.351444899842143
 21
3.8995399439360172
 31
0.0
  0
LINE
  5
1B36
  8
247
 10
-63.778376612771808
 20
4.0446168857097549
 30
0.0
 11
-62.800489735587249
 21
4.0446168857096412
 31
0.0
  0
LINE
  5
1B37
  8
247
 10
-63.783134047902088
 20
3.4781296094963632
 30
0.0
 11
-63.216646771688737
 21
4.044616885709698
 31
0.0
  0
LINE
  5
1B38
  8
247
 10
-63.865294489969592
 20
3.7414857821941312
 30
0.0
 11
-63.707617793192249
 21
3.7414857821932488
 31
0.0
  0
LINE
  5
1B39
  8
247
 10
-63.778376612771808
 20
4.0446168857097549
 30
0.0
 11
-63.865294489969592
 21
3.7414857821941312
 31
0.0
  0
LINE
  5
1B3A
  8
247
 10
-63.856537479744432
 20
3.7414857821941032
 30
0.0
 11
-63.553406376228821
 21
4.0446168857097282
 31
0.0
  0
LINE
  5
1B3B
  8
247
 10
-62.690574182409676
 20
3.2236510568284289
 30
0.0
 11
-62.183313544843692
 21
3.7309116943944201
 31
0.0
  0
LINE
  5
1B3C
  8
247
 10
-63.918519669579069
 20
3.0059843832792681
 30
0.0
 11
-62.879887167148702
 21
4.0446168857096412
 31
0.0
  0
LINE
  5
1B3D
  8
247
 10
-61.650805506814947
 20
3.7111818271160062
 30
0.0
 11
-61.540427241434088
 21
3.7111818271160062
 31
0.0
  0
LINE
  5
1B3E
  8
247
 10
-61.650805506814947
 20
3.7111818271160062
 30
0.0
 11
-61.555190119852057
 21
4.0446168857097549
 31
0.0
  0
LINE
  5
1B3F
  8
247
 10
-63.587486940992967
 20
1.3164594846248561
 30
0.0
 11
-62.475230001135252
 21
2.4287164244825581
 31
0.0
  0
ARC
  5
1B40
  8
247
 10
-63.145049128641141
 20
2.074276156949983
 30
0.0
 40
0.7578163146972659
 50
270.0
 51
40.329840654168393
  0
LINE
  5
1B41
  8
247
 10
-63.250727336452847
 20
1.316459484624829
 30
0.0
 11
-62.393748619093849
 21
2.1734382019838541
 31
0.0
  0
LINE
  5
1B42
  8
247
 10
-64.324676534609992
 20
1.589548704628071
 30
0.0
 11
-63.042097063187541
 21
2.8721281760505231
 31
0.0
  0
ARC
  5
1B43
  8
247
 10
-63.483233485330601
 20
2.104591556119904
 30
0.0
 40
0.4546969681978227
 50
261.66285421114878
 51
66.338192159110051
  0
LINE
  5
1B44
  8
247
 10
-63.300746741837337
 20
2.5210623490183921
 30
0.0
 11
-63.54916336005239
 21
1.654699808576735
 31
0.0
  0
LINE
  5
1B45
  8
247
 10
-64.261006150073143
 20
1.3164594846248561
 30
0.0
 11
-63.39897374338949
 21
2.1784918913085081
 31
0.0
  0
LINE
  5
1B46
  8
247
 10
-62.85715017440058
 20
1.3732770421370311
 30
0.0
 11
-62.444050013828218
 21
1.786377202709388
 31
0.0
  0
LINE
  5
1B47
  8
247
 10
-64.402983698953619
 20
1.3164594846248561
 30
0.0
 11
-63.145049128641141
 21
1.3164594846248561
 31
0.0
  0
LINE
  5
1B48
  8
247
 10
-63.924246545533059
 20
1.3164594846248561
 30
0.0
 11
-63.534352389161398
 21
1.706353640996525
 31
0.0
  0
LINE
  5
1B49
  8
247
 10
-62.227107081522007
 20
1.3164594846248561
 30
0.0
 11
-61.549113307107937
 21
1.3164594846248561
 31
0.0
  0
VIEWPORT
  5
22
 67
     1
  8
0
 10
261.51769911504419
 20
148.5
 30
0.0
 40
523.0353982300885
 41
297.0
 68
     1
 69
     1
1001
ACAD
1000
MVIEW
1002
{
1070
    16
1010
0.0
1020
0.0
1030
0.0
1010
0.0
1020
0.0
1030
1.0
1040
0.0
1040
297.0
1040
261.51769911504419
1040
148.5
1040
50.0
1040
0.0
1040
0.0
1070
     0
1070
   100
1070
     1
1070
     1
1070
     0
1070
     0
1070
     0
1070
     0
1040
0.0
1040
0.0
1040
0.0
1040
1.0
1040
1.0
1040
10.0
1040
10.0
1070
     0
1002
{
1002
}
1002
}
1001
GENIUS_GENODEF_13
1002
{
1000
HIER
1070
     0
1002
}
1002
{
1000
MANEDIT
1070
     0
1002
}
1002
{
1000
NOSEL
1070
     0
1002
}
1002
{
1000
BEHIND
1070
     0
1002
}
1002
{
1000
OTHER
1070
     0
1002
}
1002
{
1000
REACTOR
1002
}
1001
GENIUS_GENOBJ-N-SDF_13
1002
{
1000
OWNER
1000
GEN
1002
}
1001
GENIUS_GENSCREG_15
1000
PF
1040
1.0
1000
DF
1040
1.0
1000
MIN
1011
0.0
1021
-1.5431635983456045E+128
1031
6.5053825811181290E+183
1021
0.0
1031
0.0
1000
MAX
1011
523.0353982300885
1021
-1.5431635983456045E+128
1031
6.5053825811181290E+183
1021
297.0
1031
0.0
1000
FLAGS
1070
     2
  0
ENDSEC
  0
EOF
