  0
SECTION
  2
HEADER
  9
$ACADVER
  1
AC1009
  9
$INSBASE
 10
0.0
 20
0.0
 30
0.0
  9
$EXTMIN
 10
-110.0
 20
-22.0
 30
0.0
  9
$EXTMAX
 10
15.0
 20
26.000000000000021
 30
0.0
  9
$LIMMIN
 10
0.0
 20
0.0
  9
$LIMMAX
 10
297.0
 20
210.0
  9
$ORTHOMODE
 70
     0
  9
$REGENMODE
 70
     1
  9
$FILLMODE
 70
     1
  9
$QTEXTMODE
 70
     0
  9
$MIRRTEXT
 70
     1
  9
$DRAGMODE
 70
     2
  9
$LTSCALE
 40
10.0
  9
$OSMODE
 70
  2799
  9
$ATTMODE
 70
     1
  9
$TEXTSIZE
 40
3.0
  9
$TRACEWID
 40
1.0
  9
$TEXTSTYLE
  7
YOKO
  9
$CLAYER
  8
240
  9
$CELTYPE
  6
BYLAYER
  9
$CECOLOR
 62
   256
  9
$DIMSCALE
 40
1.0
  9
$DIMASZ
 40
2.2299999999999991
  9
$DIMEXO
 40
0.5
  9
$DIMDLI
 40
7.0
  9
$DIMRND
 40
0.0
  9
$DIMDLE
 40
0.0
  9
$DIMEXE
 40
1.0
  9
$DIMTP
 40
0.0
  9
$DIMTM
 40
0.01
  9
$DIMTXT
 40
2.799999999999998
  9
$DIMCEN
 40
0.0
  9
$DIMTSZ
 40
0.0
  9
$DIMTOL
 70
     0
  9
$DIMLIM
 70
     0
  9
$DIMTIH
 70
     0
  9
$DIMTOH
 70
     0
  9
$DIMSE1
 70
     0
  9
$DIMSE2
 70
     0
  9
$DIMTAD
 70
     3
  9
$DIMZIN
 70
     9
  9
$DIMBLK
  1
OPEN
  9
$DIMASO
 70
     1
  9
$DIMSHO
 70
     1
  9
$DIMPOST
  1

  9
$DIMAPOST
  1

  9
$DIMALT
 70
     0
  9
$DIMALTD
 70
     2
  9
$DIMALTF
 40
25.399999999999999
  9
$DIMLFAC
 40
1.0
  9
$DIMTOFL
 70
     1
  9
$DIMTVP
 40
0.0
  9
$DIMTIX
 70
     1
  9
$DIMSOXD
 70
     0
  9
$DIMSAH
 70
     0
  9
$DIMBLK1
  1

  9
$DIMBLK2
  1

  9
$DIMSTYLE
  2
BIGT
  9
$DIMCLRD
 70
   256
  9
$DIMCLRE
 70
   256
  9
$DIMCLRT
 70
    40
  9
$DIMTFAC
 40
1.0
  9
$DIMGAP
 40
1.0
  9
$LUNITS
 70
     2
  9
$LUPREC
 70
     3
  9
$SKETCHINC
 40
1.0
  9
$FILLETRAD
 40
0.0
  9
$AUNITS
 70
     0
  9
$AUPREC
 70
     3
  9
$MENU
  1
.
  9
$ELEVATION
 40
0.0
  9
$PELEVATION
 40
0.0
  9
$THICKNESS
 40
0.0
  9
$LIMCHECK
 70
     0
  9
$BLIPMODE
 70
     0
  9
$CHAMFERA
 40
0.25
  9
$CHAMFERB
 40
0.25
  9
$SKPOLY
 70
     0
  9
$TDCREATE
 40
2454089.780907569
  9
$TDUPDATE
 40
2454809.4340145718
  9
$TDINDWG
 40
0.0288546875
  9
$TDUSRTIMER
 40
0.0288546875
  9
$USRTIMER
 70
     1
  9
$ANGBASE
 50
0.0
  9
$ANGDIR
 70
     0
  9
$PDMODE
 70
     1
  9
$PDSIZE
 40
0.0
  9
$PLINEWID
 40
0.0
  9
$COORDS
 70
     0
  9
$SPLFRAME
 70
     0
  9
$SPLINETYPE
 70
     6
  9
$SPLINESEGS
 70
     4
  9
$ATTDIA
 70
     1
  9
$ATTREQ
 70
     1
  9
$HANDLING
 70
     1
  9
$HANDSEED
  5
1EA2
  9
$SURFTAB1
 70
     6
  9
$SURFTAB2
 70
     6
  9
$SURFTYPE
 70
     6
  9
$SURFU
 70
     6
  9
$SURFV
 70
     6
  9
$UCSNAME
  2

  9
$UCSORG
 10
0.0
 20
0.0
 30
0.0
  9
$UCSXDIR
 10
1.0
 20
0.0
 30
0.0
  9
$UCSYDIR
 10
0.0
 20
1.0
 30
0.0
  9
$PUCSNAME
  2

  9
$PUCSORG
 10
0.0
 20
0.0
 30
0.0
  9
$PUCSXDIR
 10
1.0
 20
0.0
 30
0.0
  9
$PUCSYDIR
 10
0.0
 20
1.0
 30
0.0
  9
$USERI1
 70
     1
  9
$USERI2
 70
     0
  9
$USERI3
 70
     0
  9
$USERI4
 70
     0
  9
$USERI5
 70
     0
  9
$USERR1
 40
0.0
  9
$USERR2
 40
0.0
  9
$USERR3
 40
0.0
  9
$USERR4
 40
0.0
  9
$USERR5
 40
0.0
  9
$WORLDVIEW
 70
     1
  9
$SHADEDGE
 70
     3
  9
$SHADEDIF
 70
    70
  9
$TILEMODE
 70
     1
  9
$MAXACTVP
 70
    16
  9
$PLIMCHECK
 70
     0
  9
$PEXTMIN
 10
1.0000000000000000E+020
 20
1.0000000000000000E+020
 30
1.0000000000000000E+020
  9
$PEXTMAX
 10
-1.0000000000000000E+020
 20
-1.0000000000000000E+020
 30
-1.0000000000000000E+020
  9
$PLIMMIN
 10
0.0
 20
0.0
  9
$PLIMMAX
 10
420.0
 20
297.0
  9
$UNITMODE
 70
     0
  9
$VISRETAIN
 70
     1
  9
$PLINEGEN
 70
     0
  9
$PSLTSCALE
 70
     1
  0
ENDSEC
  0
SECTION
  2
TABLES
  0
TABLE
  2
VPORT
 70
     3
  0
VPORT
  2
*ACTIVE
 70
     0
 10
0.0
 20
0.0
 11
1.0
 21
1.0
 12
-47.505711888219579
 22
2.001935989515033
 13
0.0
 23
0.0
 14
7.0
 24
7.0
 15
7.0
 25
7.0
 16
0.0
 26
0.0
 36
1.0
 17
0.0
 27
0.0
 37
0.0
 40
81.118692364208314
 41
1.5487804878048781
 42
50.0
 43
0.0
 44
0.0
 50
0.0
 51
0.0
 71
     0
 72
  2000
 73
     1
 74
     0
 75
     0
 76
     0
 77
     0
 78
     0
  0
ENDTAB
  0
TABLE
  2
LTYPE
 70
    16
  0
LTYPE
  2
CONTINUOUS
 70
     0
  3
Solid line
 72
    65
 73
     0
 40
0.0
  0
LTYPE
  2
CENTER2
 70
     0
  3
___ _ ___ _ ___ _ ___ _ ___ _ ___ _ ___ _ ___ _
 72
    65
 73
     4
 40
1.125
 49
0.75
 49
-0.125
 49
0.125
 49
-0.125
  0
LTYPE
  2
HIDDEN2
 70
     0
  3
_ _ _ _ _ _ _ _ _ _ _ _ _ _ _ _ _ _ _ _ _ _ _ _
 72
    65
 73
     2
 40
0.1875
 49
0.125
 49
-0.0625
  0
LTYPE
  2
PHANTOM2
 70
     0
  3
___ _ _ ___ _ _ ___ _ _ ___ _ _ ___ _ _ ___ _ _
 72
    65
 73
     6
 40
1.25
 49
0.625
 49
-0.125
 49
0.125
 49
-0.125
 49
0.125
 49
-0.125
  0
LTYPE
  2
CENTER
 70
     0
  3
____ _ ____ _ ____ _ ____ _ ____ _ ____ _ ____ 
 72
    65
 73
     4
 40
2.0
 49
1.25
 49
-0.25
 49
0.25
 49
-0.25
  0
LTYPE
  2
AMCONSTR
 70
     0
  3
_______________________
 72
    65
 73
     2
 40
9999.0
 49
9999.0
 49
0.0
  0
LTYPE
  2
HIDDEN
 70
     0
  3
Hidden __ __ __ __ __ __ __ __ __ __ __ __ __ _
 72
    65
 73
     2
 40
9.5249999999999986
 49
6.3499999999999979
 49
-3.174999999999998
  0
LTYPE
  2
AMZIGZAG2
 70
     0
  3
/\/-/\/-/\/-/\/-/\/-/\/
 72
    65
 73
     2
 40
0.4401
 49
0.0001
 49
-0.4400000000000001
  0
LTYPE
  2
ACANSTGB
 70
     0
  3
__ . . __ . .
 72
    65
 73
     6
 40
0.35433070866
 49
0.15748031496
 49
-0.03937007874
 49
0.03937007874
 49
-0.03937007874
 49
0.03937007874
 49
-0.03937007874
  0
LTYPE
  2
ACANSTGL
 70
     0
  3
_ _ _ _ _
 72
    65
 73
     2
 40
0.11811023622
 49
0.07874015748
 49
-0.03937007874
  0
ENDTAB
  0
TABLE
  2
LAYER
 70
     8
  0
LAYER
  2
0
 70
     0
 62
     7
  6
CONTINUOUS
  0
LAYER
  2
240
 70
     0
 62
     4
  6
CONTINUOUS
  0
LAYER
  2
DEFPOINTS
 70
     0
 62
     7
  6
CONTINUOUS
  0
LAYER
  2
245
 70
     0
 62
     2
  6
CENTER2
  0
LAYER
  2
241
 70
     0
 62
   211
  6
CONTINUOUS
  0
LAYER
  2
246
 70
     0
 62
     3
  6
PHANTOM2
  0
LAYER
  2
247
 70
     0
 62
    60
  6
CONTINUOUS
  0
LAYER
  2
250
 70
     0
 62
     3
  6
CONTINUOUS
  0
ENDTAB
  0
TABLE
  2
STYLE
 70
     5
  0
STYLE
  2
STANDARD
 70
     0
 40
0.0
 41
1.0
 50
0.0
 71
     0
 42
3.0
  3
romans.shx
  4
extfont.shx
  0
STYLE
  2
YOKO
 70
     0
 40
0.0
 41
1.0
 50
0.0
 71
     0
 42
3.0
  3
romans.shx
  4
extfont.shx
  0
STYLE
  2

 70
     1
 40
0.0
 41
1.0
 50
0.0
 71
     0
 42
3.0
  3
ltypeshp.shx
  4

  0
STYLE
  2
ACANSTS
 70
     0
 40
1.0
 41
1.0
 50
0.0
 71
     0
 42
3.0
  3
romans.shx
  4
extfont.shx
  0
STYLE
  2
ACANSGDT
 70
     0
 40
0.0
 41
1.0
 50
0.0
 71
     0
 42
3.0
  3
amgdtans.shx
  4

  0
ENDTAB
  0
TABLE
  2
VIEW
 70
     0
  0
ENDTAB
  0
TABLE
  2
UCS
 70
     0
  0
ENDTAB
  0
TABLE
  2
APPID
 70
    31
  0
APPID
  2
ACAD
 70
     0
  0
APPID
  2
GLOBAL
 70
     0
  0
APPID
  2
DETAIL
 70
     0
  0
APPID
  2
GRPNAME
 70
     0
  0
APPID
  2
GPARA
 70
     0
  0
APPID
  2
MCAD_NO_VIS
 70
     0
  0
APPID
  2
ACAD_TEMP_GRAPHIC
 70
     0
  0
APPID
  2
ACATTRIBSERVICES
 70
     0
  0
APPID
  2
GENIUS_GENSCREG_15
 70
     0
  0
APPID
  2
GENIUS_GENODEF_13
 70
     0
  0
APPID
  2
GENIUS_GENOBJ-N-SDF_13
 70
     0
  0
APPID
  2
GENIUS_GENREC_14
 70
     0
  0
APPID
  2
GENIUS_GENOBJ-N-REC_13
 70
     0
  0
APPID
  2
GENIUS_GENDIMSH_14
 70
     0
  0
APPID
  2
GENIUS_GENOBJ-N-DIM_13
 70
     0
  0
APPID
  2
GENIUS_GENDIM_13
 70
     0
  0
APPID
  2
GENIUS_GENDTOL_13
 70
     0
  0
APPID
  2
GENIUS_GENOLIS_13
 70
     0
  0
APPID
  2
GENIUS_GENOENT_13
 70
     0
  0
APPID
  2
GENIUS_GENOBJ-F-FEM_13
 70
     0
  0
APPID
  2
GENIUS_GENOREF_13
 70
     0
  0
APPID
  2
GENIUS_GEFFEM_13
 70
     0
  0
APPID
  2
GENIUS_GEFFEMP_13
 70
     0
  0
APPID
  2
AD_DRAW
 70
     0
  0
APPID
  2
DESIGNERASSEMBLIES
 70
     0
  0
APPID
  2
ACADM_DIM_EDIT
 70
     0
  0
APPID
  2
AMDT_DM_ADJ
 70
     0
  0
APPID
  2
GENIUS_GENOBJ-N-FIL_13
 70
     0
  0
APPID
  2
HATCH_TYPE
 70
     0
  0
APPID
  2
HATCH_DISPLAY
 70
     0
  0
APPID
  2
HATCH_DISTANCE
 70
     0
  0
ENDTAB
  0
TABLE
  2
DIMSTYLE
 70
     7
  0
DIMSTYLE
  2
BIGT
 70
     0
  3

  4

  5

  6

  7

 40
1.0
 41
2.2299999999999991
 42
0.5
 43
7.0
 44
1.0
 45
0.0
 46
0.0
 47
0.0
 48
0.01
140
2.799999999999998
141
0.0
142
0.0
143
25.399999999999999
144
1.0
145
0.0
146
1.0
147
1.0
 71
     0
 72
     0
 73
     0
 74
     0
 75
     0
 76
     0
 77
     3
 78
     9
170
     0
171
     2
172
     1
173
     0
174
     1
175
     0
176
   256
177
   256
178
    40
  0
DIMSTYLE
  2
AM_ANSI
 70
     0
  3

  4
mm
  5

  6

  7

 40
1.0
 41
0.1
 42
0.05
 43
0.5
 44
0.1
 45
0.0
 46
0.0
 47
0.1
 48
0.1
140
0.12
141
0.0
142
0.0
143
25.399999999999999
144
1.0
145
0.0
146
0.71
147
0.06
 71
     0
 72
     0
 73
     1
 74
     1
 75
     0
 76
     0
 77
     0
 78
     7
170
     0
171
     2
172
     0
173
     0
174
     0
175
     0
176
   256
177
   256
178
     2
  0
DIMSTYLE
  2
AM_ANSI$3
 70
     0
  3

  4
mm
  5

  6

  7

 40
1.0
 41
0.1
 42
0.05
 43
0.5
 44
0.1
 45
0.0
 46
0.0
 47
0.1
 48
0.1
140
0.12
141
0.0
142
0.0
143
25.399999999999999
144
1.0
145
0.0
146
0.71
147
0.06
 71
     0
 72
     0
 73
     1
 74
     1
 75
     0
 76
     0
 77
     0
 78
     7
170
     0
171
     2
172
     0
173
     0
174
     0
175
     0
176
   256
177
   256
178
     2
  0
DIMSTYLE
  2
AM_ANSI$4
 70
     0
  3

  4
mm
  5

  6

  7

 40
1.0
 41
0.1
 42
0.05
 43
0.5
 44
0.1
 45
0.0
 46
0.0
 47
0.1
 48
0.1
140
0.12
141
0.0
142
0.0
143
25.399999999999999
144
1.0
145
0.0
146
0.71
147
0.06
 71
     0
 72
     0
 73
     1
 74
     1
 75
     0
 76
     0
 77
     0
 78
     7
170
     0
171
     2
172
     0
173
     0
174
     0
175
     0
176
   256
177
   256
178
     2
  0
DIMSTYLE
  2
AM_ANSI$7
 70
     0
  3

  4
mm
  5

  6

  7

 40
1.0
 41
0.1
 42
0.05
 43
0.5
 44
0.1
 45
0.0
 46
0.0
 47
0.1
 48
0.1
140
0.24
141
0.0
142
0.0
143
25.399999999999999
144
1.0
145
0.0
146
0.71
147
0.06
 71
     0
 72
     0
 73
     1
 74
     1
 75
     0
 76
     0
 77
     0
 78
     7
170
     0
171
     2
172
     0
173
     0
174
     0
175
     0
176
   256
177
   256
178
     2
  0
DIMSTYLE
  2
AM_ANSI$SF
 70
     0
  3

  4
mm
  5

  6

  7

 40
1.0
 41
0.1
 42
0.05
 43
0.5
 44
0.1
 45
0.0
 46
0.0
 47
0.1
 48
0.1
140
0.12
141
0.0
142
0.0
143
25.399999999999999
144
1.0
145
0.0
146
0.71
147
0.06
 71
     0
 72
     0
 73
     1
 74
     1
 75
     1
 76
     1
 77
     0
 78
     7
170
     0
171
     2
172
     0
173
     0
174
     0
175
     0
176
   256
177
   256
178
     2
  0
DIMSTYLE
  2
AM_ANSI$SH
 70
     0
  3

  4
mm
  5

  6
GENAXEH
  7

 40
1.0
 41
0.1
 42
0.05
 43
0.5
 44
0.1
 45
0.0
 46
0.0
 47
0.1
 48
0.1
140
0.12
141
0.0
142
0.0
143
25.399999999999999
144
1.0
145
0.0
146
0.71
147
0.06
 71
     0
 72
     0
 73
     1
 74
     1
 75
     1
 76
     1
 77
     0
 78
     7
170
     0
171
     2
172
     0
173
     1
174
     0
175
     0
176
   256
177
   256
178
     2
  0
ENDTAB
  0
ENDSEC
  0
SECTION
  2
BLOCKS
  0
BLOCK
  8
0
  2
$MODEL_SPACE
 70
     0
 10
0.0
 20
0.0
 30
0.0
  3
$MODEL_SPACE
  1

  0
ENDBLK
  5
1A34
  8
0
  0
BLOCK
 67
     1
  8
0
  2
$PAPER_SPACE
 70
     0
 10
0.0
 20
0.0
 30
0.0
  3
$PAPER_SPACE
  1

  0
ENDBLK
  5
1A30
 67
     1
  8
0
  0
BLOCK
  8
0
  2
_OPEN
 70
     0
 10
0.0
 20
0.0
 30
0.0
  3
_OPEN
  1

  0
LINE
  5
19A9
  8
0
  6
BYBLOCK
 62
     0
 10
-1.0
 20
0.1666666666666666
 30
0.0
 11
0.0
 21
0.0
 31
0.0
  0
LINE
  5
19AA
  8
0
  6
BYBLOCK
 62
     0
 10
-1.0
 20
-0.1666666666666666
 30
0.0
 11
0.0
 21
0.0
 31
0.0
  0
LINE
  5
19AB
  8
0
  6
BYBLOCK
 62
     0
 10
0.0
 20
0.0
 30
0.0
 11
-1.0
 21
0.0
 31
0.0
  0
ENDBLK
  5
19AC
  8
0
  0
BLOCK
  8
0
  2
GENAXEH
 70
     0
 10
0.0
 20
0.0
 30
0.0
  3
GENAXEH
  1

  0
LINE
  5
19D4
  8
0
 10
-1.0
 20
0.0
 30
0.0
 11
1.0
 21
0.0
 31
0.0
  0
ENDBLK
  5
19D5
  8
0
  0
BLOCK
  8
0
  2
A$C56AE539B
 70
     0
 10
0.0
 20
0.0
 30
0.0
  3
A$C56AE539B
  1

  0
LINE
  5
1C35
  8
247
 10
-92.763748600502296
 20
-2.269338829965676
 30
0.0
 11
-91.874376592219647
 21
-1.3799668216830141
 31
0.0
  0
LINE
  5
1C36
  8
247
 10
-92.800224386015728
 20
-2.5644459917658802
 30
0.0
 11
-92.529223255043661
 21
-2.2934448607937981
 31
0.0
  0
LINE
  5
1C37
  8
247
 10
-91.850270561391525
 20
-1.614492167141669
 30
0.0
 11
-91.579269430419444
 21
-1.3434910361695871
 31
0.0
  0
LINE
  5
1C38
  8
247
 10
-92.777491025891237
 20
-2.8003440079281812
 30
0.0
 11
-92.567122649125409
 21
-2.5899756311623521
 31
0.0
  0
LINE
  5
1C39
  8
247
 10
-91.55344209193467
 20
-1.576295073971594
 30
0.0
 11
-91.320637404434677
 21
-1.3434903864715999
 31
0.0
  0
LINE
  5
1C3A
  8
247
 10
-92.719925829111304
 20
-3.0014101874350341
 30
0.0
 11
-92.535088316163296
 21
-2.8165726744870421
 31
0.0
  0
LINE
  5
1C3B
  8
247
 10
-91.294810715647884
 20
-1.576295073971594
 30
0.0
 11
-91.11140227083186
 21
-1.3928866291555979
 31
0.0
  0
LINE
  5
1C3C
  8
247
 10
-92.636559396208085
 20
-3.1766751308186221
 30
0.0
 11
-92.464661027982984
 21
-3.0047767625935151
 31
0.0
  0
LINE
  5
1C3D
  8
247
 10
-92.531541919346296
 20
-3.3302890302436179
 30
0.0
 11
-92.365695292695889
 21
-3.1644424035932142
 31
0.0
  0
LINE
  5
1C3E
  8
247
 10
-92.406702993733816
 20
-3.464081480917919
 30
0.0
 11
-92.241919723064683
 21
-3.2992982102487991
 31
0.0
  0
LINE
  5
1C3F
  8
247
 10
-92.262356415304879
 20
-3.5783662787757748
 30
0.0
 11
-92.093940905537906
 21
-3.4099507690088151
 31
0.0
  0
LINE
  5
1C40
  8
247
 10
-92.097420765570746
 20
-3.6720620053284292
 30
0.0
 11
-91.919628665076644
 21
-3.4942699048343542
 31
0.0
  0
LINE
  5
1C41
  8
247
 10
-91.908982785376267
 20
-3.7422554014207501
 30
0.0
 11
-91.712641945041369
 21
-3.545914561085858
 31
0.0
  0
LINE
  5
1C42
  8
247
 10
-91.69080230874836
 20
-3.782706301079636
 30
0.0
 11
-91.463213621923515
 21
-3.555117614254804
 31
0.0
  0
LINE
  5
1C43
  8
247
 10
-91.437386927145241
 20
-3.7879222957632961
 30
0.0
 11
-91.204582245636743
 21
-3.555117614254804
 31
0.0
  0
LINE
  5
1C44
  8
247
 10
-91.178755550858426
 20
-3.7879222957632961
 30
0.0
 11
-90.945950869349957
 21
-3.555117614254804
 31
0.0
  0
LINE
  5
1C45
  8
247
 10
-90.920124174571669
 20
-3.7879222957632961
 30
0.0
 11
-90.687319493063157
 21
-3.555117614254804
 31
0.0
  0
LINE
  5
1C46
  8
247
 10
-90.661492798284854
 20
-3.7879222957633032
 30
0.0
 11
-90.428688116776371
 21
-3.5551176142548111
 31
0.0
  0
LINE
  5
1C47
  8
247
 10
-90.402861421998068
 20
-3.7879222957633032
 30
0.0
 11
-90.170056740489585
 21
-3.555117614254804
 31
0.0
  0
LINE
  5
1C48
  8
247
 10
-90.144230045711282
 20
-3.7879222957632961
 30
0.0
 11
-89.911425364202785
 21
-3.555117614254804
 31
0.0
  0
LINE
  5
1C49
  8
247
 10
-89.885598669424482
 20
-3.7879222957632961
 30
0.0
 11
-89.652793987915985
 21
-3.555117614254804
 31
0.0
  0
LINE
  5
1C4A
  8
247
 10
-89.62696729313771
 20
-3.7879222957632961
 30
0.0
 11
-89.394162611629213
 21
-3.555117614254804
 31
0.0
  0
LINE
  5
1C4B
  8
247
 10
-89.368335916850924
 20
-3.7879222957632961
 30
0.0
 11
-89.135531235342427
 21
-3.555117614254804
 31
0.0
  0
LINE
  5
1C4C
  8
247
 10
-87.115902677909446
 20
-1.535489056821818
 30
0.0
 11
-86.926148991297609
 21
-1.345735370210003
 31
0.0
  0
LINE
  5
1C4D
  8
247
 10
-89.109704540564096
 20
-3.7879222957633032
 30
0.0
 11
-88.876899859055612
 21
-3.555117614254804
 31
0.0
  0
LINE
  5
1C4E
  8
247
 10
-86.899198784779969
 20
-1.5774165399791551
 30
0.0
 11
-86.677769835267625
 21
-1.3559875904668111
 31
0.0
  0
LINE
  5
1C4F
  8
247
 10
-88.851073164277324
 20
-3.7879222957632961
 30
0.0
 11
-88.618268482768826
 21
-3.555117614254804
 31
0.0
  0
LINE
  5
1C50
  8
247
 10
-86.658560550792686
 20
-1.595409682278671
 30
0.0
 11
-86.468425200913359
 21
-1.405274332399338
 31
0.0
  0
LINE
  5
1C51
  8
247
 10
-88.592441787990538
 20
-3.7879222957632961
 30
0.0
 11
-88.35963710648204
 21
-3.555117614254804
 31
0.0
  0
LINE
  5
1C52
  8
247
 10
-86.461276633115943
 20
-1.656757140888715
 30
0.0
 11
-86.286669085550386
 21
-1.482149593323151
 31
0.0
  0
LINE
  5
1C53
  8
247
 10
-88.333810411703737
 20
-3.7879222957633032
 30
0.0
 11
-88.101005730195226
 21
-3.5551176142547969
 31
0.0
  0
LINE
  5
1C54
  8
247
 10
-86.294365764952758
 20
-1.7484776490123091
 30
0.0
 11
-86.127406658397405
 21
-1.5815185424569571
 31
0.0
  0
LINE
  5
1C55
  8
247
 10
-88.075179035416951
 20
-3.7879222957633032
 30
0.0
 11
-87.842374353908454
 21
-3.555117614254812
 31
0.0
  0
LINE
  5
1C56
  8
247
 10
-86.152914254645097
 20
-1.86565751499147
 30
0.0
 11
-85.988296456309754
 21
-1.701039716656112
 31
0.0
  0
LINE
  5
1C57
  8
247
 10
-87.816547659130165
 20
-3.7879222957633041
 30
0.0
 11
-87.583742977621654
 21
-3.5551176142548049
 31
0.0
  0
LINE
  5
1C58
  8
247
 10
-86.035572828824456
 20
-2.0069474654575941
 30
0.0
 11
-85.868645285875004
 21
-1.8400199225081431
 31
0.0
  0
LINE
  5
1C59
  8
247
 10
-87.557916282843365
 20
-3.787922295763297
 30
0.0
 11
-87.325111601334868
 21
-3.5551176142548049
 31
0.0
  0
LINE
  5
1C5A
  8
247
 10
-85.943672118508516
 20
-2.173678131428439
 30
0.0
 11
-85.769136920767053
 21
-1.9991429336869979
 31
0.0
  0
LINE
  5
1C5B
  8
247
 10
-87.299284906556565
 20
-3.787922295763297
 30
0.0
 11
-87.066480225048082
 21
-3.5551176142548049
 31
0.0
  0
LINE
  5
1C5C
  8
247
 10
-85.882094033161195
 20
-2.370731422367911
 30
0.0
 11
-85.692099554832481
 21
-2.180736944039205
 31
0.0
  0
LINE
  5
1C5D
  8
247
 10
-87.040653530269793
 20
-3.7879222957633041
 30
0.0
 11
-86.806811343335141
 21
-3.5540801088286509
 31
0.0
  0
LINE
  5
1C5E
  8
247
 10
-85.863730039919204
 20
-2.61099880541272
 30
0.0
 11
-85.642602555318334
 21
-2.3898713208118219
 31
0.0
  0
LINE
  5
1C5F
  8
247
 10
-86.779886449749156
 20
-3.7857865915294662
 30
0.0
 11
-86.474206274063874
 21
-3.4801064158441979
 31
0.0
  0
LINE
  5
1C60
  8
247
 10
-85.937703732903657
 20
-2.9436038746839821
 30
0.0
 11
-85.632023557218389
 21
-2.63792369899872
 31
0.0
  0
LINE
  5
1C61
  8
247
 10
-86.458163061084903
 20
-3.7226945791520141
 30
0.0
 11
-85.695115569595856
 21
-2.9596470876629519
 31
0.0
  0
LINE
  5
1C62
  8
247
 10
-89.275643009480447
 20
-1.3675470018117231
 30
0.0
 11
-89.251586394140347
 21
-1.3434903864715999
 31
0.0
  0
LINE
  5
1C63
  8
247
 10
-89.260773066007914
 20
-1.6113084346259761
 30
0.0
 11
-88.992955017853546
 21
-1.3434903864716079
 31
0.0
  0
LINE
  5
1C64
  8
247
 10
-89.364749958772862
 20
-1.973916703677709
 30
0.0
 11
-88.734323641566746
 21
-1.3434903864715999
 31
0.0
  0
LINE
  5
1C65
  8
247
 10
-89.468726851537795
 20
-2.336524972729435
 30
0.0
 11
-88.738699463594571
 21
-1.6064975847862191
 31
0.0
  0
LINE
  5
1C66
  8
247
 10
-89.572703744302714
 20
-2.6991332417811691
 30
0.0
 11
-88.842674937412028
 21
-1.96910443489047
 31
0.0
  0
LINE
  5
1C67
  8
247
 10
-89.676680637067648
 20
-3.061741510832888
 30
0.0
 11
-88.946650411229484
 21
-2.331711284994713
 31
0.0
  0
LINE
  5
1C68
  8
247
 10
-89.780657529832581
 20
-3.4243497798846092
 30
0.0
 11
-89.050625885046941
 21
-2.6943181350989551
 31
0.0
  0
LINE
  5
1C69
  8
247
 10
-89.53639164416596
 20
-3.438715270504773
 30
0.0
 11
-89.154601358864383
 21
-3.056924985203203
 31
0.0
  0
LINE
  5
1C6A
  8
247
 10
-89.277760267879174
 20
-3.438715270504773
 30
0.0
 11
-89.258576832681825
 21
-3.419531835307438
 31
0.0
  0
LINE
  5
1C6B
  8
247
 10
-88.687660771896276
 20
-2.072721645661495
 30
0.0
 11
-87.962141039096394
 21
-1.3472019128616231
 31
0.0
  0
LINE
  5
1C6C
  8
247
 10
-88.773524532307533
 20
-2.4172167823595552
 30
0.0
 11
-87.718795011844463
 21
-1.3624872618964901
 31
0.0
  0
LINE
  5
1C6D
  8
247
 10
-88.810171259103925
 20
-2.712494885442732
 30
0.0
 11
-88.051072476166595
 21
-1.953396102505387
 31
0.0
  0
LINE
  5
1C6E
  8
247
 10
-87.704866667617623
 20
-1.6071902939564291
 30
0.0
 11
-87.530544104134933
 21
-1.4328677304737381
 31
0.0
  0
LINE
  5
1C6F
  8
247
 10
-88.769026868707584
 20
-2.929981871333176
 30
0.0
 11
-88.155049308991465
 21
-2.316004311617065
 31
0.0
  0
LINE
  5
1C70
  8
247
 10
-87.556364038665166
 20
-1.7173190412907871
 30
0.0
 11
-87.270698902602476
 21
-1.431653905228083
 31
0.0
  0
LINE
  5
1C71
  8
247
 10
-88.683111187344295
 20
-3.102697566256694
 30
0.0
 11
-88.259026141816364
 21
-2.6786125207287501
 31
0.0
  0
LINE
  5
1C72
  8
247
 10
-87.232934060665343
 20
-1.652520439577728
 30
0.0
 11
-87.208695461818706
 21
-1.6282818407310931
 31
0.0
  0
LINE
  5
1C73
  8
247
 10
-88.563445493647833
 20
-3.2416632488470269
 30
0.0
 11
-88.31688800142382
 21
-2.9951057566230062
 31
0.0
  0
LINE
  5
1C74
  8
247
 10
-87.806005053147402
 20
-2.4842228083465949
 30
0.0
 11
-87.573200365647395
 21
-2.2514181208465951
 31
0.0
  0
LINE
  5
1C75
  8
247
 10
-88.411940828264846
 20
-3.3487899597508242
 30
0.0
 11
-88.208661461962706
 21
-3.14551059344867
 31
0.0
  0
LINE
  5
1C76
  8
247
 10
-87.753920592262944
 20
-2.6907697237489221
 30
0.0
 11
-87.314568989360623
 21
-2.2514181208466031
 31
0.0
  0
LINE
  5
1C77
  8
247
 10
-88.223948063993205
 20
-3.41942857176597
 30
0.0
 11
-87.950631549820102
 21
-3.146112057592874
 31
0.0
  0
LINE
  5
1C78
  8
247
 10
-87.871237153654988
 20
-3.0667176614277469
 30
0.0
 11
-87.178796037444044
 21
-2.3742765452168011
 31
0.0
  0
LINE
  5
1C79
  8
247
 10
-87.981072998172067
 20
-3.435184882231618
 30
0.0
 11
-87.282772516838151
 21
-2.736884400897702
 31
0.0
  0
LINE
  5
1C7A
  8
247
 10
-87.604999876907442
 20
-3.317743137253792
 30
0.0
 11
-87.386748996232257
 21
-3.0994922565786069
 31
0.0
  0
LINE
  5
1C7B
  8
247
 10
-88.663283629463763
 20
-1.343490386471603
 30
0.0
 11
-89.268744566963719
 21
-1.343490386471603
 31
0.0
1001
HATCH_DISTANCE
1040
1.0
1001
HATCH_DISPLAY
1070
     0
1001
HATCH_TYPE
1070
     7
  0
LINE
  5
1C7C
  8
247
 10
-89.264077574776266
 20
-3.4387152705047761
 30
0.0
 11
-88.663283629463763
 21
-1.343490386471603
 31
0.0
1001
HATCH_DISTANCE
1040
1.0
1001
HATCH_DISPLAY
1070
     0
1001
HATCH_TYPE
1070
     7
  0
LINE
  5
1C7D
  8
247
 10
-89.784776793526277
 20
-3.4387152705047761
 30
0.0
 11
-89.264077574776266
 21
-3.4387152705047761
 31
0.0
1001
HATCH_DISTANCE
1040
1.0
1001
HATCH_DISPLAY
1070
     0
1001
HATCH_TYPE
1070
     7
  0
LINE
  5
1C7E
  8
247
 10
-89.257406676338718
 20
-1.5995685114715901
 30
0.0
 11
-89.784776793526277
 21
-3.4387152705047761
 31
0.0
1001
HATCH_DISTANCE
1040
1.0
1001
HATCH_DISPLAY
1070
     0
1001
HATCH_TYPE
1070
     7
  0
LINE
  5
1C7F
  8
247
 10
-89.342177184151225
 20
-1.5995685114715901
 30
0.0
 11
-89.257406676338718
 21
-1.5995685114715901
 31
0.0
1001
HATCH_DISTANCE
1040
1.0
1001
HATCH_DISPLAY
1070
     0
1001
HATCH_TYPE
1070
     7
  0
LINE
  5
1C80
  8
247
 10
-89.268744566963719
 20
-1.343490386471603
 30
0.0
 11
-89.342177184151225
 21
-1.5995685114715901
 31
0.0
1001
HATCH_DISTANCE
1040
1.0
1001
HATCH_DISPLAY
1070
     0
1001
HATCH_TYPE
1070
     7
  0
LINE
  5
1C81
  8
247
 10
-88.663283629463763
 20
-1.343490386471603
 30
0.0
 11
-89.268744566963719
 21
-1.343490386471603
 31
0.0
  0
LINE
  5
1C82
  8
247
 10
-89.264077574776266
 20
-3.4387152705047761
 30
0.0
 11
-88.663283629463763
 21
-1.343490386471603
 31
0.0
  0
LINE
  5
1C83
  8
247
 10
-89.784776793526277
 20
-3.4387152705047761
 30
0.0
 11
-89.264077574776266
 21
-3.4387152705047761
 31
0.0
  0
LINE
  5
1C84
  8
247
 10
-89.257406676338718
 20
-1.5995685114715901
 30
0.0
 11
-89.784776793526277
 21
-3.4387152705047761
 31
0.0
  0
LINE
  5
1C85
  8
247
 10
-89.342177184151225
 20
-1.5995685114715901
 30
0.0
 11
-89.257406676338718
 21
-1.5995685114715901
 31
0.0
  0
LINE
  5
1C86
  8
247
 10
-89.268744566963719
 20
-1.343490386471603
 30
0.0
 11
-89.342177184151225
 21
-1.5995685114715901
 31
0.0
  0
LINE
  5
1C87
  8
247
 10
-87.093601012276267
 20
-1.6062130427215939
 30
0.0
 11
-87.093601012276267
 21
-1.6062130427215939
 31
0.0
1001
HATCH_DISTANCE
1040
1.0
1001
HATCH_DISPLAY
1070
     0
1001
HATCH_TYPE
1070
     7
  0
LINE
  5
1C88
  8
247
 10
-87.163711363838743
 20
-1.383876128659113
 30
0.0
 11
-87.093601012276267
 21
-1.6062130427215939
 31
0.0
1001
HATCH_DISTANCE
1040
1.0
1001
HATCH_DISPLAY
1070
     0
1001
HATCH_TYPE
1070
     7
  0
LINE
  5
1C89
  8
247
 10
-87.163711363838743
 20
-1.383876128659113
 30
0.0
 11
-87.163711363838743
 21
-1.383876128659113
 31
0.0
1001
HATCH_DISTANCE
1040
1.0
1001
HATCH_DISPLAY
1070
     0
1001
HATCH_TYPE
1070
     7
  0
LINE
  5
1C8A
  8
247
 10
-87.093601012276267
 20
-1.6062130427215939
 30
0.0
 11
-87.163711363838743
 21
-1.383876128659113
 31
0.0
1001
HATCH_DISTANCE
1040
1.0
1001
HATCH_DISPLAY
1070
     0
1001
HATCH_TYPE
1070
     7
  0
LINE
  5
1C8B
  8
247
 10
-87.093601012276267
 20
-1.6062130427215939
 30
0.0
 11
-87.093601012276267
 21
-1.6062130427215939
 31
0.0
  0
LINE
  5
1C8C
  8
247
 10
-87.163711363838743
 20
-1.383876128659113
 30
0.0
 11
-87.093601012276267
 21
-1.6062130427215939
 31
0.0
  0
LINE
  5
1C8D
  8
247
 10
-87.163711363838743
 20
-1.383876128659113
 30
0.0
 11
-87.163711363838743
 21
-1.383876128659113
 31
0.0
  0
LINE
  5
1C8E
  8
247
 10
-87.093601012276267
 20
-1.6062130427215939
 30
0.0
 11
-87.163711363838743
 21
-1.383876128659113
 31
0.0
  0
LINE
  5
1C8F
  8
247
 10
-87.093601012276267
 20
-1.6062130427215939
 30
0.0
 11
-87.093601012276267
 21
-1.6062130427215939
 31
0.0
1001
HATCH_DISTANCE
1040
1.0
1001
HATCH_DISPLAY
1070
     0
1001
HATCH_TYPE
1070
     7
  0
LINE
  5
1C90
  8
247
 10
-87.163711363838743
 20
-1.383876128659113
 30
0.0
 11
-87.093601012276267
 21
-1.6062130427215939
 31
0.0
1001
HATCH_DISTANCE
1040
1.0
1001
HATCH_DISPLAY
1070
     0
1001
HATCH_TYPE
1070
     7
  0
LINE
  5
1C91
  8
247
 10
-87.163711363838743
 20
-1.383876128659113
 30
0.0
 11
-87.163711363838743
 21
-1.383876128659113
 31
0.0
1001
HATCH_DISTANCE
1040
1.0
1001
HATCH_DISPLAY
1070
     0
1001
HATCH_TYPE
1070
     7
  0
LINE
  5
1C92
  8
247
 10
-87.093601012276267
 20
-1.6062130427215939
 30
0.0
 11
-87.163711363838743
 21
-1.383876128659113
 31
0.0
1001
HATCH_DISTANCE
1040
1.0
1001
HATCH_DISPLAY
1070
     0
1001
HATCH_TYPE
1070
     7
  0
LINE
  5
1C93
  8
247
 10
-87.093601012276267
 20
-1.6062130427215939
 30
0.0
 11
-87.093601012276267
 21
-1.6062130427215939
 31
0.0
  0
LINE
  5
1C94
  8
247
 10
-87.163711363838743
 20
-1.383876128659113
 30
0.0
 11
-87.093601012276267
 21
-1.6062130427215939
 31
0.0
  0
LINE
  5
1C95
  8
247
 10
-87.163711363838743
 20
-1.383876128659113
 30
0.0
 11
-87.163711363838743
 21
-1.383876128659113
 31
0.0
  0
LINE
  5
1C96
  8
247
 10
-87.093601012276267
 20
-1.6062130427215939
 30
0.0
 11
-87.163711363838743
 21
-1.383876128659113
 31
0.0
  0
ARC
  5
1C97
  8
240
 10
-3.452692473525615
 20
5.8000000000000114
 30
0.0
 40
0.2
 50
45.00001228314246
 51
135.00002049964721
1001
GENIUS_GENODEF_13
1002
{
1000
HIER
1070
     0
1002
}
1002
{
1000
MANEDIT
1070
     0
1002
}
1002
{
1000
NOSEL
1070
     0
1002
}
1002
{
1000
BEHIND
1070
     0
1002
}
1002
{
1000
OTHER
1070
     0
1002
}
1002
{
1000
REACTOR
1002
}
1001
GENIUS_GENOBJ-N-FIL_13
1002
{
1000
OWNER
1000
GEN
1002
}
  0
ARC
  5
1C98
  8
240
 10
-0.1999999999999886
 20
2.5473089211170921
 30
0.0
 40
0.2
 50
314.99998770022319
 51
45.000012299781382
1001
GENIUS_GENOREF_13
1005
1CF7
1005
1CF6
1001
GENIUS_GENOBJ-N-FIL_13
1002
{
1000
OWNER
1000
GEN
1002
}
1001
GENIUS_GENODEF_13
1002
{
1000
HIER
1070
     0
1002
}
1002
{
1000
MANEDIT
1070
     0
1002
}
1002
{
1000
NOSEL
1070
     0
1002
}
1002
{
1000
BEHIND
1070
     0
1002
}
1002
{
1000
OTHER
1070
     0
1002
}
1002
{
1000
REACTOR
1002
}
  0
ARC
  5
1C99
  8
240
 10
-3.4526924735147002
 20
-0.7053821539871592
 30
0.0
 40
0.2
 50
224.99997950035399
 51
314.99998770021853
1001
GENIUS_GENODEF_13
1002
{
1000
HIER
1070
     0
1002
}
1002
{
1000
MANEDIT
1070
     0
1002
}
1002
{
1000
NOSEL
1070
     0
1002
}
1002
{
1000
BEHIND
1070
     0
1002
}
1002
{
1000
OTHER
1070
     0
1002
}
1002
{
1000
REACTOR
1002
}
1001
GENIUS_GENOBJ-N-FIL_13
1002
{
1000
OWNER
1000
GEN
1002
}
  0
ARC
  5
1C9A
  8
240
 10
-6.7053812229728447
 20
2.5473089230064541
 30
0.0
 40
0.2
 50
135.00002049964721
 51
224.99997950035279
1001
GENIUS_GENODEF_13
1002
{
1000
HIER
1070
     0
1002
}
1002
{
1000
MANEDIT
1070
     0
1002
}
1002
{
1000
NOSEL
1070
     0
1002
}
1002
{
1000
BEHIND
1070
     0
1002
}
1002
{
1000
OTHER
1070
     0
1002
}
1002
{
1000
REACTOR
1002
}
1001
GENIUS_GENOBJ-N-FIL_13
1002
{
1000
OWNER
1000
GEN
1002
}
  0
LINE
  5
1C9B
  8
240
 10
-0.0585786741218328
 20
2.688730307713568
 30
0.0
 11
-3.311271147606389
 21
5.9414213865554171
 31
0.0
1001
GENIUS_GENOREF_13
1005
1CF7
1005
1CF6
  0
LINE
  5
1C9C
  8
240
 10
-3.5941138803615318
 20
5.9414213056386691
 30
0.0
 11
-6.8468026298087619
 21
2.6887302286451118
 31
0.0
  0
LINE
  5
1C9D
  8
240
 10
-0.0585786741218328
 20
2.4058875345206441
 30
0.0
 11
-3.3112711476365462
 21
-0.8468035405836361
 31
0.0
  0
LINE
  5
1C9E
  8
240
 10
-3.5941138803506192
 20
-0.8468034596258462
 30
0.0
 11
-6.8468026298087619
 21
2.4058876173677941
 31
0.0
  0
CIRCLE
  5
1C9F
  8
246
 10
-3.4526915425006162
 20
2.54730892300651
 30
0.0
 40
2.499999753065393
  0
LINE
  5
1CA0
  8
241
 10
-35.181350438692483
 20
-3.6999999999999882
 30
0.0
 11
-35.181350438692483
 21
3.6999999999999882
 31
0.0
  0
ARC
  5
1CA1
  8
240
 10
-0.6531472084169537
 20
-2.5400059941335358
 30
0.0
 40
0.4000000000000021
 50
313.99999999999778
 51
0.0
  0
LINE
  5
1CA2
  8
240
 10
-1.3820865808358731
 20
-3.80000000000001
 30
0.0
 11
-0.3752838602333952
 21
-2.8277419142689819
 31
0.0
  0
ARC
  5
1CA3
  8
240
 10
-5.9105792254617882
 20
-4.4000000000000332
 30
0.0
 40
0.6999999999999889
 50
58.997280866124051
 51
90.0
  0
LINE
  5
1CA4
  8
240
 10
-5.5500240979153821
 20
-3.80000000000001
 30
0.0
 11
-1.3820865808358731
 21
-3.80000000000001
 31
0.0
  0
LINE
  5
1CA5
  8
241
 10
-1.3820865808358731
 20
-0.0000000000000568
 30
0.0
 11
-1.3820865808358731
 21
-3.80000000000001
 31
0.0
  0
LINE
  5
1CA6
  8
241
 10
-5.5500240979153821
 20
-0.0000000000000568
 30
0.0
 11
-5.5500240979153821
 21
-3.80000000000001
 31
0.0
  0
LINE
  5
1CA7
  8
240
 10
-0.2531472084170048
 20
-2.5400059941335358
 30
0.0
 11
-0.2531472084183122
 21
2.1642707248245752
 31
0.0
  0
LINE
  5
1CA8
  8
241
 10
-5.9105792254618148
 20
-3.6999999999999882
 30
0.0
 11
-5.9105792254618148
 21
0.9974386731591378
 31
0.0
  0
LINE
  5
1CA9
  8
240
 10
-8.0720850621191573
 20
3.6963456635183429
 30
0.0
 11
-7.97912669391033
 21
3.6033872953097998
 31
0.0
  0
LINE
  5
1CAA
  8
241
 10
-6.9042038939507782
 20
2.528464495353715
 30
0.0
 11
-7.9791266939097607
 21
3.6033872953087762
 31
0.0
  0
LINE
  5
1CAB
  8
240
 10
-7.9791266939106142
 20
3.6033872953097998
 30
0.0
 11
-5.8850984497984484
 21
3.6033872953102541
 31
0.0
  0
LINE
  5
1CAC
  8
240
 10
-37.181350438692469
 20
4.235898384862252
 30
0.0
 11
-38.504813258256519
 21
4.9999999999999432
 31
0.0
  0
ARC
  5
1CAD
  8
240
 10
-35.181350438692448
 20
-7.699999999999986
 30
0.0
 40
4.0
 50
90.0
 51
120.0000000000005
  0
LINE
  5
1CAE
  8
240
 10
-38.504813258256519
 20
-5.0
 30
0.0
 11
-37.181350438692469
 21
-4.235898384862308
 31
0.0
  0
LINE
  5
1CAF
  8
241
 10
-38.504813258256519
 20
-5.0
 30
0.0
 11
-38.504813258256519
 21
-0.0000000000000568
 31
0.0
  0
ARC
  5
1CB0
  8
240
 10
-35.181350438692448
 20
7.699999999999986
 30
0.0
 40
4.0
 50
240.0000000000002
 51
270.0
  0
LINE
  5
1CB1
  8
241
 10
-38.504813258256519
 20
-0.0000000000000568
 30
0.0
 11
-38.504813258256519
 21
4.9999999999999432
 31
0.0
  0
LINE
  5
1CB2
  8
240
 10
-8.0960807427063912
 20
3.6999999999999882
 30
0.0
 11
-35.181350438692483
 21
3.6999999999999882
 31
0.0
  0
LINE
  5
1CB3
  8
240
 10
-35.181350438692483
 20
-3.6999999999999882
 30
0.0
 11
-5.9105792254618148
 21
-3.6999999999999882
 31
0.0
  0
LINE
  5
1CB4
  8
240
 10
-96.253147208417005
 20
-4.0
 30
0.0
 11
-96.253147208417005
 21
-0.0000000000000568
 31
0.0
  0
LINE
  5
1CB5
  8
240
 10
-96.253147208417005
 20
-0.0000000000000568
 30
0.0
 11
-96.253147208417005
 21
3.9999999999999432
 31
0.0
  0
ARC
  5
1CB6
  8
240
 10
-95.253147208416991
 20
3.9999999999999432
 30
0.0
 40
1.0
 50
90.0
 51
180.0
  0
ARC
  5
1CB7
  8
240
 10
-95.253147208416991
 20
-4.0
 30
0.0
 40
1.0
 50
180.0
 51
270.0
  0
LINE
  5
1CB8
  8
240
 10
-38.504813258256519
 20
4.9999999999999432
 30
0.0
 11
-95.253147208416991
 21
4.9999999999999432
 31
0.0
  0
LINE
  5
1CB9
  8
240
 10
-95.253147208416991
 20
-5.0
 30
0.0
 11
-38.504813258256519
 21
-5.0
 31
0.0
  0
LINE
  5
1CBA
  8
245
 10
-99.031331679127291
 20
-0.0000000000000568
 30
0.0
 11
0.8217543243743817
 21
0.0
 31
0.0
  0
ARC
  5
1CBB
  8
247
 10
-87.887279723213723
 20
-2.100096831784088
 30
0.0
 40
0.7566075439453125
 50
53.444012197057717
 51
164.00018438768541
  0
LINE
  5
1CBC
  8
247
 10
-88.314138121651254
 20
-2.870809722409108
 30
0.0
 11
-88.000386168526234
 21
-1.776632964596603
 31
0.0
  0
ARC
  5
1CBD
  8
247
 10
-88.079162535713749
 20
-2.9381866755341139
 30
0.0
 40
0.2444446334838867
 50
164.00027305718231
 51
344.00027305718248
  0
ARC
  5
1CBE
  8
247
 10
-86.817141051338766
 20
-2.7218878474090951
 30
0.0
 40
1.9799648437499999
 50
155.20517736984061
 51
172.79482596205199
  0
ARC
  5
1CBF
  8
247
 10
-86.852103941963762
 20
-2.5657062067841032
 30
0.0
 40
0.9894138793945311
 50
110.8721834020734
 51
132.5419489373873
  0
ARC
  5
1CC0
  8
247
 10
-87.765410582588743
 20
-1.8440187067841001
 30
0.0
 40
0.2444448051452637
 50
1.7101213820627339
 51
163.998398354447
  0
ARC
  5
1CC1
  8
247
 10
-86.852103941963762
 20
-2.5657062067841032
 30
0.0
 40
1.222216369628905
 50
110.22964506332001
 51
118.57168892371649
  0
LINE
  5
1CC2
  8
247
 10
-87.204615660713728
 20
-1.641219878659099
 30
0.0
 11
-87.274726012276219
 21
-1.418882964596561
 31
0.0
  0
LINE
  5
1CC3
  8
247
 10
-87.093601012276267
 20
-1.6062130427215899
 30
0.0
 11
-87.163711363838743
 21
-1.383876128659113
 31
0.0
  0
LINE
  5
1CC4
  8
247
 10
-87.484019957588728
 20
-3.4387152705047761
 30
0.0
 11
-87.143566832588732
 21
-2.251418120846596
 31
0.0
  0
LINE
  5
1CC5
  8
247
 10
-87.821686949776264
 20
-2.251418120846596
 30
0.0
 11
-87.143566832588732
 21
-2.251418120846596
 31
0.0
  0
LINE
  5
1CC6
  8
247
 10
-87.888439879463732
 20
-2.4842228083465892
 30
0.0
 11
-87.821686949776264
 21
-2.251418120846596
 31
0.0
  0
LINE
  5
1CC7
  8
247
 10
-87.620584410713718
 20
-3.3021596064423151
 30
0.0
 11
-87.484019957588728
 21
-3.4387152705047761
 31
0.0
  0
LINE
  5
1CC8
  8
247
 10
-87.888439879463732
 20
-2.4842228083465892
 30
0.0
 11
-87.694693785713724
 21
-2.4842228083465892
 31
0.0
  0
LINE
  5
1CC9
  8
247
 10
-87.844186949776272
 20
-3.0055636286590879
 30
0.0
 11
-87.694693785713724
 21
-2.4842228083465892
 31
0.0
  0
ARC
  5
1CCA
  8
247
 10
-86.852103941963762
 20
-2.5657062067841032
 30
0.0
 40
0.9894111328124999
 50
270.0
 51
104.12743649641099
  0
ARC
  5
1CCB
  8
247
 10
-86.852103941963762
 20
-2.5657062067841032
 30
0.0
 40
1.2222158203124971
 50
270.0
 51
104.77079396609309
  0
LINE
  5
1CCC
  8
247
 10
-91.455850035713723
 20
-3.4387152705047761
 30
0.0
 11
-90.921809020088986
 21
-1.576295073972334
 31
0.0
  0
LINE
  5
1CCD
  8
247
 10
-91.187757818601952
 20
-2.5037676820729069
 30
0.0
 11
-90.372844741697435
 21
-1.688854605168433
 31
0.0
  0
ARC
  5
1CCE
  8
247
 10
-90.482461363838752
 20
-1.902219878659128
 30
0.0
 40
0.349197280883789
 50
261.66260168792928
 51
66.338155095190004
  0
LINE
  5
1CCF
  8
247
 10
-90.342314323402448
 20
-1.582379999917306
 30
0.0
 11
-90.533095147605948
 21
-2.2477266961288529
 31
0.0
  0
LINE
  5
1CD0
  8
247
 10
-89.784776793526277
 20
-3.4387152705047761
 30
0.0
 11
-89.257406676338718
 21
-1.5995685114715901
 31
0.0
  0
LINE
  5
1CD1
  8
247
 10
-90.49860907482369
 20
-2.590513067155046
 30
0.0
 11
-89.665522451387119
 21
-1.7574264437184151
 31
0.0
  0
LINE
  5
1CD2
  8
247
 10
-91.083781661154035
 20
-2.1411601483382192
 30
0.0
 11
-90.286111899287548
 21
-1.3434903864716881
 31
0.0
  0
ARC
  5
1CD3
  8
247
 10
-90.222735777901264
 20
-1.925493316159093
 30
0.0
 40
0.5820078735351563
 50
287.669577547399
 51
90.236159842671412
  0
LINE
  5
1CD4
  8
247
 10
-90.140719527007974
 20
-1.973992143052484
 30
0.0
 11
-89.751143357357279
 21
-1.5844159734017631
 31
0.0
  0
LINE
  5
1CD5
  8
247
 10
-90.979805503706146
 20
-1.778552614603472
 30
0.0
 11
-90.544743275574291
 21
-1.3434903864716561
 31
0.0
  0
LINE
  5
1CD6
  8
247
 10
-91.578009215401224
 20
-1.5762950739715951
 30
0.0
 11
-91.163991637276183
 21
-1.5762950739715951
 31
0.0
  0
LINE
  5
1CD7
  8
247
 10
-91.042904723213994
 20
-1.5762950739715951
 30
0.0
 11
-90.921809020088986
 21
-1.576295073972334
 31
0.0
  0
LINE
  5
1CD8
  8
247
 10
-90.170558478157176
 20
-1.745199717914931
 30
0.0
 11
-89.880268237996091
 21
-1.4549094777537861
 31
0.0
  0
LINE
  5
1CD9
  8
247
 10
-91.578009215401224
 20
-1.343490386471603
 30
0.0
 11
-91.097238707588701
 21
-1.343490386471603
 31
0.0
  0
LINE
  5
1CDA
  8
247
 10
-90.976151793526057
 20
-1.343490386471603
 30
0.0
 11
-90.225134671848338
 21
-1.3434903864716881
 31
0.0
  0
LINE
  5
1CDB
  8
247
 10
-90.976151793526057
 20
-1.343490386471603
 30
0.0
 11
-91.042904723213994
 21
-1.5762950739715951
 31
0.0
  0
LINE
  5
1CDC
  8
247
 10
-91.097238707588701
 20
-1.343490386471603
 30
0.0
 11
-91.163991637276183
 21
-1.5762950739715951
 31
0.0
  0
LINE
  5
1CDD
  8
247
 10
-91.036179339361055
 20
-1.5762950739716519
 30
0.0
 11
-90.803374651861063
 21
-1.3434903864716561
 31
0.0
  0
LINE
  5
1CDE
  8
247
 10
-90.292926441919008
 20
-1.608936305389973
 30
0.0
 11
-90.052828537559876
 21
-1.368838401030803
 31
0.0
  0
LINE
  5
1CDF
  8
247
 10
-89.342177184151225
 20
-1.5995685114715901
 30
0.0
 11
-89.257406676338718
 21
-1.5995685114715901
 31
0.0
  0
LINE
  5
1CE0
  8
247
 10
-89.342177184151225
 20
-1.5995685114715901
 30
0.0
 11
-89.268744566963719
 21
-1.343490386471603
 31
0.0
  0
LINE
  5
1CE1
  8
247
 10
-90.408328486163086
 20
-2.7588638547812141
 30
0.0
 11
-89.644952095047785
 21
-1.9954874636658659
 31
0.0
  0
ARC
  5
1CE2
  8
247
 10
-90.489756285713725
 20
-2.8567120661591221
 30
0.0
 40
0.5820029296875
 50
270.0
 51
40.329840654167469
  0
LINE
  5
1CE3
  8
247
 10
-91.291733976049855
 20
-2.8663752158076541
 30
0.0
 11
-90.476817467178336
 21
-2.0514587069360339
 31
0.0
  0
LINE
  5
1CE4
  8
247
 10
-91.395710133497815
 20
-3.2289827495423431
 30
0.0
 11
-90.410689099445378
 21
-2.2439617154899021
 31
0.0
  0
LINE
  5
1CE5
  8
247
 10
-91.455850035713723
 20
-3.4387152705047761
 30
0.0
 11
-90.489756285713725
 21
-3.4387152705047761
 31
0.0
  0
LINE
  5
1CE6
  8
247
 10
-90.829548525599932
 20
-3.4387152705047761
 30
0.0
 11
-89.975335195789214
 21
-2.584501940694127
 31
0.0
  0
ARC
  5
1CE7
  8
247
 10
-90.749481871651255
 20
-2.8334298395965791
 30
0.0
 40
0.3492072715759277
 50
261.66285421114787
 51
66.338192159113575
  0
LINE
  5
1CE8
  8
247
 10
-90.609332052648426
 20
-2.5135802706505661
 30
0.0
 11
-90.800116015437567
 21
-3.1789467017097639
 31
0.0
  0
LINE
  5
1CE9
  8
247
 10
-90.570917149313146
 20
-3.4387152705048001
 30
0.0
 11
-89.91275749438141
 21
-2.780555615573078
 31
0.0
  0
LINE
  5
1CEA
  8
247
 10
-91.088179901886718
 20
-3.4387152705047761
 30
0.0
 11
-90.788741189793257
 21
-3.1392765584113671
 31
0.0
  0
LINE
  5
1CEB
  8
247
 10
-91.346811278173419
 20
-3.4387152705047761
 30
0.0
 11
-90.684770389840452
 21
-2.776674382171807
 31
0.0
  0
LINE
  5
1CEC
  8
247
 10
-90.268649888856956
 20
-3.3950793863354409
 30
0.0
 11
-89.951388965537404
 21
-3.077818463015876
 31
0.0
  0
LINE
  5
1CED
  8
247
 10
-89.784776793526277
 20
-3.4387152705047761
 30
0.0
 11
-89.264077574776266
 21
-3.4387152705047761
 31
0.0
  0
ARC
  5
1CEE
  8
247
 10
-91.578009215401224
 20
-2.5657062067841032
 30
0.0
 40
1.2222158203124971
 50
89.999999999999986
 51
270.0
  0
ARC
  5
1CEF
  8
247
 10
-91.578009215401224
 20
-2.5657062067841032
 30
0.0
 40
0.9894111328124999
 50
89.999999999999986
 51
270.0
  0
ARC
  5
1CF0
  8
247
 10
-88.05416644196373
 20
-2.6821085505340991
 30
0.0
 40
0.756615234375
 50
163.99975070172911
 51
304.96387329163008
  0
LINE
  5
1CF1
  8
247
 10
-91.578009215401224
 20
-3.555117614254796
 30
0.0
 11
-86.852103941963762
 21
-3.555117614254796
 31
0.0
  0
LINE
  5
1CF2
  8
247
 10
-91.578009215401224
 20
-3.787922295763297
 30
0.0
 11
-86.852103941963762
 21
-3.787922295763297
 31
0.0
  0
LINE
  5
1CF3
  8
247
 10
-89.264077574776266
 20
-3.4387152705047761
 30
0.0
 11
-88.663283629463763
 21
-1.343490386471603
 31
0.0
  0
LINE
  5
1CF4
  8
247
 10
-89.268744566963719
 20
-1.343490386471603
 30
0.0
 11
-88.663283629463763
 21
-1.343490386471603
 31
0.0
  0
TEXT
  5
1CF5
  8
247
 10
-84.600996039937954
 20
-3.4911335718390601
 30
0.0
 40
2.0
  1
ST10-C0611-45B-35
 41
0.7
  7
YOKO
 11
-84.600996039937954
 21
-3.4911335718390601
 31
0.0
 73
     1
  0
POINT
  5
1CF6
  8
0
 10
-143.29777094328509
 20
-186.59680781787239
 30
0.0
1001
GENIUS_GENOENT_13
1002
{
1000
MYREF
1005
1CF6
1002
}
1002
{
1000
GRP
1005
0
1002
}
1001
GENIUS_GENOBJ-N-FIL_13
1002
{
1000
OWNER
1000
GEN
1002
}
1001
GENIUS_GENOLIS_13
1002
{
1000
ENT
1005
1C9B
1005
0
1002
}
1001
GENIUS_GENODEF_13
1002
{
1000
HIER
1070
     1
1002
}
1002
{
1000
MANEDIT
1070
     1
1002
}
1002
{
1000
NOSEL
1070
     0
1002
}
1002
{
1000
BEHIND
1070
     0
1002
}
1002
{
1000
OTHER
1070
     0
1002
}
1002
{
1000
REACTOR
1002
}
  0
POINT
  5
1CF7
  8
0
 10
-143.29777094328509
 20
-186.59680781787239
 30
0.0
1001
GENIUS_GENOBJ-N-FIL_13
1002
{
1000
OWNER
1000
GEN
1002
}
1001
GENIUS_GENOENT_13
1002
{
1000
MYREF
1005
1CF7
1002
}
1002
{
1000
GRP
1005
0
1002
}
1001
GENIUS_GENOLIS_13
1002
{
1000
ENT
1005
1C9B
1005
0
1002
}
1001
GENIUS_GENODEF_13
1002
{
1000
HIER
1070
     1
1002
}
1002
{
1000
MANEDIT
1070
     1
1002
}
1002
{
1000
NOSEL
1070
     0
1002
}
1002
{
1000
BEHIND
1070
     0
1002
}
1002
{
1000
OTHER
1070
     0
1002
}
1002
{
1000
REACTOR
1002
}
  0
ENDBLK
  5
1CF9
  8
0
  0
ENDSEC
  0
SECTION
  2
ENTITIES
  0
TEXT
  5
13FE
  8
241
 10
-98.0
 20
21.0
 30
0.0
 40
5.0
  1
ST10-C0611-45B-35
  7
YOKO
 11
-98.0
 21
21.0
 31
0.0
 73
     1
  0
LINE
  5
166B
  8
250
 10
-96.253147208417005
 20
-4.5
 30
0.0
 11
-96.253147208417005
 21
-22.0
 31
0.0
  0
LINE
  5
166C
  8
250
 10
0.0
 20
1.9999282982996629
 30
0.0
 11
-0.0000000000000015
 21
-22.0
 31
0.0
  0
LINE
  5
166D
  8
250
 10
-94.023147208416987
 20
-21.0
 30
0.0
 11
-2.23
 21
-21.0
 31
0.0
  0
LINE
  5
1671
  8
250
 10
-35.181350438692483
 20
-4.1999999999999869
 30
0.0
 11
-35.181350438692483
 21
-15.0
 31
0.0
  0
LINE
  5
1672
  8
250
 10
0.0
 20
1.9999282982996629
 30
0.0
 11
-0.0000000000000011
 21
-15.0
 31
0.0
  0
LINE
  5
1673
  8
250
 10
-32.951350438692472
 20
-14.0
 30
0.0
 11
-2.2299999999999991
 21
-14.0
 31
0.0
  0
LINE
  5
1677
  8
250
 10
-95.753147208416991
 20
-5.0
 30
0.0
 11
-107.0
 21
-4.9999999999999947
 31
0.0
  0
LINE
  5
1678
  8
250
 10
-95.753147208416991
 20
4.9999999999999432
 30
0.0
 11
-107.0
 21
4.9999999999999449
 31
0.0
  0
LINE
  5
1679
  8
250
 10
-106.0
 20
-2.769999999999996
 30
0.0
 11
-106.0
 21
2.769999999999945
 31
0.0
  0
LINE
  5
167D
  8
250
 10
-2.36984957178464
 20
5.4999999999999698
 30
0.0
 11
15.0
 21
5.4999999999999662
 31
0.0
  0
LINE
  5
167E
  8
250
 10
14.0
 20
3.2699999999999649
 30
0.0
 11
14.0
 21
-0.0000000000000049
 31
0.0
  0
LINE
  5
1681
  8
250
 10
0.1301515001299549
 20
2.9999999999999711
 30
0.0
 11
8.0
 21
2.999999999999968
 31
0.0
  0
LINE
  5
1682
  8
250
 10
7.0
 20
7.4599999999999671
 30
0.0
 11
7.0
 21
5.2299999999999676
 31
0.0
  0
LINE
  5
1683
  8
250
 10
7.0
 20
2.999999999999968
 30
0.0
 11
6.9999999999999991
 21
-3.8027338665205792
 31
0.0
  0
LINE
  5
1686
  8
250
 10
-0.0000000000000001
 20
3.130151658708257
 30
0.0
 11
-0.0000000000000013
 21
12.628497484517149
 31
0.0
  0
LINE
  5
1687
  8
250
 10
-3.664824613995441
 20
6.2949747013528992
 30
0.0
 11
-7.0698996497424771
 21
9.7000482771208194
 31
0.0
  0
ARC
  5
1688
  8
250
 10
0.0
 20
2.6301516587082592
 30
0.0
 40
8.9983458258088902
 50
104.2358201477324
 51
120.76419213550039
  0
LINE
  5
168C
  8
250
 10
-6.0355337967665426
 20
4.0
 30
0.0
 11
-11.297770943285091
 21
4.0
 31
0.0
  0
LINE
  5
168D
  8
250
 10
-10.297770943285091
 20
1.77
 30
0.0
 11
-10.297770943285091
 21
-3.3571428571428541
 31
0.0
  0
TEXT
  5
1690
  8
250
 10
-7.0517742742111471
 20
11.58497931095595
 30
0.0
 40
3.0
  1
45üï
 50
12.91779964116029
  0
LINE
  5
1691
  8
250
 10
-4.3744896750744493
 20
10.068900347812439
 30
0.0
 11
-6.3627927169643721
 21
8.9929416475258588
 31
0.0
  0
LINE
  5
1692
  8
250
 10
-4.8309250936479291
 20
10.65559545868016
 30
0.0
 11
-6.3627927169643721
 21
8.9929416475258588
 31
0.0
  0
LINE
  5
1693
  8
250
 10
-6.3627927169643721
 20
8.9929416475258588
 30
0.0
 11
-4.6027073843611888
 21
10.362247903246301
 31
0.0
  0
LINE
  5
1694
  8
250
 10
-2.258867788786076
 20
11.72097680056031
 30
0.0
 11
-0.0000000000000009
 21
11.628497484517149
 31
0.0
  0
LINE
  5
1695
  8
250
 10
-2.166760118919747
 20
10.983372149276009
 30
0.0
 11
-0.0000000000000009
 21
11.628497484517149
 31
0.0
  0
LINE
  5
1696
  8
250
 10
-0.0000000000000009
 20
11.628497484517149
 30
0.0
 11
-2.212813953852911
 21
11.35217447491816
 31
0.0
  0
LINE
  5
1697
  8
250
 10
7.371666666666667
 20
5.2299999999999693
 30
0.0
 11
7.0
 21
2.999999999999968
 31
0.0
  0
LINE
  5
1698
  8
250
 10
6.628333333333333
 20
5.2299999999999693
 30
0.0
 11
7.0
 21
2.999999999999968
 31
0.0
  0
LINE
  5
1699
  8
250
 10
7.0
 20
2.999999999999968
 30
0.0
 11
7.0
 21
5.2299999999999693
 31
0.0
  0
TEXT
  5
169A
  8
250
 10
5.9981900963263106
 20
-3.088448152234863
 30
0.0
 40
3.0
  1
\U+2205
 50
90.0
  0
TEXT
  5
169B
  8
250
 10
5.9981900963263106
 20
-0.3741624379491499
 30
0.0
 40
3.0
  1
6
 50
90.0
  0
LINE
  5
169C
  8
250
 10
13.62833333333333
 20
3.2699999999999672
 30
0.0
 11
14.0
 21
5.4999999999999671
 31
0.0
  0
LINE
  5
169D
  8
250
 10
14.371666666666661
 20
3.2699999999999672
 30
0.0
 11
14.0
 21
5.4999999999999671
 31
0.0
  0
LINE
  5
169E
  8
250
 10
14.0
 20
5.4999999999999671
 30
0.0
 11
14.0
 21
3.2699999999999672
 31
0.0
  0
TEXT
  5
169F
  8
250
 10
12.732244335062431
 20
-3.211004382848476
 30
0.0
 40
3.0
  1
\U+2205
 50
90.0
  0
TEXT
  5
16A0
  8
250
 10
12.732244335062431
 20
-0.4967186685627622
 30
0.0
 40
3.0
  1
11
 50
90.0
  0
TEXT
  5
16A1
  8
250
 10
-19.820683102734598
 20
-13.0
 30
0.0
 40
3.0
  1
35
  0
LINE
  5
16A2
  8
250
 10
-2.2299999999999991
 20
-13.62833333333333
 30
0.0
 11
-0.000000000000001
 21
-14.0
 31
0.0
  0
LINE
  5
16A3
  8
250
 10
-2.2299999999999991
 20
-14.371666666666661
 30
0.0
 11
-0.000000000000001
 21
-14.0
 31
0.0
  0
LINE
  5
16A4
  8
250
 10
-0.000000000000001
 20
-14.0
 30
0.0
 11
-2.2299999999999991
 21
-14.0
 31
0.0
  0
LINE
  5
16A5
  8
250
 10
-32.951350438692472
 20
-14.371666666666661
 30
0.0
 11
-35.181350438692483
 21
-14.0
 31
0.0
  0
LINE
  5
16A6
  8
250
 10
-32.951350438692472
 20
-13.62833333333333
 30
0.0
 11
-35.181350438692483
 21
-14.0
 31
0.0
  0
LINE
  5
16A7
  8
250
 10
-35.181350438692483
 20
-14.0
 30
0.0
 11
-32.951350438692472
 21
-14.0
 31
0.0
  0
TEXT
  5
16A8
  8
250
 10
-50.970593307260252
 20
-20.0
 30
0.0
 40
3.0
  1
96
  0
LINE
  5
16A9
  8
250
 10
-2.23
 20
-20.62833333333333
 30
0.0
 11
-0.0000000000000014
 21
-21.0
 31
0.0
  0
LINE
  5
16AA
  8
250
 10
-2.23
 20
-21.37166666666667
 30
0.0
 11
-0.0000000000000014
 21
-21.0
 31
0.0
  0
LINE
  5
16AB
  8
250
 10
-0.0000000000000014
 20
-21.0
 30
0.0
 11
-2.23
 21
-21.0
 31
0.0
  0
LINE
  5
16AC
  8
250
 10
-94.023147208416987
 20
-21.37166666666667
 30
0.0
 11
-96.253147208417005
 21
-21.0
 31
0.0
  0
LINE
  5
16AD
  8
250
 10
-94.023147208416987
 20
-20.62833333333333
 30
0.0
 11
-96.253147208417005
 21
-21.0
 31
0.0
  0
LINE
  5
16AE
  8
250
 10
-96.253147208417005
 20
-21.0
 30
0.0
 11
-94.023147208416987
 21
-21.0
 31
0.0
  0
TEXT
  5
16AF
  8
250
 10
-107.0
 20
-4.0714285714286111
 30
0.0
 40
3.0
  1
\U+2205
 50
90.0
  0
TEXT
  5
16B0
  8
250
 10
-107.0
 20
-1.3571428571428961
 30
0.0
 40
3.0
  1
10
 50
90.0
  0
LINE
  5
16B1
  8
250
 10
-106.3716666666667
 20
2.769999999999945
 30
0.0
 11
-106.0
 21
4.9999999999999449
 31
0.0
  0
LINE
  5
16B2
  8
250
 10
-105.6283333333333
 20
2.769999999999945
 30
0.0
 11
-106.0
 21
4.9999999999999449
 31
0.0
  0
LINE
  5
16B3
  8
250
 10
-106.0
 20
4.9999999999999449
 30
0.0
 11
-106.0
 21
2.769999999999945
 31
0.0
  0
LINE
  5
16B4
  8
250
 10
-105.6283333333333
 20
-2.769999999999996
 30
0.0
 11
-106.0
 21
-4.9999999999999947
 31
0.0
  0
LINE
  5
16B5
  8
250
 10
-106.3716666666667
 20
-2.769999999999996
 30
0.0
 11
-106.0
 21
-4.9999999999999947
 31
0.0
  0
LINE
  5
16B6
  8
250
 10
-106.0
 20
-4.9999999999999947
 30
0.0
 11
-106.0
 21
-2.769999999999996
 31
0.0
  0
LINE
  5
16B7
  8
250
 10
-10.66943760995175
 20
1.77
 30
0.0
 11
-10.297770943285091
 21
4.0
 31
0.0
  0
LINE
  5
16B8
  8
250
 10
-9.9261042766184246
 20
1.77
 30
0.0
 11
-10.297770943285091
 21
4.0
 31
0.0
  0
LINE
  5
16B9
  8
250
 10
-10.297770943285091
 20
4.0
 30
0.0
 11
-10.297770943285091
 21
1.77
 31
0.0
  0
TEXT
  5
16BA
  8
250
 10
-11.297770943285091
 20
-2.642857142857141
 30
0.0
 40
3.0
  1
\U+2205
 50
90.0
  0
TEXT
  5
16BB
  8
250
 10
-11.297770943285091
 20
0.0714285714285716
 30
0.0
 40
3.0
  1
8
 50
90.0
  0
INSERT
  5
1CFB
  8
240
  2
A$C56AE539B
 10
0.0
 20
0.0
 30
0.0
  0
VIEWPORT
  5
22
 67
     1
  8
0
 10
261.51769911504419
 20
148.5
 30
0.0
 40
523.0353982300885
 41
297.0
 68
     1
 69
     1
1001
ACAD
1000
MVIEW
1002
{
1070
    16
1010
0.0
1020
0.0
1030
0.0
1010
0.0
1020
0.0
1030
1.0
1040
0.0
1040
297.0
1040
261.51769911504419
1040
148.5
1040
50.0
1040
0.0
1040
0.0
1070
     0
1070
   100
1070
     1
1070
     1
1070
     0
1070
     0
1070
     0
1070
     0
1040
0.0
1040
0.0
1040
0.0
1040
1.0
1040
1.0
1040
10.0
1040
10.0
1070
     0
1002
{
1002
}
1002
}
1001
GENIUS_GENODEF_13
1002
{
1000
HIER
1070
     0
1002
}
1002
{
1000
MANEDIT
1070
     0
1002
}
1002
{
1000
NOSEL
1070
     0
1002
}
1002
{
1000
BEHIND
1070
     0
1002
}
1002
{
1000
OTHER
1070
     0
1002
}
1002
{
1000
REACTOR
1002
}
1001
GENIUS_GENOBJ-N-SDF_13
1002
{
1000
OWNER
1000
GEN
1002
}
1001
GENIUS_GENSCREG_15
1000
PF
1040
1.0
1000
DF
1040
1.0
1000
MIN
1011
0.0
1021
0.0
1031
0.0
1021
0.0
1031
0.0
1000
MAX
1011
523.0353982300885
1021
0.0
1031
0.0
1021
297.0
1031
0.0
1000
FLAGS
1070
     2
  0
ENDSEC
  0
EOF
