  0
SECTION
  2
HEADER
  9
$ACADVER
  1
AC1009
  9
$INSBASE
 10
0.0
 20
0.0
 30
0.0
  9
$EXTMIN
 10
-95.001569268276739
 20
-22.011321147427282
 30
-0.0000000349181948
  9
$EXTMAX
 10
15.002685902617941
 20
24.505642336704462
 30
0.0000000814935746
  9
$LIMMIN
 10
0.0
 20
0.0
  9
$LIMMAX
 10
297.0
 20
210.0
  9
$ORTHOMODE
 70
     0
  9
$REGENMODE
 70
     1
  9
$FILLMODE
 70
     1
  9
$QTEXTMODE
 70
     0
  9
$MIRRTEXT
 70
     1
  9
$DRAGMODE
 70
     2
  9
$LTSCALE
 40
10.0
  9
$OSMODE
 70
  2597
  9
$ATTMODE
 70
     1
  9
$TEXTSIZE
 40
3.0
  9
$TRACEWID
 40
1.0
  9
$TEXTSTYLE
  7
YOKO
  9
$CLAYER
  8
240
  9
$CELTYPE
  6
BYLAYER
  9
$CECOLOR
 62
   256
  9
$DIMSCALE
 40
1.0
  9
$DIMASZ
 40
2.2299999999999991
  9
$DIMEXO
 40
0.5
  9
$DIMDLI
 40
7.0
  9
$DIMRND
 40
0.0
  9
$DIMDLE
 40
0.0
  9
$DIMEXE
 40
1.0
  9
$DIMTP
 40
0.0
  9
$DIMTM
 40
0.01
  9
$DIMTXT
 40
2.7999999999999989
  9
$DIMCEN
 40
0.0
  9
$DIMTSZ
 40
0.0
  9
$DIMTOL
 70
     0
  9
$DIMLIM
 70
     0
  9
$DIMTIH
 70
     0
  9
$DIMTOH
 70
     0
  9
$DIMSE1
 70
     0
  9
$DIMSE2
 70
     0
  9
$DIMTAD
 70
     3
  9
$DIMZIN
 70
     9
  9
$DIMBLK
  1
OPEN
  9
$DIMASO
 70
     1
  9
$DIMSHO
 70
     1
  9
$DIMPOST
  1

  9
$DIMAPOST
  1

  9
$DIMALT
 70
     0
  9
$DIMALTD
 70
     2
  9
$DIMALTF
 40
25.399999999999999
  9
$DIMLFAC
 40
1.0
  9
$DIMTOFL
 70
     1
  9
$DIMTVP
 40
0.0
  9
$DIMTIX
 70
     1
  9
$DIMSOXD
 70
     0
  9
$DIMSAH
 70
     0
  9
$DIMBLK1
  1

  9
$DIMBLK2
  1

  9
$DIMSTYLE
  2
BIGT
  9
$DIMCLRD
 70
   256
  9
$DIMCLRE
 70
   256
  9
$DIMCLRT
 70
    40
  9
$DIMTFAC
 40
1.0
  9
$DIMGAP
 40
1.0
  9
$LUNITS
 70
     2
  9
$LUPREC
 70
     3
  9
$SKETCHINC
 40
1.0
  9
$FILLETRAD
 40
0.0
  9
$AUNITS
 70
     0
  9
$AUPREC
 70
     3
  9
$MENU
  1
.
  9
$ELEVATION
 40
0.0
  9
$PELEVATION
 40
0.0
  9
$THICKNESS
 40
0.0
  9
$LIMCHECK
 70
     0
  9
$BLIPMODE
 70
     0
  9
$CHAMFERA
 40
0.25
  9
$CHAMFERB
 40
0.25
  9
$SKPOLY
 70
     0
  9
$TDCREATE
 40
2454089.780907569
  9
$TDUPDATE
 40
2454090.375083542
  9
$TDINDWG
 40
0.0235465394
  9
$TDUSRTIMER
 40
0.0235465394
  9
$USRTIMER
 70
     1
  9
$ANGBASE
 50
0.0
  9
$ANGDIR
 70
     0
  9
$PDMODE
 70
     1
  9
$PDSIZE
 40
0.0
  9
$PLINEWID
 40
0.0
  9
$COORDS
 70
     0
  9
$SPLFRAME
 70
     0
  9
$SPLINETYPE
 70
     6
  9
$SPLINESEGS
 70
     4
  9
$ATTDIA
 70
     1
  9
$ATTREQ
 70
     1
  9
$HANDLING
 70
     1
  9
$HANDSEED
  5
1A13
  9
$SURFTAB1
 70
     6
  9
$SURFTAB2
 70
     6
  9
$SURFTYPE
 70
     6
  9
$SURFU
 70
     6
  9
$SURFV
 70
     6
  9
$UCSNAME
  2

  9
$UCSORG
 10
0.0
 20
0.0
 30
0.0
  9
$UCSXDIR
 10
1.0
 20
0.0
 30
0.0
  9
$UCSYDIR
 10
0.0
 20
1.0
 30
0.0
  9
$PUCSNAME
  2

  9
$PUCSORG
 10
0.0
 20
0.0
 30
0.0
  9
$PUCSXDIR
 10
1.0
 20
0.0
 30
0.0
  9
$PUCSYDIR
 10
0.0
 20
1.0
 30
0.0
  9
$USERI1
 70
     1
  9
$USERI2
 70
     0
  9
$USERI3
 70
     0
  9
$USERI4
 70
     0
  9
$USERI5
 70
     0
  9
$USERR1
 40
0.0
  9
$USERR2
 40
0.0
  9
$USERR3
 40
0.0
  9
$USERR4
 40
0.0
  9
$USERR5
 40
0.0
  9
$WORLDVIEW
 70
     1
  9
$SHADEDGE
 70
     3
  9
$SHADEDIF
 70
    70
  9
$TILEMODE
 70
     1
  9
$MAXACTVP
 70
    16
  9
$PLIMCHECK
 70
     0
  9
$PEXTMIN
 10
1.0000000000000000E+020
 20
1.0000000000000000E+020
 30
1.0000000000000000E+020
  9
$PEXTMAX
 10
-1.0000000000000000E+020
 20
-1.0000000000000000E+020
 30
-1.0000000000000000E+020
  9
$PLIMMIN
 10
0.0
 20
0.0
  9
$PLIMMAX
 10
420.0
 20
297.0
  9
$UNITMODE
 70
     0
  9
$VISRETAIN
 70
     1
  9
$PLINEGEN
 70
     0
  9
$PSLTSCALE
 70
     1
  0
ENDSEC
  0
SECTION
  2
TABLES
  0
TABLE
  2
VPORT
 70
     3
  0
VPORT
  2
*ACTIVE
 70
     0
 10
0.0
 20
0.0
 11
1.0
 21
1.0
 12
-39.999441682829399
 22
1.247160594638586
 13
0.0
 23
0.0
 14
7.0
 24
7.0
 15
7.0
 25
7.0
 16
0.0
 26
0.0
 36
1.0
 17
0.0
 27
0.0
 37
0.0
 40
74.738310274109864
 41
1.4791666666666661
 42
50.0
 43
0.0
 44
0.0
 50
0.0
 51
0.0
 71
     0
 72
  2000
 73
     1
 74
     0
 75
     0
 76
     0
 77
     0
 78
     0
  0
ENDTAB
  0
TABLE
  2
LTYPE
 70
    15
  0
LTYPE
  2
CONTINUOUS
 70
     0
  3
Solid line
 72
    65
 73
     0
 40
0.0
  0
LTYPE
  2
CENTER2
 70
     0
  3
___ _ ___ _ ___ _ ___ _ ___ _ ___ _ ___ _ ___ _
 72
    65
 73
     4
 40
1.125
 49
0.75
 49
-0.125
 49
0.125
 49
-0.125
  0
LTYPE
  2
HIDDEN2
 70
     0
  3
_ _ _ _ _ _ _ _ _ _ _ _ _ _ _ _ _ _ _ _ _ _ _ _
 72
    65
 73
     2
 40
0.1875
 49
0.125
 49
-0.0625
  0
LTYPE
  2
PHANTOM2
 70
     0
  3
___ _ _ ___ _ _ ___ _ _ ___ _ _ ___ _ _ ___ _ _
 72
    65
 73
     6
 40
1.25
 49
0.625
 49
-0.125
 49
0.125
 49
-0.125
 49
0.125
 49
-0.125
  0
LTYPE
  2
CENTER
 70
     0
  3
____ _ ____ _ ____ _ ____ _ ____ _ ____ _ ____ 
 72
    65
 73
     4
 40
2.0
 49
1.25
 49
-0.25
 49
0.25
 49
-0.25
  0
LTYPE
  2
AM_ISO02W050
 70
     0
  3
__ __ __ __ __ __ __ __ __ __ __ __ __ __ __
 72
    65
 73
     2
 40
7.5
 49
6.0
 49
-1.5
  0
LTYPE
  2
AMCONSTR
 70
     0
  3
_______________________
 72
    65
 73
     2
 40
9999.0
 49
9999.0
 49
0.0
  0
LTYPE
  2
ACISOWELD
 70
     0
  3
_ _ _ _ _
 72
    65
 73
     2
 40
2.0
 49
2.0
 49
-1.0
  0
LTYPE
  2
ACISOTGB
 70
     0
  3
__ . . __ . .
 72
    65
 73
     6
 40
9.0
 49
4.0
 49
-1.0
 49
1.0
 49
-1.0
 49
1.0
 49
-1.0
  0
LTYPE
  2
ACISOTGL
 70
     0
  3
_ _ _ _ _
 72
    65
 73
     2
 40
3.0
 49
2.0
 49
-1.0
  0
LTYPE
  2
ACJISTGB
 70
     0
  3
__ . . __ . .
 72
    65
 73
     6
 40
9.0
 49
4.0
 49
-1.0
 49
1.0
 49
-1.0
 49
1.0
 49
-1.0
  0
LTYPE
  2
ACJISTGL
 70
     0
  3
_ _ _ _ _
 72
    65
 73
     2
 40
3.0
 49
2.0
 49
-1.0
  0
LTYPE
  2
HIDDEN
 70
     0
  3
Hidden __ __ __ __ __ __ __ __ __ __ __ __ __ _
 72
    65
 73
     2
 40
9.5249999999999986
 49
6.3499999999999988
 49
-3.1749999999999989
  0
ENDTAB
  0
TABLE
  2
LAYER
 70
     8
  0
LAYER
  2
0
 70
     0
 62
     7
  6
CONTINUOUS
  0
LAYER
  2
DEFPOINTS
 70
     0
 62
     7
  6
CONTINUOUS
  0
LAYER
  2
245
 70
     0
 62
     2
  6
CENTER2
  0
LAYER
  2
240
 70
     0
 62
     4
  6
CONTINUOUS
  0
LAYER
  2
241
 70
     0
 62
   211
  6
CONTINUOUS
  0
LAYER
  2
246
 70
     0
 62
     3
  6
PHANTOM2
  0
LAYER
  2
247
 70
     0
 62
    60
  6
CONTINUOUS
  0
LAYER
  2
250
 70
     0
 62
     3
  6
CONTINUOUS
  0
ENDTAB
  0
TABLE
  2
STYLE
 70
     8
  0
STYLE
  2
STANDARD
 70
     0
 40
0.0
 41
1.0
 50
0.0
 71
     0
 42
3.0
  3
romans.shx
  4
extfont.shx
  0
STYLE
  2
ACISOTS
 70
     0
 40
1.0
 41
1.0
 50
0.0
 71
     0
 42
3.0
  3
amgdt.shx
  4
extfont.shx
  0
STYLE
  2
ACISOGDT
 70
     0
 40
0.0
 41
1.0
 50
0.0
 71
     0
 42
3.0
  3
amgdt.shx
  4
extfont.shx
  0
STYLE
  2
ACJISTS
 70
     0
 40
1.0
 41
1.0
 50
0.0
 71
     0
 42
3.0
  3
amgdt.shx
  4
extfont.shx
  0
STYLE
  2
ACJISGDT
 70
     0
 40
0.0
 41
1.0
 50
0.0
 71
     0
 42
3.0
  3
amgdt.shx
  4
extfont.shx
  0
STYLE
  2
YOKO
 70
     0
 40
0.0
 41
1.0
 50
0.0
 71
     0
 42
3.0
  3
romans.shx
  4
extfont.shx
  0
ENDTAB
  0
TABLE
  2
VIEW
 70
     0
  0
ENDTAB
  0
TABLE
  2
UCS
 70
     0
  0
ENDTAB
  0
TABLE
  2
APPID
 70
    31
  0
APPID
  2
ACAD
 70
     0
  0
APPID
  2
GLOBAL
 70
     0
  0
APPID
  2
DETAIL
 70
     0
  0
APPID
  2
GRPNAME
 70
     0
  0
APPID
  2
GPARA
 70
     0
  0
APPID
  2
MCAD_NO_VIS
 70
     0
  0
APPID
  2
ACAD_TEMP_GRAPHIC
 70
     0
  0
APPID
  2
ACATTRIBSERVICES
 70
     0
  0
APPID
  2
GENIUS_GENSCREG_15
 70
     0
  0
APPID
  2
GENIUS_GENODEF_13
 70
     0
  0
APPID
  2
GENIUS_GENOBJ-N-SDF_13
 70
     0
  0
APPID
  2
GENIUS_GENREC_14
 70
     0
  0
APPID
  2
GENIUS_GENOBJ-N-REC_13
 70
     0
  0
APPID
  2
GENIUS_GENDIMSH_14
 70
     0
  0
APPID
  2
GENIUS_GENOBJ-N-DIM_13
 70
     0
  0
APPID
  2
GENIUS_GENDIM_13
 70
     0
  0
APPID
  2
GENIUS_GENDTOL_13
 70
     0
  0
APPID
  2
GENIUS_GENOLIS_13
 70
     0
  0
APPID
  2
GENIUS_GENOENT_13
 70
     0
  0
APPID
  2
GENIUS_GENOBJ-F-FEM_13
 70
     0
  0
APPID
  2
GENIUS_GENOREF_13
 70
     0
  0
APPID
  2
GENIUS_GEFFEM_13
 70
     0
  0
APPID
  2
GENIUS_GEFFEMP_13
 70
     0
  0
APPID
  2
AD_DRAW
 70
     0
  0
APPID
  2
DESIGNERASSEMBLIES
 70
     0
  0
APPID
  2
ACADM_DIM_EDIT
 70
     0
  0
APPID
  2
AMDT_DM_ADJ
 70
     0
  0
APPID
  2
GENIUS_GENOBJ-N-FIL_13
 70
     0
  0
APPID
  2
HATCH_TYPE
 70
     0
  0
APPID
  2
HATCH_DISPLAY
 70
     0
  0
APPID
  2
HATCH_DISTANCE
 70
     0
  0
ENDTAB
  0
TABLE
  2
DIMSTYLE
 70
    29
  0
DIMSTYLE
  2
BIGT
 70
     0
  3

  4

  5
OPEN
  6

  7

 40
1.0
 41
2.2299999999999991
 42
0.5
 43
7.0
 44
1.0
 45
0.0
 46
0.0
 47
0.0
 48
0.01
140
2.7999999999999989
141
0.0
142
0.0
143
25.399999999999999
144
1.0
145
0.0
146
1.0
147
1.0
 71
     0
 72
     0
 73
     0
 74
     0
 75
     0
 76
     0
 77
     3
 78
     9
170
     0
171
     2
172
     1
173
     0
174
     1
175
     0
176
   256
177
   256
178
    40
  0
DIMSTYLE
  2
AM_ISO
 70
     0
  3

  4
"
  5

  6

  7

 40
1.0
 41
2.5
 42
1.0
 43
10.0
 44
1.0
 45
0.0
 46
0.0
 47
0.1
 48
0.1
140
3.5
141
0.0
142
0.0
143
0.0393701
144
1.0
145
0.0
146
0.71
147
1.5
 71
     0
 72
     0
 73
     0
 74
     0
 75
     0
 76
     0
 77
     1
 78
     8
170
     0
171
     2
172
     1
173
     0
174
     0
175
     0
176
   256
177
   256
178
     2
  0
DIMSTYLE
  2
AM_ISO$3
 70
     0
  3

  4
"
  5

  6

  7

 40
1.0
 41
2.5
 42
1.0
 43
10.0
 44
1.0
 45
0.0
 46
0.0
 47
0.1
 48
0.1
140
3.5
141
0.0
142
0.0
143
0.0393701
144
1.0
145
0.0
146
0.71
147
1.5
 71
     0
 72
     0
 73
     0
 74
     1
 75
     0
 76
     0
 77
     1
 78
     8
170
     0
171
     2
172
     0
173
     0
174
     0
175
     0
176
   256
177
   256
178
     2
  0
DIMSTYLE
  2
AM_ISO$4
 70
     0
  3

  4
"
  5

  6

  7

 40
1.0
 41
2.5
 42
1.0
 43
10.0
 44
1.0
 45
0.0
 46
0.0
 47
0.1
 48
0.1
140
3.5
141
0.0
142
0.0
143
0.0393701
144
1.0
145
0.0
146
0.71
147
1.5
 71
     0
 72
     0
 73
     0
 74
     1
 75
     0
 76
     0
 77
     1
 78
     8
170
     0
171
     2
172
     0
173
     0
174
     0
175
     0
176
   256
177
   256
178
     2
  0
DIMSTYLE
  2
AM_ISO$6
 70
     0
  3

  4
"
  5

  6

  7

 40
1.0
 41
2.5
 42
1.0
 43
10.0
 44
1.0
 45
0.0
 46
0.0
 47
0.1
 48
0.1
140
3.5
141
0.0
142
0.0
143
0.0393701
144
1.0
145
0.0
146
0.71
147
1.5
 71
     0
 72
     0
 73
     0
 74
     0
 75
     0
 76
     0
 77
     0
 78
     8
170
     0
171
     2
172
     1
173
     0
174
     0
175
     0
176
   256
177
   256
178
     2
  0
DIMSTYLE
  2
AM_ISO$7
 70
     0
  3

  4
"
  5

  6

  7

 40
1.0
 41
2.5
 42
1.0
 43
10.0
 44
1.0
 45
0.0
 46
0.0
 47
0.1
 48
0.1
140
5.0
141
0.0
142
0.0
143
0.0393701
144
1.0
145
0.0
146
0.71
147
1.5
 71
     0
 72
     0
 73
     0
 74
     0
 75
     0
 76
     0
 77
     1
 78
     8
170
     0
171
     2
172
     1
173
     0
174
     0
175
     0
176
   256
177
   256
178
     2
  0
DIMSTYLE
  2
AM_ISO$SF
 70
     0
  3

  4
"
  5

  6

  7

 40
1.0
 41
2.5
 42
1.0
 43
10.0
 44
1.0
 45
0.0
 46
0.0
 47
0.1
 48
0.1
140
3.5
141
0.0
142
0.0
143
0.0393701
144
1.0
145
0.0
146
0.71
147
1.5
 71
     0
 72
     0
 73
     0
 74
     0
 75
     1
 76
     1
 77
     1
 78
     8
170
     0
171
     2
172
     1
173
     0
174
     0
175
     0
176
   256
177
   256
178
     2
  0
DIMSTYLE
  2
AM_ISO$SH
 70
     0
  3

  4
"
  5

  6
GENAXEH
  7

 40
1.0
 41
2.5
 42
1.0
 43
10.0
 44
1.0
 45
0.0
 46
0.0
 47
0.1
 48
0.1
140
3.5
141
0.0
142
0.0
143
0.0393701
144
2.0
145
0.0
146
0.71
147
1.5
 71
     0
 72
     0
 73
     0
 74
     0
 75
     1
 76
     1
 77
     1
 78
     8
170
     0
171
     2
172
     1
173
     1
174
     0
175
     0
176
   256
177
   256
178
     2
  0
DIMSTYLE
  2
BIGT$2
 70
     0
  3

  4

  5
OPEN
  6

  7

 40
1.0
 41
2.2299999999999991
 42
0.5
 43
7.0
 44
1.0
 45
0.0
 46
0.0
 47
0.0
 48
0.01
140
2.7999999999999989
141
0.0
142
0.0
143
25.399999999999999
144
1.0
145
0.0
146
1.0
147
1.0
 71
     0
 72
     0
 73
     0
 74
     0
 75
     0
 76
     0
 77
     3
 78
     9
170
     0
171
     2
172
     1
173
     0
174
     0
175
     0
176
   256
177
   256
178
    40
  0
DIMSTYLE
  2
BIGT$3
 70
     0
  3

  4

  5
OPEN
  6

  7

 40
1.0
 41
2.2299999999999991
 42
0.5
 43
2.5
 44
1.0
 45
0.0
 46
0.0
 47
0.0
 48
0.01
140
2.7999999999999989
141
0.0
142
0.0
143
25.399999999999999
144
1.0
145
0.0
146
1.0
147
1.0
 71
     0
 72
     0
 73
     0
 74
     0
 75
     0
 76
     0
 77
     3
 78
     9
170
     0
171
     2
172
     1
173
     0
174
     0
175
     0
176
   256
177
   256
178
    40
  0
DIMSTYLE
  2
BIGT$7
 70
     0
  3

  4

  5
OPEN
  6

  7

 40
0.0
 41
2.2299999999999991
 42
0.5
 43
7.0
 44
1.0
 45
0.0
 46
0.0
 47
0.0
 48
0.01
140
2.7999999999999989
141
0.0
142
0.0
143
25.399999999999999
144
1.0
145
0.0
146
1.0
147
1.0
 71
     0
 72
     0
 73
     0
 74
     0
 75
     0
 76
     0
 77
     3
 78
     9
170
     0
171
     2
172
     0
173
     0
174
     0
175
     0
176
   256
177
   256
178
    40
  0
DIMSTYLE
  2
BIGT$6
 70
     0
  3

  4

  5
OPEN
  6

  7

 40
1.0
 41
2.2299999999999991
 42
0.5
 43
2.5
 44
1.0
 45
0.0
 46
0.0
 47
0.0
 48
0.01
140
2.7999999999999989
141
0.0
142
0.0
143
25.399999999999999
144
1.0
145
0.0
146
1.0
147
1.0
 71
     0
 72
     0
 73
     0
 74
     0
 75
     0
 76
     0
 77
     3
 78
     9
170
     0
171
     2
172
     1
173
     0
174
     0
175
     0
176
   256
177
   256
178
    40
  0
DIMSTYLE
  2
BIGT$0
 70
     0
  3

  4

  5
OPEN
  6

  7

 40
1.0
 41
2.2299999999999991
 42
0.5
 43
7.0
 44
1.0
 45
0.0
 46
0.0
 47
0.0
 48
0.01
140
2.7999999999999989
141
0.0
142
0.0
143
25.399999999999999
144
1.0
145
0.0
146
1.0
147
1.0
 71
     0
 72
     0
 73
     0
 74
     0
 75
     0
 76
     0
 77
     3
 78
     9
170
     0
171
     2
172
     1
173
     0
174
     0
175
     0
176
   256
177
   256
178
    40
  0
DIMSTYLE
  2
BIGT$4
 70
     0
  3

  4

  5
OPEN
  6

  7

 40
1.0
 41
2.2299999999999991
 42
0.5
 43
2.5
 44
1.0
 45
0.0
 46
0.0
 47
0.0
 48
0.01
140
2.7999999999999989
141
0.0
142
0.0
143
25.399999999999999
144
1.0
145
0.0
146
1.0
147
1.0
 71
     0
 72
     0
 73
     0
 74
     0
 75
     0
 76
     0
 77
     3
 78
     9
170
     0
171
     2
172
     1
173
     0
174
     0
175
     0
176
   256
177
   256
178
    40
  0
DIMSTYLE
  2
BIGT$SH
 70
     0
  3

  4

  5
OPEN
  6

  7

 40
1.0
 41
2.2299999999999991
 42
0.5
 43
7.0
 44
1.0
 45
0.0
 46
0.0
 47
0.0
 48
0.0
140
2.7999999999999989
141
0.0
142
0.0
143
25.399999999999999
144
1.0
145
0.0
146
1.0
147
1.0
 71
     0
 72
     0
 73
     0
 74
     0
 75
     0
 76
     0
 77
     3
 78
     9
170
     0
171
     2
172
     1
173
     0
174
     0
175
     0
176
   256
177
   256
178
    40
  0
DIMSTYLE
  2
BIGT$SF
 70
     0
  3

  4

  5
OPEN
  6

  7

 40
1.0
 41
2.2299999999999991
 42
0.5
 43
7.0
 44
1.0
 45
0.0
 46
0.0
 47
0.0
 48
0.0
140
2.7999999999999989
141
0.0
142
0.0
143
25.399999999999999
144
1.0
145
0.0
146
1.0
147
1.0
 71
     0
 72
     0
 73
     0
 74
     0
 75
     0
 76
     0
 77
     3
 78
     9
170
     0
171
     2
172
     1
173
     0
174
     0
175
     0
176
   256
177
   256
178
    40
  0
DIMSTYLE
  2
TECHNICAL_OSAKA
 70
     0
  3

  4
"
  5
OPEN30
  6

  7

 40
1.0
 41
2.5
 42
1.0
 43
10.0
 44
1.0
 45
0.0
 46
0.0
 47
0.1
 48
0.1
140
2.7999999999999989
141
0.0
142
0.0
143
0.0393701
144
1.0
145
0.0
146
0.71
147
1.5
 71
     0
 72
     0
 73
     0
 74
     0
 75
     0
 76
     0
 77
     3
 78
     8
170
     0
171
     2
172
     1
173
     0
174
     0
175
     0
176
   256
177
   256
178
    40
  0
DIMSTYLE
  2
TECHNICAL_OSAKA$3
 70
     0
  3

  4
"
  5
OPEN30
  6

  7

 40
1.0
 41
2.5
 42
1.0
 43
10.0
 44
1.0
 45
0.0
 46
0.0
 47
0.1
 48
0.1
140
2.7999999999999989
141
0.0
142
0.0
143
0.0393701
144
1.0
145
0.0
146
0.71
147
1.5
 71
     0
 72
     0
 73
     0
 74
     1
 75
     0
 76
     0
 77
     3
 78
     8
170
     0
171
     2
172
     0
173
     0
174
     0
175
     0
176
   256
177
   256
178
    40
  0
DIMSTYLE
  2
TECHNICAL_OSAKA$4
 70
     0
  3

  4
"
  5
OPEN30
  6

  7

 40
1.0
 41
2.5
 42
1.0
 43
10.0
 44
1.0
 45
0.0
 46
0.0
 47
0.1
 48
0.1
140
2.7999999999999989
141
0.0
142
0.0
143
0.0393701
144
1.0
145
0.0
146
0.71
147
1.5
 71
     0
 72
     0
 73
     0
 74
     1
 75
     0
 76
     0
 77
     3
 78
     8
170
     0
171
     2
172
     0
173
     0
174
     0
175
     0
176
   256
177
   256
178
    40
  0
DIMSTYLE
  2
TECHNICAL_OSAKA$6
 70
     0
  3

  4
"
  5
OPEN30
  6

  7

 40
1.0
 41
2.5
 42
1.0
 43
10.0
 44
1.0
 45
0.0
 46
0.0
 47
0.1
 48
0.1
140
2.7999999999999989
141
0.0
142
0.0
143
0.0393701
144
1.0
145
0.0
146
0.71
147
1.5
 71
     0
 72
     0
 73
     0
 74
     0
 75
     0
 76
     0
 77
     0
 78
     8
170
     0
171
     2
172
     1
173
     0
174
     0
175
     0
176
   256
177
   256
178
    40
  0
DIMSTYLE
  2
TECHNICAL_OSAKA$7
 70
     0
  3

  4
"
  5
OPEN30
  6

  7

 40
1.0
 41
2.5
 42
1.0
 43
10.0
 44
1.0
 45
0.0
 46
0.0
 47
0.1
 48
0.1
140
2.7999999999999989
141
0.0
142
0.0
143
0.0393701
144
1.0
145
0.0
146
0.71
147
1.5
 71
     0
 72
     0
 73
     0
 74
     0
 75
     0
 76
     0
 77
     3
 78
     8
170
     0
171
     2
172
     1
173
     0
174
     0
175
     0
176
   256
177
   256
178
    40
  0
DIMSTYLE
  2
TECHNICAL_OSAKA$SF
 70
     0
  3

  4
"
  5
OPEN30
  6
OPEN30
  7
OPEN30
 40
1.0
 41
2.5
 42
1.0
 43
10.0
 44
1.0
 45
0.0
 46
0.0
 47
0.1
 48
0.1
140
3.5
141
0.0
142
0.0
143
0.0393701
144
1.0
145
0.0
146
0.71
147
1.5
 71
     0
 72
     0
 73
     0
 74
     0
 75
     1
 76
     1
 77
     3
 78
     8
170
     0
171
     2
172
     1
173
     0
174
     0
175
     0
176
   256
177
   256
178
    40
  0
DIMSTYLE
  2
TECHNICAL_OSAKA$SH
 70
     0
  3

  4
"
  5
OPEN30
  6
GENAXEH
  7
OPEN30
 40
1.0
 41
2.5
 42
1.0
 43
10.0
 44
1.0
 45
0.0
 46
0.0
 47
0.1
 48
0.1
140
3.5
141
0.0
142
0.0
143
0.0393701
144
2.0
145
0.0
146
0.71
147
1.5
 71
     0
 72
     0
 73
     0
 74
     0
 75
     1
 76
     1
 77
     3
 78
     8
170
     0
171
     2
172
     1
173
     1
174
     0
175
     0
176
   256
177
   256
178
    40
  0
ENDTAB
  0
ENDSEC
  0
SECTION
  2
BLOCKS
  0
BLOCK
  8
0
  2
$MODEL_SPACE
 70
     0
 10
0.0
 20
0.0
 30
0.0
  3
$MODEL_SPACE
  1

  0
ENDBLK
  5
1C
  8
0
  0
BLOCK
 67
     1
  8
0
  2
$PAPER_SPACE
 70
     0
 10
0.0
 20
0.0
 30
0.0
  3
$PAPER_SPACE
  1

  0
ENDBLK
  5
19
 67
     1
  8
0
  0
BLOCK
  8
0
  2
_OPEN
 70
     0
 10
0.0
 20
0.0
 30
0.0
  3
_OPEN
  1

  0
LINE
  5
19A9
  8
0
  6
BYBLOCK
 62
     0
 10
-1.0
 20
0.1666666666666666
 30
0.0
 11
0.0
 21
0.0
 31
0.0
  0
LINE
  5
19AA
  8
0
  6
BYBLOCK
 62
     0
 10
-1.0
 20
-0.1666666666666666
 30
0.0
 11
0.0
 21
0.0
 31
0.0
  0
LINE
  5
19AB
  8
0
  6
BYBLOCK
 62
     0
 10
0.0
 20
0.0
 30
0.0
 11
-1.0
 21
0.0
 31
0.0
  0
ENDBLK
  5
19AC
  8
0
  0
BLOCK
  8
0
  2
GENAXEH
 70
     0
 10
0.0
 20
0.0
 30
0.0
  3
GENAXEH
  1

  0
LINE
  5
19D4
  8
0
 10
-1.0
 20
0.0
 30
0.0
 11
1.0
 21
0.0
 31
0.0
  0
ENDBLK
  5
19D5
  8
0
  0
BLOCK
  8
0
  2
_OPEN30
 70
     0
 10
0.0
 20
0.0
 30
0.0
  3
_OPEN30
  1

  0
LINE
  5
19F9
  8
0
  6
BYBLOCK
 62
     0
 10
-1.0
 20
0.26794919
 30
0.0
 11
0.0
 21
0.0
 31
0.0
  0
LINE
  5
19FA
  8
0
  6
BYBLOCK
 62
     0
 10
0.0
 20
0.0
 30
0.0
 11
-1.0
 21
-0.26794919
 31
0.0
  0
LINE
  5
19FB
  8
0
  6
BYBLOCK
 62
     0
 10
0.0
 20
0.0
 30
0.0
 11
-1.0
 21
0.0
 31
0.0
  0
ENDBLK
  5
19FC
  8
0
  0
BLOCK
  8
0
  2
*X3
 70
     1
 10
0.0
 20
0.0
 30
0.0
  3
*X3
  1

  0
LINE
  5
1837
  8
0
 62
     0
 10
4.2731626460786947
 20
-5.8571670211471272
 30
0.0
 11
3.510115154589633
 21
-5.094119529658065
 31
0.0
  0
LINE
  5
1838
  8
0
 62
     0
 10
3.4940719416106631
 20
-5.336707692965879
 30
0.0
 11
3.1883917659254011
 21
-5.03102751728062
 31
0.0
  0
LINE
  5
1839
  8
0
 62
     0
 10
4.3362546584561468
 20
-6.1788904098113662
 30
0.0
 11
4.0305744827708789
 21
-5.8732102341260974
 31
0.0
  0
LINE
  5
183A
  8
0
 62
     0
 10
3.1614668723394019
 20
-5.2627339999814282
 30
0.0
 11
2.9403393877385029
 21
-5.0416065153805292
 31
0.0
  0
LINE
  5
183B
  8
0
 62
     0
 10
4.3383903626899851
 20
-6.4396574903320092
 30
0.0
 11
4.1045481757553324
 21
-6.2058153033973582
 31
0.0
  0
LINE
  5
183C
  8
0
 62
     0
 10
2.9211994892945921
 20
-5.281097993223403
 30
0.0
 11
2.7312050109658861
 21
-5.091103514894697
 31
0.0
  0
LINE
  5
183D
  8
0
 62
     0
 10
4.338390362689978
 20
-6.6982888666187881
 30
0.0
 11
4.1055856811814859
 21
-6.4654841851102969
 31
0.0
  0
LINE
  5
183E
  8
0
 62
     0
 10
2.7241461983551201
 20
-5.342676078570725
 30
0.0
 11
2.549611000613679
 21
-5.1681408808292844
 31
0.0
  0
LINE
  5
183F
  8
0
 62
     0
 10
4.338390362689978
 20
-6.9569202429055821
 30
0.0
 11
4.1055856811814859
 21
-6.7241155613970891
 31
0.0
  0
LINE
  5
1840
  8
0
 62
     0
 10
2.5574155323842751
 20
-5.4345767888866652
 30
0.0
 11
2.3904879894348241
 21
-5.2676492459372142
 31
0.0
  0
LINE
  5
1841
  8
0
 62
     0
 10
4.3383903626899851
 20
-7.2155516191923743
 30
0.0
 11
4.1055856811814859
 21
-6.982746937683876
 31
0.0
  0
LINE
  5
1842
  8
0
 62
     0
 10
2.4161255819181511
 20
-5.5519182147073352
 30
0.0
 11
2.2515077835827939
 21
-5.3873004163719713
 31
0.0
  0
LINE
  5
1843
  8
0
 62
     0
 10
4.3383903626899851
 20
-7.4741829954791612
 30
0.0
 11
4.105585681181493
 21
-7.2413783139706691
 31
0.0
  0
LINE
  5
1844
  8
0
 62
     0
 10
2.2989457159389901
 20
-5.6933697250149731
 30
0.0
 11
2.1319866093836382
 21
-5.5264106184596198
 31
0.0
  0
LINE
  5
1845
  8
0
 62
     0
 10
4.3383903626899851
 20
-7.7328143717659659
 30
0.0
 11
4.1055856811814788
 21
-7.5000096902574631
 31
0.0
  0
LINE
  5
1846
  8
0
 62
     0
 10
2.2072252078153962
 20
-5.8602805931781683
 30
0.0
 11
2.0326176602498318
 21
-5.6856730456126021
 31
0.0
  0
LINE
  5
1847
  8
0
 62
     0
 10
4.338390362689978
 20
-7.9914457480527474
 30
0.0
 11
4.1055856811814859
 21
-7.758641066544258
 31
0.0
  0
LINE
  5
1848
  8
0
 62
     0
 10
2.1458777492053529
 20
-6.0575645108549079
 30
0.0
 11
1.955742399326019
 21
-5.8674291609755747
 31
0.0
  0
LINE
  5
1849
  8
0
 62
     0
 10
4.338390362689978
 20
-8.2500771243395334
 30
0.0
 11
4.1055856811814859
 21
-8.0172724428310431
 31
0.0
  0
LINE
  5
184A
  8
0
 62
     0
 10
2.127884606905837
 20
-6.298202744842186
 30
0.0
 11
1.9064556573934921
 21
-6.0767737953298484
 31
0.0
  0
LINE
  5
184B
  8
0
 62
     0
 10
4.3383903626899851
 20
-8.5087085006263337
 30
0.0
 11
4.1055856811814859
 21
-8.2759038191178362
 31
0.0
  0
LINE
  5
184C
  8
0
 62
     0
 10
2.0859571237484991
 20
-6.5149066379716469
 30
0.0
 11
1.896203437136684
 21
-6.325152951359831
 31
0.0
  0
LINE
  5
184D
  8
0
 62
     0
 10
4.338390362689978
 20
-8.7673398769131268
 30
0.0
 11
4.1055856811814859
 21
-8.5345351954046365
 31
0.0
  0
LINE
  5
184E
  8
0
 62
     0
 10
4.338390362689978
 20
-9.0259712531999217
 30
0.0
 11
4.1055856811814859
 21
-8.7931665716914225
 31
0.0
  0
LINE
  5
184F
  8
0
 62
     0
 10
4.338390362689978
 20
-9.2846026294867041
 30
0.0
 11
4.1055856811814859
 21
-9.0517979479782156
 31
0.0
  0
LINE
  5
1850
  8
0
 62
     0
 10
4.338390362689978
 20
-9.5432340057735008
 30
0.0
 11
4.1055856811814859
 21
-9.3104293242649998
 31
0.0
  0
LINE
  5
1851
  8
0
 62
     0
 10
4.3383903626899851
 20
-9.8018653820602903
 30
0.0
 11
4.1055856811814859
 21
-9.5690607005517911
 31
0.0
  0
LINE
  5
1852
  8
0
 62
     0
 10
4.3383903626899851
 20
-10.06049675834708
 30
0.0
 11
4.105585681181493
 21
-9.8276920768385896
 31
0.0
  0
LINE
  5
1853
  8
0
 62
     0
 10
4.338390362689978
 20
-10.31912813463388
 30
0.0
 11
4.1055856811814859
 21
-10.086323453125379
 31
0.0
  0
LINE
  5
1854
  8
0
 62
     0
 10
4.338390362689978
 20
-10.577759510920661
 30
0.0
 11
4.1055856811814859
 21
-10.34495482941217
 31
0.0
  0
LINE
  5
1855
  8
0
 62
     0
 10
4.338390362689978
 20
-10.836390887207459
 30
0.0
 11
4.1055856811814859
 21
-10.60358620569896
 31
0.0
  0
LINE
  5
1856
  8
0
 62
     0
 10
4.3331743680063184
 20
-11.08980626881058
 30
0.0
 11
4.1055856811814859
 21
-10.862217581985741
 31
0.0
  0
LINE
  5
1857
  8
0
 62
     0
 10
4.2927234683474307
 20
-11.30798674543848
 30
0.0
 11
4.0963826280125399
 21
-11.11164590510359
 31
0.0
  0
LINE
  5
1858
  8
0
 62
     0
 10
4.2225300722551111
 20
-11.496424725632959
 30
0.0
 11
4.0447379717610357
 21
-11.31863262513888
 31
0.0
  0
LINE
  5
1859
  8
0
 62
     0
 10
4.1288343457024572
 20
-11.661360375367099
 30
0.0
 11
3.9604188359354979
 21
-11.492944865600141
 31
0.0
  0
LINE
  5
185A
  8
0
 62
     0
 10
4.0145495478446014
 20
-11.80570695379603
 30
0.0
 11
3.8497662771754819
 21
-11.640923683126911
 31
0.0
  0
LINE
  5
185B
  8
0
 62
     0
 10
3.8807570971703012
 20
-11.93054587940852
 30
0.0
 11
3.7149104705198961
 21
-11.76469925275811
 31
0.0
  0
LINE
  5
185C
  8
0
 62
     0
 10
3.7271431977453049
 20
-12.03556335627032
 30
0.0
 11
3.555244829520197
 21
-11.86366498804521
 31
0.0
  0
LINE
  5
185D
  8
0
 62
     0
 10
2.1267631408982761
 20
-10.69381467571009
 30
0.0
 11
1.9433546960822801
 21
-10.51040623089408
 31
0.0
  0
LINE
  5
185E
  8
0
 62
     0
 10
3.551878254361716
 20
-12.11892978917353
 30
0.0
 11
3.367040741413724
 21
-11.93409227622552
 31
0.0
  0
LINE
  5
185F
  8
0
 62
     0
 10
2.1267631408982761
 20
-10.95244605199688
 30
0.0
 11
1.8939584533982821
 21
-10.719641364496891
 31
0.0
  0
LINE
  5
1860
  8
0
 62
     0
 10
3.3508120748548631
 20
-12.17649498595347
 30
0.0
 11
3.1404436980890349
 21
-11.96612660918764
 31
0.0
  0
LINE
  5
1861
  8
0
 62
     0
 10
2.1649602340683511
 20
-11.24927452145374
 30
0.0
 11
1.8939591030962699
 21
-10.978273390481659
 31
0.0
  0
LINE
  5
1862
  8
0
 62
     0
 10
3.1149140586925621
 20
-12.19922834607795
 30
0.0
 11
2.84391292772048
 21
-11.928227215105871
 31
0.0
  0
LINE
  5
1863
  8
0
 62
     0
 10
2.819806896892358
 20
-12.162752560564529
 30
0.0
 11
1.930434888609696
 21
-11.27338055228187
 31
0.0
  0
ENDBLK
  5
1864
  8
0
  0
BLOCK
  8
0
  2
*X4
 70
     1
 10
0.0
 20
0.0
 30
0.0
  3
*X4
  1

  0
LINE
  5
1867
  8
0
 62
     0
 10
3.9891833374314549
 20
-8.6767642279413906
 30
0.0
 11
3.9699999022341199
 21
-8.6575807927440565
 31
0.0
  0
LINE
  5
1868
  8
0
 62
     0
 10
3.9891833374314549
 20
-8.9353956042281801
 30
0.0
 11
3.6073930521298849
 21
-8.5536053189266141
 31
0.0
  0
LINE
  5
1869
  8
0
 62
     0
 10
3.9748178468112911
 20
-9.179661489894805
 30
0.0
 11
3.2447862020256362
 21
-8.4496298451091505
 31
0.0
  0
LINE
  5
186A
  8
0
 62
     0
 10
3.61220957775957
 20
-9.0756845971298841
 30
0.0
 11
2.8821793519213941
 21
-8.3456543712917011
 31
0.0
  0
LINE
  5
186B
  8
0
 62
     0
 10
3.249601308707851
 20
-8.9717077043649454
 30
0.0
 11
2.5195725018171511
 21
-8.2416788974742428
 31
0.0
  0
LINE
  5
186C
  8
0
 62
     0
 10
2.886993039656117
 20
-8.8677308116000102
 30
0.0
 11
2.1569656517129001
 21
-8.1377034236567951
 31
0.0
  0
LINE
  5
186D
  8
0
 62
     0
 10
2.5243847706043909
 20
-8.7637539188350786
 30
0.0
 11
1.8939584533982821
 21
-8.1333276016289702
 31
0.0
  0
LINE
  5
186E
  8
0
 62
     0
 10
2.1617765015526582
 20
-8.659777026070131
 30
0.0
 11
1.8939584533982901
 21
-8.3919589779157633
 31
0.0
  0
LINE
  5
186F
  8
0
 62
     0
 10
1.918015068738405
 20
-8.674646969542664
 30
0.0
 11
1.8939584533982821
 21
-8.6505903542025422
 31
0.0
  0
ENDBLK
  5
1870
  8
0
  0
BLOCK
  8
0
  2
*X5
 70
     1
 10
0.0
 20
0.0
 30
0.0
  3
*X5
  1

  0
LINE
  5
1873
  8
0
 62
     0
 10
3.8682112041804739
 20
-7.0040038369696571
 30
0.0
 11
3.6499603235052889
 21
-6.7857529562944654
 31
0.0
  0
LINE
  5
1874
  8
0
 62
     0
 10
3.9856529491582999
 20
-7.380076958234282
 30
0.0
 11
3.2873524678243831
 21
-6.6817764769003682
 31
0.0
  0
LINE
  5
1875
  8
0
 62
     0
 10
3.617185728354428
 20
-7.2702411137172032
 30
0.0
 11
2.924744612143483
 21
-6.5777999975062542
 31
0.0
  0
LINE
  5
1876
  8
0
 62
     0
 10
3.9698966386926511
 20
-7.6229520240554223
 30
0.0
 11
3.6965801245195551
 21
-7.3496355098823241
 31
0.0
  0
LINE
  5
1877
  8
0
 62
     0
 10
3.2412377906756031
 20
-7.1529245523251603
 30
0.0
 11
2.8018861877732841
 21
-6.7135729494228391
 31
0.0
  0
LINE
  5
1878
  8
0
 62
     0
 10
3.8992580266775061
 20
-7.8109447883270624
 30
0.0
 11
3.6959786603753511
 21
-7.6076654220249154
 31
0.0
  0
LINE
  5
1879
  8
0
 62
     0
 10
3.034690875273276
 20
-7.2050090132096241
 30
0.0
 11
2.8018861877732761
 21
-6.9722043257096251
 31
0.0
  0
LINE
  5
187A
  8
0
 62
     0
 10
3.792131315773708
 20
-7.9624494537100619
 30
0.0
 11
3.5455738235496881
 21
-7.715891961486034
 31
0.0
  0
LINE
  5
187B
  8
0
 62
     0
 10
2.2029885065044099
 20
-6.6319380207275591
 30
0.0
 11
2.1787499076577741
 21
-6.6076994218809233
 31
0.0
  0
LINE
  5
187C
  8
0
 62
     0
 10
3.6531656331833759
 20
-8.082115147406526
 30
0.0
 11
3.2290805876554312
 21
-7.6580301018785786
 31
0.0
  0
LINE
  5
187D
  8
0
 62
     0
 10
2.2677871082174681
 20
-6.9553679987274011
 30
0.0
 11
1.982121972154764
 21
-6.6697028626646979
 31
0.0
  0
LINE
  5
187E
  8
0
 62
     0
 10
3.4804499382598579
 20
-8.168030828769794
 30
0.0
 11
2.8664723785437469
 21
-7.5540532690536812
 31
0.0
  0
LINE
  5
187F
  8
0
 62
     0
 10
2.1576583608831101
 20
-7.1038706276798393
 30
0.0
 11
1.98333579740042
 21
-6.9295480641971476
 31
0.0
  0
LINE
  5
1880
  8
0
 62
     0
 10
3.262962952369413
 20
-8.2091752191661413
 30
0.0
 11
2.5038641694320689
 21
-7.4500764362287981
 31
0.0
  0
LINE
  5
1881
  8
0
 62
     0
 10
2.9676848492862362
 20
-8.1725284923697501
 30
0.0
 11
1.912955328823172
 21
-7.1177989719066872
 31
0.0
  0
LINE
  5
1882
  8
0
 62
     0
 10
2.6231897125881769
 20
-8.0866647319584857
 30
0.0
 11
1.8976699797883041
 21
-7.3611449991586113
 31
0.0
  0
ENDBLK
  5
1883
  8
0
  0
BLOCK
  8
0
  2
A$C2DCD199C
 70
     0
 10
0.0
 20
0.0
 30
0.0
  3
A$C2DCD199C
  1

  0
TEXT
  5
1885
  8
247
 10
-69.600996039937954
 20
-3.491133571839061
 30
0.0
 40
2.0
  1
ST10-C0611-45B-20
 41
0.7
  7
YOKO
 11
-69.600996039937954
 21
-3.491133571839061
 31
0.0
 73
     1
  0
INSERT
  5
1886
  8
247
  6
CONTINUOUS
  2
*X3
 10
-65.600996039937783
 20
0.5504680669266797
 30
0.0
 50
270.0
1001
ACAD
1000
HATCH
1002
{
1070
    19
1000
ANSI31
1040
0.0576
1040
6.2831853071795853
1002
}
  0
INSERT
  5
1887
  8
247
  6
CONTINUOUS
  2
*X4
 10
-65.600996039937783
 20
0.5504680669266797
 30
0.0
 50
270.0
1001
ACAD
1000
HATCH
1002
{
1070
    19
1000
ANSI31
1040
0.0576
1040
6.2831853071795853
1002
}
  0
INSERT
  5
1888
  8
247
  6
CONTINUOUS
  2
*X5
 10
-65.600996039937783
 20
0.5504680669266797
 30
0.0
 50
270.0
1001
ACAD
1000
HATCH
1002
{
1070
    19
1000
ANSI31
1040
0.0576
1040
6.2831853071795853
1002
}
  0
LINE
  5
1889
  8
247
 10
-74.268744566963747
 20
-1.3434903864716039
 30
0.0
 11
-73.663283629463749
 21
-1.3434903864716039
 31
0.0
  0
POLYLINE
  5
188A
  8
247
 66
     1
 10
0.0
 20
0.0
 30
0.0
 70
     1
1001
HATCH_DISTANCE
1040
1.0
1001
HATCH_DISPLAY
1070
     0
1001
HATCH_TYPE
1070
     7
  0
VERTEX
  5
188B
  8
247
 10
-74.268744566963747
 20
-1.3434903864716039
 30
0.0
  0
VERTEX
  5
188C
  8
247
 10
-74.34217718415124
 20
-1.599568511471591
 30
0.0
  0
VERTEX
  5
188D
  8
247
 10
-74.257406676338746
 20
-1.599568511471591
 30
0.0
  0
VERTEX
  5
188E
  8
247
 10
-74.784776793526262
 20
-3.4387152705047761
 30
0.0
  0
VERTEX
  5
188F
  8
247
 10
-74.264077574776252
 20
-3.4387152705047761
 30
0.0
  0
VERTEX
  5
1890
  8
247
 10
-73.663283629463749
 20
-1.3434903864716039
 30
0.0
  0
SEQEND
  5
1891
  8
247
  0
POLYLINE
  5
1892
  8
247
 66
     1
 10
0.0
 20
0.0
 30
0.0
 70
     1
  0
VERTEX
  5
1893
  8
247
 10
-74.268744566963747
 20
-1.3434903864716039
 30
0.0
  0
VERTEX
  5
1894
  8
247
 10
-74.34217718415124
 20
-1.599568511471591
 30
0.0
  0
VERTEX
  5
1895
  8
247
 10
-74.257406676338746
 20
-1.599568511471591
 30
0.0
  0
VERTEX
  5
1896
  8
247
 10
-74.784776793526262
 20
-3.4387152705047761
 30
0.0
  0
VERTEX
  5
1897
  8
247
 10
-74.264077574776252
 20
-3.4387152705047761
 30
0.0
  0
VERTEX
  5
1898
  8
247
 10
-73.663283629463749
 20
-1.3434903864716039
 30
0.0
  0
SEQEND
  5
1899
  8
247
  0
LINE
  5
189A
  8
247
 10
-74.264077574776252
 20
-3.4387152705047761
 30
0.0
 11
-73.663283629463749
 21
-1.3434903864716039
 31
0.0
  0
LINE
  5
189B
  8
247
 10
-76.578009215401224
 20
-3.7879222957632979
 30
0.0
 11
-71.852103941963762
 21
-3.7879222957632979
 31
0.0
  0
LINE
  5
189C
  8
247
 10
-76.578009215401224
 20
-3.5551176142547969
 30
0.0
 11
-71.852103941963762
 21
-3.5551176142547969
 31
0.0
  0
ARC
  5
189D
  8
247
 10
-73.054166441963744
 20
-2.6821085505340991
 30
0.0
 40
0.756615234375
 50
163.9997507017292
 51
304.96387329163008
  0
ARC
  5
189E
  8
247
 10
-76.578009215401224
 20
-2.5657062067841032
 30
0.0
 40
0.9894111328124999
 50
89.999999999999986
 51
270.0
  0
ARC
  5
189F
  8
247
 10
-76.578009215401224
 20
-2.5657062067841032
 30
0.0
 40
1.2222158203124971
 50
89.999999999999986
 51
270.0
  0
LINE
  5
18A0
  8
247
 10
-74.784776793526262
 20
-3.4387152705047761
 30
0.0
 11
-74.264077574776252
 21
-3.4387152705047761
 31
0.0
  0
LINE
  5
18A1
  8
247
 10
-75.26864988885697
 20
-3.3950793863354418
 30
0.0
 11
-74.951388965537404
 21
-3.077818463015876
 31
0.0
  0
LINE
  5
18A2
  8
247
 10
-76.346811278173433
 20
-3.4387152705047761
 30
0.0
 11
-75.684770389840466
 21
-2.7766743821718078
 31
0.0
  0
LINE
  5
18A3
  8
247
 10
-76.088179901886718
 20
-3.4387152705047761
 30
0.0
 11
-75.788741189793257
 21
-3.1392765584113671
 31
0.0
  0
LINE
  5
18A4
  8
247
 10
-75.570917149313132
 20
-3.4387152705048001
 30
0.0
 11
-74.91275749438141
 21
-2.780555615573078
 31
0.0
  0
LINE
  5
18A5
  8
247
 10
-75.609332052648412
 20
-2.513580270650567
 30
0.0
 11
-75.800116015437595
 21
-3.1789467017097648
 31
0.0
  0
ARC
  5
18A6
  8
247
 10
-75.749481871651255
 20
-2.8334298395965791
 30
0.0
 40
0.3492072715759277
 50
261.66285421114787
 51
66.338192159113575
  0
LINE
  5
18A7
  8
247
 10
-75.829548525599932
 20
-3.4387152705047761
 30
0.0
 11
-74.975335195789214
 21
-2.5845019406941279
 31
0.0
  0
LINE
  5
18A8
  8
247
 10
-76.455850035713723
 20
-3.4387152705047761
 30
0.0
 11
-75.489756285713739
 21
-3.4387152705047761
 31
0.0
  0
LINE
  5
18A9
  8
247
 10
-76.395710133497815
 20
-3.2289827495423431
 30
0.0
 11
-75.410689099445378
 21
-2.2439617154899021
 31
0.0
  0
LINE
  5
18AA
  8
247
 10
-76.291733976049855
 20
-2.8663752158076541
 30
0.0
 11
-75.476817467178336
 21
-2.0514587069360348
 31
0.0
  0
ARC
  5
18AB
  8
247
 10
-75.489756285713739
 20
-2.8567120661591221
 30
0.0
 40
0.5820029296875
 50
270.0
 51
40.329840654167477
  0
LINE
  5
18AC
  8
247
 10
-75.408328486163114
 20
-2.7588638547812141
 30
0.0
 11
-74.644952095047785
 21
-1.995487463665867
 31
0.0
  0
LINE
  5
18AD
  8
247
 10
-74.34217718415124
 20
-1.599568511471591
 30
0.0
 11
-74.268744566963747
 21
-1.3434903864716039
 31
0.0
  0
LINE
  5
18AE
  8
247
 10
-74.34217718415124
 20
-1.599568511471591
 30
0.0
 11
-74.257406676338746
 21
-1.599568511471591
 31
0.0
  0
LINE
  5
18AF
  8
247
 10
-75.292926441919036
 20
-1.6089363053899739
 30
0.0
 11
-75.052828537559876
 21
-1.368838401030803
 31
0.0
  0
LINE
  5
18B0
  8
247
 10
-76.036179339361055
 20
-1.576295073971653
 30
0.0
 11
-75.803374651861063
 21
-1.343490386471657
 31
0.0
  0
LINE
  5
18B1
  8
247
 10
-76.097238707588716
 20
-1.3434903864716039
 30
0.0
 11
-76.163991637276197
 21
-1.576295073971596
 31
0.0
  0
LINE
  5
18B2
  8
247
 10
-75.976151793526085
 20
-1.3434903864716039
 30
0.0
 11
-76.042904723213994
 21
-1.576295073971596
 31
0.0
  0
LINE
  5
18B3
  8
247
 10
-75.976151793526085
 20
-1.3434903864716039
 30
0.0
 11
-75.225134671848352
 21
-1.3434903864716889
 31
0.0
  0
LINE
  5
18B4
  8
247
 10
-76.578009215401224
 20
-1.3434903864716039
 30
0.0
 11
-76.097238707588716
 21
-1.3434903864716039
 31
0.0
  0
LINE
  5
18B5
  8
247
 10
-75.170558478157162
 20
-1.7451997179149319
 30
0.0
 11
-74.880268237996106
 21
-1.454909477753787
 31
0.0
  0
LINE
  5
18B6
  8
247
 10
-76.042904723213994
 20
-1.576295073971596
 30
0.0
 11
-75.921809020088986
 21
-1.5762950739723349
 31
0.0
  0
LINE
  5
18B7
  8
247
 10
-76.578009215401224
 20
-1.576295073971596
 30
0.0
 11
-76.163991637276197
 21
-1.576295073971596
 31
0.0
  0
LINE
  5
18B8
  8
247
 10
-75.979805503706146
 20
-1.7785526146034729
 30
0.0
 11
-75.544743275574305
 21
-1.343490386471657
 31
0.0
  0
LINE
  5
18B9
  8
247
 10
-75.140719527007974
 20
-1.973992143052484
 30
0.0
 11
-74.751143357357279
 21
-1.584415973401764
 31
0.0
  0
ARC
  5
18BA
  8
247
 10
-75.222735777901249
 20
-1.9254933161590939
 30
0.0
 40
0.5820078735351563
 50
287.669577547399
 51
90.236159842671427
  0
LINE
  5
18BB
  8
247
 10
-76.083781661154035
 20
-2.1411601483382192
 30
0.0
 11
-75.286111899287548
 21
-1.3434903864716889
 31
0.0
  0
LINE
  5
18BC
  8
247
 10
-75.49860907482369
 20
-2.5905130671550469
 30
0.0
 11
-74.665522451387133
 21
-1.7574264437184151
 31
0.0
  0
LINE
  5
18BD
  8
247
 10
-74.784776793526262
 20
-3.4387152705047761
 30
0.0
 11
-74.257406676338746
 21
-1.599568511471591
 31
0.0
  0
LINE
  5
18BE
  8
247
 10
-75.342314323402476
 20
-1.5823799999173069
 30
0.0
 11
-75.533095147605948
 21
-2.2477266961288538
 31
0.0
  0
ARC
  5
18BF
  8
247
 10
-75.482461363838752
 20
-1.902219878659128
 30
0.0
 40
0.349197280883789
 50
261.66260168792923
 51
66.338155095190004
  0
LINE
  5
18C0
  8
247
 10
-76.187757818601966
 20
-2.5037676820729078
 30
0.0
 11
-75.372844741697463
 21
-1.688854605168433
 31
0.0
  0
LINE
  5
18C1
  8
247
 10
-76.455850035713723
 20
-3.4387152705047761
 30
0.0
 11
-75.921809020088986
 21
-1.5762950739723349
 31
0.0
  0
ARC
  5
18C2
  8
247
 10
-71.852103941963762
 20
-2.5657062067841032
 30
0.0
 40
1.2222158203124971
 50
270.0
 51
104.77079396609309
  0
ARC
  5
18C3
  8
247
 10
-71.852103941963762
 20
-2.5657062067841032
 30
0.0
 40
0.9894111328124999
 50
270.0
 51
104.12743649641109
  0
LINE
  5
18C4
  8
247
 10
-72.844186949776258
 20
-3.0055636286590892
 30
0.0
 11
-72.694693785713753
 21
-2.48422280834659
 31
0.0
  0
LINE
  5
18C5
  8
247
 10
-72.888439879463746
 20
-2.48422280834659
 30
0.0
 11
-72.694693785713753
 21
-2.48422280834659
 31
0.0
  0
LINE
  5
18C6
  8
247
 10
-72.620584410713747
 20
-3.302159606442316
 30
0.0
 11
-72.484019957588757
 21
-3.4387152705047761
 31
0.0
  0
LINE
  5
18C7
  8
247
 10
-72.888439879463746
 20
-2.48422280834659
 30
0.0
 11
-72.821686949776264
 21
-2.2514181208465969
 31
0.0
  0
LINE
  5
18C8
  8
247
 10
-72.821686949776264
 20
-2.2514181208465969
 30
0.0
 11
-72.143566832588746
 21
-2.2514181208465969
 31
0.0
  0
LINE
  5
18C9
  8
247
 10
-72.484019957588757
 20
-3.4387152705047761
 30
0.0
 11
-72.143566832588746
 21
-2.2514181208465969
 31
0.0
  0
POLYLINE
  5
18CA
  8
247
 66
     1
 10
0.0
 20
0.0
 30
0.0
 70
     1
1001
HATCH_DISTANCE
1040
1.0
1001
HATCH_DISPLAY
1070
     0
1001
HATCH_TYPE
1070
     7
  0
VERTEX
  5
18CB
  8
247
 10
-72.093601012276253
 20
-1.606213042721595
 30
0.0
  0
VERTEX
  5
18CC
  8
247
 10
-72.163711363838758
 20
-1.3838761286591139
 30
0.0
  0
VERTEX
  5
18CD
  8
247
 10
-72.163711363838758
 20
-1.3838761286591139
 30
0.0
  0
VERTEX
  5
18CE
  8
247
 10
-72.093601012276253
 20
-1.606213042721595
 30
0.0
  0
SEQEND
  5
18CF
  8
247
  0
POLYLINE
  5
18D0
  8
247
 66
     1
 10
0.0
 20
0.0
 30
0.0
 70
     1
  0
VERTEX
  5
18D1
  8
247
 10
-72.093601012276253
 20
-1.606213042721595
 30
0.0
  0
VERTEX
  5
18D2
  8
247
 10
-72.163711363838758
 20
-1.3838761286591139
 30
0.0
  0
VERTEX
  5
18D3
  8
247
 10
-72.163711363838758
 20
-1.3838761286591139
 30
0.0
  0
VERTEX
  5
18D4
  8
247
 10
-72.093601012276253
 20
-1.606213042721595
 30
0.0
  0
SEQEND
  5
18D5
  8
247
  0
LINE
  5
18D6
  8
247
 10
-72.093601012276253
 20
-1.606213042721591
 30
0.0
 11
-72.163711363838758
 21
-1.3838761286591139
 31
0.0
  0
POLYLINE
  5
18D7
  8
247
 66
     1
 10
0.0
 20
0.0
 30
0.0
 70
     1
1001
HATCH_DISTANCE
1040
1.0
1001
HATCH_DISPLAY
1070
     0
1001
HATCH_TYPE
1070
     7
  0
VERTEX
  5
18D8
  8
247
 10
-72.093601012276253
 20
-1.606213042721595
 30
0.0
  0
VERTEX
  5
18D9
  8
247
 10
-72.163711363838758
 20
-1.3838761286591139
 30
0.0
  0
VERTEX
  5
18DA
  8
247
 10
-72.163711363838758
 20
-1.3838761286591139
 30
0.0
  0
VERTEX
  5
18DB
  8
247
 10
-72.093601012276253
 20
-1.606213042721595
 30
0.0
  0
SEQEND
  5
18DC
  8
247
  0
POLYLINE
  5
18DD
  8
247
 66
     1
 10
0.0
 20
0.0
 30
0.0
 70
     1
  0
VERTEX
  5
18DE
  8
247
 10
-72.093601012276253
 20
-1.606213042721595
 30
0.0
  0
VERTEX
  5
18DF
  8
247
 10
-72.163711363838758
 20
-1.3838761286591139
 30
0.0
  0
VERTEX
  5
18E0
  8
247
 10
-72.163711363838758
 20
-1.3838761286591139
 30
0.0
  0
VERTEX
  5
18E1
  8
247
 10
-72.093601012276253
 20
-1.606213042721595
 30
0.0
  0
SEQEND
  5
18E2
  8
247
  0
LINE
  5
18E3
  8
247
 10
-72.204615660713756
 20
-1.6412198786590999
 30
0.0
 11
-72.274726012276247
 21
-1.4188829645965619
 31
0.0
  0
ARC
  5
18E4
  8
247
 10
-71.852103941963762
 20
-2.5657062067841032
 30
0.0
 40
1.222216369628905
 50
110.22964506332001
 51
118.57168892371649
  0
ARC
  5
18E5
  8
247
 10
-72.765410582588757
 20
-1.844018706784101
 30
0.0
 40
0.2444448051452637
 50
1.7101213820627339
 51
163.998398354447
  0
ARC
  5
18E6
  8
247
 10
-71.852103941963762
 20
-2.5657062067841032
 30
0.0
 40
0.9894138793945311
 50
110.8721834020734
 51
132.5419489373873
  0
ARC
  5
18E7
  8
247
 10
-71.817141051338751
 20
-2.721887847409096
 30
0.0
 40
1.9799648437499999
 50
155.20517736984061
 51
172.7948259620521
  0
ARC
  5
18E8
  8
247
 10
-73.079162535713749
 20
-2.9381866755341148
 30
0.0
 40
0.2444446334838867
 50
164.00027305718231
 51
344.00027305718243
  0
LINE
  5
18E9
  8
247
 10
-73.314138121651254
 20
-2.8708097224091089
 30
0.0
 11
-73.000386168526234
 21
-1.7766329645966039
 31
0.0
  0
ARC
  5
18EA
  8
247
 10
-72.887279723213751
 20
-2.1000968317840889
 30
0.0
 40
0.7566075439453125
 50
53.444012197057731
 51
164.00018438768549
  0
LINE
  5
18EB
  8
245
 10
-84.031331679127305
 20
-0.0000000000000568
 30
0.0
 11
0.8217543243743818
 21
0.0
 31
0.0
  0
LINE
  5
18EC
  8
240
 10
-80.253147208417005
 20
-5.0
 30
0.0
 11
-23.504813258256519
 21
-5.0
 31
0.0
  0
LINE
  5
18ED
  8
240
 10
-23.504813258256519
 20
4.9999999999999432
 30
0.0
 11
-80.253147208417005
 21
4.9999999999999432
 31
0.0
  0
ARC
  5
18EE
  8
240
 10
-80.253147208416976
 20
-4.0
 30
0.0
 40
1.0
 50
180.0
 51
270.0
  0
ARC
  5
18EF
  8
240
 10
-80.253147208416976
 20
3.9999999999999432
 30
0.0
 40
1.0
 50
90.0
 51
180.0
  0
LINE
  5
18F0
  8
240
 10
-81.253147208417005
 20
-0.0000000000000568
 30
0.0
 11
-81.253147208417005
 21
3.9999999999999432
 31
0.0
  0
LINE
  5
18F1
  8
240
 10
-81.253147208417005
 20
-4.0
 30
0.0
 11
-81.253147208417005
 21
-0.0000000000000568
 31
0.0
  0
LINE
  5
18F2
  8
240
 10
-20.18135043869248
 20
-3.6999999999999882
 30
0.0
 11
-5.9105792254618157
 21
-3.6999999999999882
 31
0.0
  0
LINE
  5
18F3
  8
240
 10
-8.0960807427063912
 20
3.6999999999999882
 30
0.0
 11
-20.18135043869248
 21
3.6999999999999882
 31
0.0
  0
LINE
  5
18F4
  8
241
 10
-23.504813258256519
 20
-0.0000000000000568
 30
0.0
 11
-23.504813258256519
 21
4.9999999999999432
 31
0.0
  0
ARC
  5
18F5
  8
240
 10
-20.181350438692451
 20
7.6999999999999877
 30
0.0
 40
4.0
 50
240.0000000000002
 51
270.0
  0
LINE
  5
18F6
  8
241
 10
-23.504813258256519
 20
-5.0
 30
0.0
 11
-23.504813258256519
 21
-0.0000000000000568
 31
0.0
  0
LINE
  5
18F7
  8
240
 10
-23.504813258256519
 20
-5.0
 30
0.0
 11
-22.181350438692469
 21
-4.2358983848623089
 31
0.0
  0
ARC
  5
18F8
  8
240
 10
-20.181350438692451
 20
-7.6999999999999877
 30
0.0
 40
4.0
 50
90.0
 51
120.0000000000005
  0
LINE
  5
18F9
  8
240
 10
-22.181350438692469
 20
4.235898384862252
 30
0.0
 11
-23.504813258256519
 21
4.9999999999999432
 31
0.0
  0
LINE
  5
18FA
  8
240
 10
-7.9791266939106151
 20
3.6033872953098012
 30
0.0
 11
-5.8850984497984484
 21
3.603387295310255
 31
0.0
  0
LINE
  5
18FB
  8
241
 10
-6.904203893950779
 20
2.5284644953537159
 30
0.0
 11
-7.9791266939097616
 21
3.6033872953087771
 31
0.0
  0
LINE
  5
18FC
  8
240
 10
-8.0720850621191573
 20
3.6963456635183429
 30
0.0
 11
-7.97912669391033
 21
3.6033872953098012
 31
0.0
  0
LINE
  5
18FD
  8
241
 10
-5.9105792254618157
 20
-3.6999999999999882
 30
0.0
 11
-5.9105792254618157
 21
0.997438673159138
 31
0.0
  0
LINE
  5
18FE
  8
240
 10
-0.2531472084170048
 20
-2.5400059941335371
 30
0.0
 11
-0.2531472084183122
 21
2.1642707248245752
 31
0.0
  0
LINE
  5
18FF
  8
241
 10
-5.5500240979153821
 20
-0.0000000000000568
 30
0.0
 11
-5.5500240979153821
 21
-3.8000000000000109
 31
0.0
  0
LINE
  5
1900
  8
241
 10
-1.382086580835874
 20
-0.0000000000000568
 30
0.0
 11
-1.382086580835874
 21
-3.8000000000000109
 31
0.0
  0
LINE
  5
1901
  8
240
 10
-5.5500240979153821
 20
-3.8000000000000109
 30
0.0
 11
-1.382086580835874
 21
-3.8000000000000109
 31
0.0
  0
ARC
  5
1902
  8
240
 10
-5.9105792254617882
 20
-4.4000000000000341
 30
0.0
 40
0.6999999999999887
 50
58.997280866124051
 51
90.0
  0
LINE
  5
1903
  8
240
 10
-1.382086580835874
 20
-3.8000000000000109
 30
0.0
 11
-0.3752838602333952
 21
-2.8277419142689828
 31
0.0
  0
ARC
  5
1904
  8
240
 10
-0.6531472084169537
 20
-2.5400059941335371
 30
0.0
 40
0.4000000000000021
 50
313.9999999999979
 51
0.0
  0
LINE
  5
1905
  8
241
 10
-20.18135043869248
 20
-3.6999999999999882
 30
0.0
 11
-20.18135043869248
 21
3.6999999999999882
 31
0.0
  0
CIRCLE
  5
1906
  8
246
 10
-3.4526915425006162
 20
2.5473089230065109
 30
0.0
 40
2.4999997530653939
  0
LINE
  5
1907
  8
240
 10
-3.5941138803506192
 20
-0.8468034596258462
 30
0.0
 11
-6.8468026298087628
 21
2.405887617367795
 31
0.0
  0
LINE
  5
1908
  8
240
 10
-0.0585786741218328
 20
2.4058875345206441
 30
0.0
 11
-3.3112711476365462
 21
-0.8468035405836361
 31
0.0
  0
LINE
  5
1909
  8
240
 10
-3.5941138803615331
 20
5.9414213056386691
 30
0.0
 11
-6.8468026298087628
 21
2.6887302286451131
 31
0.0
  0
LINE
  5
190A
  8
240
 10
-0.0585786741218328
 20
2.6887303077135689
 30
0.0
 11
-3.3112711476063899
 21
5.941421386555418
 31
0.0
1001
GENIUS_GENOREF_13
1005
1910
1005
190F
  0
ARC
  5
190B
  8
240
 10
-6.7053812229728456
 20
2.5473089230064541
 30
0.0
 40
0.2
 50
135.00002049964721
 51
224.99997950035279
1001
GENIUS_GENODEF_13
1002
{
1000
HIER
1070
     0
1002
}
1002
{
1000
MANEDIT
1070
     0
1002
}
1002
{
1000
NOSEL
1070
     0
1002
}
1002
{
1000
BEHIND
1070
     0
1002
}
1002
{
1000
OTHER
1070
     0
1002
}
1002
{
1000
REACTOR
1002
}
1001
GENIUS_GENOBJ-N-FIL_13
1002
{
1000
OWNER
1000
GEN
1002
}
  0
ARC
  5
190C
  8
240
 10
-3.4526924735147011
 20
-0.7053821539871592
 30
0.0
 40
0.2
 50
224.99997950035399
 51
314.99998770021858
1001
GENIUS_GENODEF_13
1002
{
1000
HIER
1070
     0
1002
}
1002
{
1000
MANEDIT
1070
     0
1002
}
1002
{
1000
NOSEL
1070
     0
1002
}
1002
{
1000
BEHIND
1070
     0
1002
}
1002
{
1000
OTHER
1070
     0
1002
}
1002
{
1000
REACTOR
1002
}
1001
GENIUS_GENOBJ-N-FIL_13
1002
{
1000
OWNER
1000
GEN
1002
}
  0
ARC
  5
190D
  8
240
 10
-0.1999999999999886
 20
2.5473089211170921
 30
0.0
 40
0.2
 50
314.99998770022319
 51
45.000012299781403
1001
GENIUS_GENOREF_13
1005
1910
1005
190F
1001
GENIUS_GENOBJ-N-FIL_13
1002
{
1000
OWNER
1000
GEN
1002
}
1001
GENIUS_GENODEF_13
1002
{
1000
HIER
1070
     0
1002
}
1002
{
1000
MANEDIT
1070
     0
1002
}
1002
{
1000
NOSEL
1070
     0
1002
}
1002
{
1000
BEHIND
1070
     0
1002
}
1002
{
1000
OTHER
1070
     0
1002
}
1002
{
1000
REACTOR
1002
}
  0
ARC
  5
190E
  8
240
 10
-3.452692473525615
 20
5.8000000000000114
 30
0.0
 40
0.2
 50
45.00001228314246
 51
135.00002049964721
1001
GENIUS_GENODEF_13
1002
{
1000
HIER
1070
     0
1002
}
1002
{
1000
MANEDIT
1070
     0
1002
}
1002
{
1000
NOSEL
1070
     0
1002
}
1002
{
1000
BEHIND
1070
     0
1002
}
1002
{
1000
OTHER
1070
     0
1002
}
1002
{
1000
REACTOR
1002
}
1001
GENIUS_GENOBJ-N-FIL_13
1002
{
1000
OWNER
1000
GEN
1002
}
  0
POINT
  5
190F
  8
0
 10
-143.29777094328509
 20
-186.59680781787239
 30
0.0
1001
GENIUS_GENOENT_13
1002
{
1000
MYREF
1005
190F
1002
}
1002
{
1000
GRP
1005
0
1002
}
1001
GENIUS_GENOBJ-N-FIL_13
1002
{
1000
OWNER
1000
GEN
1002
}
1001
GENIUS_GENOLIS_13
1002
{
1000
ENT
1005
190A
1005
0
1002
}
1001
GENIUS_GENODEF_13
1002
{
1000
HIER
1070
     1
1002
}
1002
{
1000
MANEDIT
1070
     1
1002
}
1002
{
1000
NOSEL
1070
     0
1002
}
1002
{
1000
BEHIND
1070
     0
1002
}
1002
{
1000
OTHER
1070
     0
1002
}
1002
{
1000
REACTOR
1002
}
  0
POINT
  5
1910
  8
0
 10
-143.29777094328509
 20
-186.59680781787239
 30
0.0
1001
GENIUS_GENOBJ-N-FIL_13
1002
{
1000
OWNER
1000
GEN
1002
}
1001
GENIUS_GENOENT_13
1002
{
1000
MYREF
1005
1910
1002
}
1002
{
1000
GRP
1005
0
1002
}
1001
GENIUS_GENOLIS_13
1002
{
1000
ENT
1005
190A
1005
0
1002
}
1001
GENIUS_GENODEF_13
1002
{
1000
HIER
1070
     1
1002
}
1002
{
1000
MANEDIT
1070
     1
1002
}
1002
{
1000
NOSEL
1070
     0
1002
}
1002
{
1000
BEHIND
1070
     0
1002
}
1002
{
1000
OTHER
1070
     0
1002
}
1002
{
1000
REACTOR
1002
}
  0
ENDBLK
  5
1913
  8
0
  0
ENDSEC
  0
SECTION
  2
ENTITIES
  0
TEXT
  5
13FE
  8
241
 10
-82.711975275254787
 20
21.489667129688939
 30
0.0
 40
3.0
  1
ST10-C0611-45B-20
  7
YOKO
 11
-82.711975275254787
 21
21.489667129688939
 31
0.0
 73
     1
  0
LINE
  5
166B
  8
250
 10
-81.253147208417005
 20
-4.5
 30
0.0
 11
-81.253147208417005
 21
-22.0
 31
0.0
  0
LINE
  5
166C
  8
250
 10
0.0
 20
1.999928298299664
 30
0.0
 11
-0.0000000000000015
 21
-22.0
 31
0.0
  0
LINE
  5
166D
  8
250
 10
-79.023147208417001
 20
-21.0
 30
0.0
 11
-2.2300000000000009
 21
-21.0
 31
0.0
  0
LINE
  5
1671
  8
250
 10
-20.18135043869248
 20
-4.1999999999999877
 30
0.0
 11
-20.18135043869248
 21
-15.0
 31
0.0
  0
LINE
  5
1672
  8
250
 10
0.0
 20
1.999928298299664
 30
0.0
 11
-0.0000000000000011
 21
-15.0
 31
0.0
  0
LINE
  5
1673
  8
250
 10
-17.951350438692469
 20
-14.0
 30
0.0
 11
-2.23
 21
-14.0
 31
0.0
  0
LINE
  5
1677
  8
250
 10
-80.753147208417005
 20
-5.0
 30
0.0
 11
-92.0
 21
-4.9999999999999956
 31
0.0
  0
LINE
  5
1678
  8
250
 10
-80.753147208417005
 20
4.9999999999999432
 30
0.0
 11
-92.0
 21
4.9999999999999458
 31
0.0
  0
LINE
  5
1679
  8
250
 10
-91.0
 20
-2.769999999999996
 30
0.0
 11
-91.0
 21
2.7699999999999458
 31
0.0
  0
LINE
  5
167D
  8
250
 10
-2.3698495717846408
 20
5.4999999999999707
 30
0.0
 11
15.0
 21
5.4999999999999662
 31
0.0
  0
LINE
  5
167E
  8
250
 10
14.0
 20
3.2699999999999658
 30
0.0
 11
14.0
 21
-0.0000000000000049
 31
0.0
  0
LINE
  5
1681
  8
250
 10
0.1301515001299549
 20
2.9999999999999711
 30
0.0
 11
8.0
 21
2.9999999999999689
 31
0.0
  0
LINE
  5
1682
  8
250
 10
7.0000000000000009
 20
7.459999999999968
 30
0.0
 11
7.0
 21
5.2299999999999693
 31
0.0
  0
LINE
  5
1683
  8
250
 10
7.0
 20
2.9999999999999689
 30
0.0
 11
6.9999999999999991
 21
-3.8027338665205792
 31
0.0
  0
LINE
  5
1686
  8
250
 10
-0.0000000000000001
 20
3.1301516587082578
 30
0.0
 11
-0.0000000000000013
 21
12.628497484517149
 31
0.0
  0
LINE
  5
1687
  8
250
 10
-3.6648246139954419
 20
6.2949747013528992
 30
0.0
 11
-7.0698996497424771
 21
9.7000482771208194
 31
0.0
  0
ARC
  5
1688
  8
250
 10
0.0
 20
2.6301516587082592
 30
0.0
 40
8.9983458258088937
 50
104.2358201477324
 51
120.76419213550039
  0
LINE
  5
168C
  8
250
 10
-6.0355337967665426
 20
4.0
 30
0.0
 11
-11.297770943285091
 21
4.0000000000000009
 31
0.0
  0
LINE
  5
168D
  8
250
 10
-10.297770943285091
 20
1.7700000000000009
 30
0.0
 11
-10.297770943285091
 21
-3.357142857142855
 31
0.0
  0
TEXT
  5
1690
  8
250
 10
-7.0517742742111471
 20
11.58497931095595
 30
0.0
 40
3.0
  1
45üï
 50
12.91779964116029
  0
LINE
  5
1691
  8
250
 10
-4.3744896750744502
 20
10.068900347812439
 30
0.0
 11
-6.362792716964373
 21
8.9929416475258606
 31
0.0
  0
LINE
  5
1692
  8
250
 10
-4.83092509364793
 20
10.65559545868016
 30
0.0
 11
-6.362792716964373
 21
8.9929416475258606
 31
0.0
  0
LINE
  5
1693
  8
250
 10
-6.362792716964373
 20
8.9929416475258606
 30
0.0
 11
-4.6027073843611896
 21
10.362247903246301
 31
0.0
  0
LINE
  5
1694
  8
250
 10
-2.2588677887860769
 20
11.72097680056031
 30
0.0
 11
-0.0000000000000009
 21
11.628497484517149
 31
0.0
  0
LINE
  5
1695
  8
250
 10
-2.1667601189197478
 20
10.983372149276009
 30
0.0
 11
-0.0000000000000009
 21
11.628497484517149
 31
0.0
  0
LINE
  5
1696
  8
250
 10
-0.0000000000000009
 20
11.628497484517149
 30
0.0
 11
-2.2128139538529119
 21
11.35217447491816
 31
0.0
  0
LINE
  5
1697
  8
250
 10
7.371666666666667
 20
5.2299999999999702
 30
0.0
 11
7.0
 21
2.9999999999999689
 31
0.0
  0
LINE
  5
1698
  8
250
 10
6.6283333333333339
 20
5.2299999999999702
 30
0.0
 11
7.0
 21
2.9999999999999689
 31
0.0
  0
LINE
  5
1699
  8
250
 10
7.0
 20
2.9999999999999689
 30
0.0
 11
7.0
 21
5.2299999999999702
 31
0.0
  0
TEXT
  5
169A
  8
250
 10
5.9981900963263106
 20
-3.088448152234863
 30
0.0
 40
3.0
  1
\U+2205
 50
90.0
  0
TEXT
  5
169B
  8
250
 10
5.9981900963263106
 20
-0.3741624379491499
 30
0.0
 40
3.0
  1
6
 50
90.0
  0
LINE
  5
169C
  8
250
 10
13.62833333333333
 20
3.2699999999999672
 30
0.0
 11
14.0
 21
5.4999999999999671
 31
0.0
  0
LINE
  5
169D
  8
250
 10
14.371666666666661
 20
3.2699999999999672
 30
0.0
 11
14.0
 21
5.4999999999999671
 31
0.0
  0
LINE
  5
169E
  8
250
 10
14.0
 20
5.4999999999999671
 30
0.0
 11
14.0
 21
3.2699999999999672
 31
0.0
  0
TEXT
  5
169F
  8
250
 10
12.732244335062431
 20
-3.211004382848476
 30
0.0
 40
3.0
  1
\U+2205
 50
90.0
  0
TEXT
  5
16A0
  8
250
 10
12.732244335062431
 20
-0.4967186685627621
 30
0.0
 40
3.0
  1
11
 50
90.0
  0
TEXT
  5
16A1
  8
250
 10
-12.94781807648909
 20
-13.0
 30
0.0
 40
3.0
  1
20
  0
LINE
  5
16A2
  8
250
 10
-2.23
 20
-13.62833333333333
 30
0.0
 11
-0.000000000000001
 21
-14.0
 31
0.0
  0
LINE
  5
16A3
  8
250
 10
-2.23
 20
-14.371666666666661
 30
0.0
 11
-0.000000000000001
 21
-14.0
 31
0.0
  0
LINE
  5
16A4
  8
250
 10
-0.000000000000001
 20
-14.0
 30
0.0
 11
-2.23
 21
-14.0
 31
0.0
  0
LINE
  5
16A5
  8
250
 10
-17.951350438692469
 20
-14.371666666666661
 30
0.0
 11
-20.18135043869248
 21
-14.0
 31
0.0
  0
LINE
  5
16A6
  8
250
 10
-17.951350438692469
 20
-13.62833333333333
 30
0.0
 11
-20.18135043869248
 21
-14.0
 31
0.0
  0
LINE
  5
16A7
  8
250
 10
-20.18135043869248
 20
-14.0
 30
0.0
 11
-17.951350438692469
 21
-14.0
 31
0.0
  0
TEXT
  5
16A8
  8
250
 10
-43.055145032779933
 20
-20.0
 30
0.0
 40
3.0
  1
81
  0
LINE
  5
16A9
  8
250
 10
-2.2300000000000009
 20
-20.62833333333333
 30
0.0
 11
-0.0000000000000014
 21
-21.0
 31
0.0
  0
LINE
  5
16AA
  8
250
 10
-2.2300000000000009
 20
-21.37166666666667
 30
0.0
 11
-0.0000000000000014
 21
-21.0
 31
0.0
  0
LINE
  5
16AB
  8
250
 10
-0.0000000000000014
 20
-21.0
 30
0.0
 11
-2.2300000000000009
 21
-21.0
 31
0.0
  0
LINE
  5
16AC
  8
250
 10
-79.023147208417001
 20
-21.37166666666667
 30
0.0
 11
-81.253147208417005
 21
-21.0
 31
0.0
  0
LINE
  5
16AD
  8
250
 10
-79.023147208417001
 20
-20.62833333333333
 30
0.0
 11
-81.253147208417005
 21
-21.0
 31
0.0
  0
LINE
  5
16AE
  8
250
 10
-81.253147208417005
 20
-21.0
 30
0.0
 11
-79.023147208417001
 21
-21.0
 31
0.0
  0
TEXT
  5
16AF
  8
250
 10
-92.0
 20
-4.0714285714286111
 30
0.0
 40
3.0
  1
\U+2205
 50
90.0
  0
TEXT
  5
16B0
  8
250
 10
-92.0
 20
-1.3571428571428961
 30
0.0
 40
3.0
  1
10
 50
90.0
  0
LINE
  5
16B1
  8
250
 10
-91.37166666666667
 20
2.7699999999999458
 30
0.0
 11
-91.0
 21
4.9999999999999458
 31
0.0
  0
LINE
  5
16B2
  8
250
 10
-90.62833333333333
 20
2.7699999999999458
 30
0.0
 11
-91.0
 21
4.9999999999999458
 31
0.0
  0
LINE
  5
16B3
  8
250
 10
-91.0
 20
4.9999999999999458
 30
0.0
 11
-91.0
 21
2.7699999999999458
 31
0.0
  0
LINE
  5
16B4
  8
250
 10
-90.62833333333333
 20
-2.769999999999996
 30
0.0
 11
-91.0
 21
-4.9999999999999956
 31
0.0
  0
LINE
  5
16B5
  8
250
 10
-91.37166666666667
 20
-2.769999999999996
 30
0.0
 11
-91.0
 21
-4.9999999999999956
 31
0.0
  0
LINE
  5
16B6
  8
250
 10
-91.0
 20
-4.9999999999999956
 30
0.0
 11
-91.0
 21
-2.769999999999996
 31
0.0
  0
LINE
  5
16B7
  8
250
 10
-10.66943760995175
 20
1.7700000000000009
 30
0.0
 11
-10.297770943285091
 21
4.0000000000000009
 31
0.0
  0
LINE
  5
16B8
  8
250
 10
-9.9261042766184229
 20
1.7700000000000009
 30
0.0
 11
-10.297770943285091
 21
4.0000000000000009
 31
0.0
  0
LINE
  5
16B9
  8
250
 10
-10.297770943285091
 20
4.0000000000000009
 30
0.0
 11
-10.297770943285091
 21
1.7700000000000009
 31
0.0
  0
TEXT
  5
16BA
  8
250
 10
-11.297770943285091
 20
-2.6428571428571419
 30
0.0
 40
3.0
  1
\U+2205
 50
90.0
  0
TEXT
  5
16BB
  8
250
 10
-11.297770943285091
 20
0.0714285714285716
 30
0.0
 40
3.0
  1
8
 50
90.0
  0
INSERT
  5
1914
  8
240
  2
A$C2DCD199C
 10
0.0
 20
0.0
 30
0.0
  0
VIEWPORT
  5
22
 67
     1
  8
0
 10
261.51769911504419
 20
148.5
 30
0.0
 40
523.0353982300885
 41
297.0
 68
     1
 69
     1
1001
ACAD
1000
MVIEW
1002
{
1070
    16
1010
0.0
1020
0.0
1030
0.0
1010
0.0
1020
0.0
1030
1.0
1040
0.0
1040
297.0
1040
261.51769911504419
1040
148.5
1040
50.0
1040
0.0
1040
0.0
1070
     0
1070
   100
1070
     1
1070
     1
1070
     0
1070
     0
1070
     0
1070
     0
1040
0.0
1040
0.0
1040
0.0
1040
1.0
1040
1.0
1040
10.0
1040
10.0
1070
     0
1002
{
1002
}
1002
}
1001
GENIUS_GENODEF_13
1002
{
1000
HIER
1070
     0
1002
}
1002
{
1000
MANEDIT
1070
     0
1002
}
1002
{
1000
NOSEL
1070
     0
1002
}
1002
{
1000
BEHIND
1070
     0
1002
}
1002
{
1000
OTHER
1070
     0
1002
}
1002
{
1000
REACTOR
1002
}
1001
GENIUS_GENOBJ-N-SDF_13
1002
{
1000
OWNER
1000
GEN
1002
}
1001
GENIUS_GENSCREG_15
1000
PF
1040
1.0
1000
DF
1040
1.0
1000
MIN
1011
0.0
1021
-0.0
1031
0.0
1021
0.0
1031
0.0
1000
MAX
1011
523.0353982300885
1021
-0.0
1031
0.0
1021
297.0
1031
0.0
1000
FLAGS
1070
     2
  0
ENDSEC
  0
EOF
