  0
SECTION
  2
HEADER
  9
$ACADVER
  1
AC1009
  9
$INSBASE
 10
0.0
 20
0.0
 30
0.0
  9
$EXTMIN
 10
-93.176996985808955
 20
-30.84679614914484
 30
0.0
  9
$EXTMAX
 10
16.72301083092708
 20
24.04983143602983
 30
0.0
  9
$LIMMIN
 10
0.0
 20
0.0
  9
$LIMMAX
 10
297.0
 20
210.0
  9
$ORTHOMODE
 70
     0
  9
$REGENMODE
 70
     1
  9
$FILLMODE
 70
     1
  9
$QTEXTMODE
 70
     0
  9
$MIRRTEXT
 70
     1
  9
$DRAGMODE
 70
     2
  9
$LTSCALE
 40
10.0
  9
$OSMODE
 70
  2799
  9
$ATTMODE
 70
     1
  9
$TEXTSIZE
 40
3.0
  9
$TRACEWID
 40
1.0
  9
$TEXTSTYLE
  7
YOKO
  9
$CLAYER
  8
240
  9
$CELTYPE
  6
BYLAYER
  9
$CECOLOR
 62
   256
  9
$DIMSCALE
 40
1.0
  9
$DIMASZ
 40
2.2299999999999991
  9
$DIMEXO
 40
0.5
  9
$DIMDLI
 40
7.0
  9
$DIMRND
 40
0.0
  9
$DIMDLE
 40
0.0
  9
$DIMEXE
 40
1.0
  9
$DIMTP
 40
0.0
  9
$DIMTM
 40
0.01
  9
$DIMTXT
 40
2.799999999999998
  9
$DIMCEN
 40
0.0
  9
$DIMTSZ
 40
0.0
  9
$DIMTOL
 70
     0
  9
$DIMLIM
 70
     0
  9
$DIMTIH
 70
     0
  9
$DIMTOH
 70
     0
  9
$DIMSE1
 70
     0
  9
$DIMSE2
 70
     0
  9
$DIMTAD
 70
     3
  9
$DIMZIN
 70
     9
  9
$DIMBLK
  1
OPEN
  9
$DIMASO
 70
     1
  9
$DIMSHO
 70
     1
  9
$DIMPOST
  1

  9
$DIMAPOST
  1

  9
$DIMALT
 70
     0
  9
$DIMALTD
 70
     2
  9
$DIMALTF
 40
25.399999999999999
  9
$DIMLFAC
 40
1.0
  9
$DIMTOFL
 70
     1
  9
$DIMTVP
 40
0.0
  9
$DIMTIX
 70
     1
  9
$DIMSOXD
 70
     0
  9
$DIMSAH
 70
     0
  9
$DIMBLK1
  1

  9
$DIMBLK2
  1

  9
$DIMSTYLE
  2
BIGT
  9
$DIMCLRD
 70
   256
  9
$DIMCLRE
 70
   256
  9
$DIMCLRT
 70
    40
  9
$DIMTFAC
 40
1.0
  9
$DIMGAP
 40
1.0
  9
$LUNITS
 70
     2
  9
$LUPREC
 70
     3
  9
$SKETCHINC
 40
1.0
  9
$FILLETRAD
 40
0.2
  9
$AUNITS
 70
     0
  9
$AUPREC
 70
     3
  9
$MENU
  1
.
  9
$ELEVATION
 40
0.0
  9
$PELEVATION
 40
0.0
  9
$THICKNESS
 40
0.0
  9
$LIMCHECK
 70
     0
  9
$BLIPMODE
 70
     0
  9
$CHAMFERA
 40
0.25
  9
$CHAMFERB
 40
0.25
  9
$SKPOLY
 70
     0
  9
$TDCREATE
 40
2454679.3957790858
  9
$TDUPDATE
 40
2454679.5799329048
  9
$TDINDWG
 40
0.0189782292
  9
$TDUSRTIMER
 40
0.018978044
  9
$USRTIMER
 70
     1
  9
$ANGBASE
 50
0.0
  9
$ANGDIR
 70
     0
  9
$PDMODE
 70
     1
  9
$PDSIZE
 40
0.0
  9
$PLINEWID
 40
0.0
  9
$COORDS
 70
     1
  9
$SPLFRAME
 70
     0
  9
$SPLINETYPE
 70
     6
  9
$SPLINESEGS
 70
     4
  9
$ATTDIA
 70
     1
  9
$ATTREQ
 70
     1
  9
$HANDLING
 70
     1
  9
$HANDSEED
  5
1F09
  9
$SURFTAB1
 70
     6
  9
$SURFTAB2
 70
     6
  9
$SURFTYPE
 70
     6
  9
$SURFU
 70
     6
  9
$SURFV
 70
     6
  9
$UCSNAME
  2

  9
$UCSORG
 10
0.0
 20
0.0
 30
0.0
  9
$UCSXDIR
 10
1.0
 20
0.0
 30
0.0
  9
$UCSYDIR
 10
0.0
 20
1.0
 30
0.0
  9
$PUCSNAME
  2

  9
$PUCSORG
 10
0.0
 20
0.0
 30
0.0
  9
$PUCSXDIR
 10
1.0
 20
0.0
 30
0.0
  9
$PUCSYDIR
 10
0.0
 20
1.0
 30
0.0
  9
$USERI1
 70
     1
  9
$USERI2
 70
     0
  9
$USERI3
 70
     0
  9
$USERI4
 70
     0
  9
$USERI5
 70
     0
  9
$USERR1
 40
0.0
  9
$USERR2
 40
0.0
  9
$USERR3
 40
0.0
  9
$USERR4
 40
0.0
  9
$USERR5
 40
0.0
  9
$WORLDVIEW
 70
     1
  9
$SHADEDGE
 70
     3
  9
$SHADEDIF
 70
    70
  9
$TILEMODE
 70
     1
  9
$MAXACTVP
 70
    16
  9
$PLIMCHECK
 70
     0
  9
$PEXTMIN
 10
1.0000000000000000E+020
 20
1.0000000000000000E+020
 30
1.0000000000000000E+020
  9
$PEXTMAX
 10
-1.0000000000000000E+020
 20
-1.0000000000000000E+020
 30
-1.0000000000000000E+020
  9
$PLIMMIN
 10
0.0
 20
0.0
  9
$PLIMMAX
 10
420.0
 20
297.0
  9
$UNITMODE
 70
     0
  9
$VISRETAIN
 70
     1
  9
$PLINEGEN
 70
     0
  9
$PSLTSCALE
 70
     1
  0
ENDSEC
  0
SECTION
  2
TABLES
  0
TABLE
  2
VPORT
 70
     3
  0
VPORT
  2
*ACTIVE
 70
     0
 10
0.0
 20
0.0
 11
1.0
 21
1.0
 12
-40.173594656205744
 22
7.1284213428539891
 13
0.0
 23
0.0
 14
7.0
 24
7.0
 15
7.0
 25
7.0
 16
0.0
 26
0.0
 36
1.0
 17
0.0
 27
0.0
 37
0.0
 40
79.199900724858324
 41
1.5958115183246071
 42
50.0
 43
0.0
 44
0.0
 50
0.0
 51
0.0
 71
     0
 72
  2000
 73
     1
 74
     0
 75
     0
 76
     0
 77
     0
 78
     0
  0
ENDTAB
  0
TABLE
  2
LTYPE
 70
    16
  0
LTYPE
  2
CONTINUOUS
 70
     0
  3
Solid line
 72
    65
 73
     0
 40
0.0
  0
LTYPE
  2
CENTER2
 70
     0
  3
___ _ ___ _ ___ _ ___ _ ___ _ ___ _ ___ _ ___ _
 72
    65
 73
     4
 40
1.125
 49
0.75
 49
-0.125
 49
0.125
 49
-0.125
  0
LTYPE
  2
HIDDEN2
 70
     0
  3
_ _ _ _ _ _ _ _ _ _ _ _ _ _ _ _ _ _ _ _ _ _ _ _
 72
    65
 73
     2
 40
0.1875
 49
0.125
 49
-0.0625
  0
LTYPE
  2
PHANTOM2
 70
     0
  3
___ _ _ ___ _ _ ___ _ _ ___ _ _ ___ _ _ ___ _ _
 72
    65
 73
     6
 40
1.25
 49
0.625
 49
-0.125
 49
0.125
 49
-0.125
 49
0.125
 49
-0.125
  0
LTYPE
  2
CENTER
 70
     0
  3
____ _ ____ _ ____ _ ____ _ ____ _ ____ _ ____ 
 72
    65
 73
     4
 40
2.0
 49
1.25
 49
-0.25
 49
0.25
 49
-0.25
  0
LTYPE
  2
AMCONSTR
 70
     0
  3
_______________________
 72
    65
 73
     2
 40
9999.0
 49
9999.0
 49
0.0
  0
LTYPE
  2
HIDDEN
 70
     0
  3
Hidden __ __ __ __ __ __ __ __ __ __ __ __ __ _
 72
    65
 73
     2
 40
9.5249999999999986
 49
6.3499999999999979
 49
-3.174999999999998
  0
LTYPE
  2
ACANSTGB
 70
     0
  3
__ . . __ . .
 72
    65
 73
     6
 40
0.35433070866
 49
0.15748031496
 49
-0.03937007874
 49
0.03937007874
 49
-0.03937007874
 49
0.03937007874
 49
-0.03937007874
  0
LTYPE
  2
ACANSTGL
 70
     0
  3
_ _ _ _ _
 72
    65
 73
     2
 40
0.11811023622
 49
0.07874015748
 49
-0.03937007874
  0
LTYPE
  2
AMZIGZAG2
 70
     0
  3
/\/-/\/-/\/-/\/-/\/-/\/
 72
    65
 73
     2
 40
0.4401
 49
0.0001
 49
-0.4400000000000001
  0
ENDTAB
  0
TABLE
  2
LAYER
 70
     8
  0
LAYER
  2
0
 70
     0
 62
     7
  6
CONTINUOUS
  0
LAYER
  2
240
 70
     0
 62
     4
  6
CONTINUOUS
  0
LAYER
  2
DEFPOINTS
 70
     0
 62
     7
  6
CONTINUOUS
  0
LAYER
  2
245
 70
     0
 62
     2
  6
CENTER2
  0
LAYER
  2
241
 70
     0
 62
   211
  6
CONTINUOUS
  0
LAYER
  2
246
 70
     0
 62
     3
  6
PHANTOM2
  0
LAYER
  2
247
 70
     0
 62
    60
  6
CONTINUOUS
  0
LAYER
  2
250
 70
     0
 62
     3
  6
CONTINUOUS
  0
ENDTAB
  0
TABLE
  2
STYLE
 70
     5
  0
STYLE
  2
STANDARD
 70
     0
 40
0.0
 41
1.0
 50
0.0
 71
     0
 42
3.0
  3
romans.shx
  4
extfont.shx
  0
STYLE
  2
YOKO
 70
     0
 40
0.0
 41
1.0
 50
0.0
 71
     0
 42
3.0
  3
romans.shx
  4
extfont.shx
  0
STYLE
  2
ACANSTS
 70
     0
 40
1.0
 41
1.0
 50
0.0
 71
     0
 42
3.0
  3
romans.shx
  4
extfont.shx
  0
STYLE
  2
ACANSGDT
 70
     0
 40
0.0
 41
1.0
 50
0.0
 71
     0
 42
3.0
  3
amgdtans.shx
  4

  0
STYLE
  2

 70
     1
 40
0.0
 41
1.0
 50
0.0
 71
     0
 42
3.0
  3
ltypeshp.shx
  4

  0
ENDTAB
  0
TABLE
  2
VIEW
 70
     0
  0
ENDTAB
  0
TABLE
  2
UCS
 70
     0
  0
ENDTAB
  0
TABLE
  2
APPID
 70
    32
  0
APPID
  2
ACAD
 70
     0
  0
APPID
  2
GLOBAL
 70
     0
  0
APPID
  2
DETAIL
 70
     0
  0
APPID
  2
GRPNAME
 70
     0
  0
APPID
  2
GPARA
 70
     0
  0
APPID
  2
MCAD_NO_VIS
 70
     0
  0
APPID
  2
ACAD_TEMP_GRAPHIC
 70
     0
  0
APPID
  2
ACATTRIBSERVICES
 70
     0
  0
APPID
  2
GENIUS_GENSCREG_15
 70
     0
  0
APPID
  2
GENIUS_GENODEF_13
 70
     0
  0
APPID
  2
GENIUS_GENOBJ-N-SDF_13
 70
     0
  0
APPID
  2
GENIUS_GENREC_14
 70
     0
  0
APPID
  2
GENIUS_GENOBJ-N-REC_13
 70
     0
  0
APPID
  2
GENIUS_GENDIMSH_14
 70
     0
  0
APPID
  2
GENIUS_GENOBJ-N-DIM_13
 70
     0
  0
APPID
  2
GENIUS_GENDIM_13
 70
     0
  0
APPID
  2
GENIUS_GENDTOL_13
 70
     0
  0
APPID
  2
GENIUS_GENOLIS_13
 70
     0
  0
APPID
  2
GENIUS_GENOENT_13
 70
     0
  0
APPID
  2
GENIUS_GENOBJ-F-FEM_13
 70
     0
  0
APPID
  2
GENIUS_GENOREF_13
 70
     0
  0
APPID
  2
GENIUS_GEFFEM_13
 70
     0
  0
APPID
  2
GENIUS_GEFFEMP_13
 70
     0
  0
APPID
  2
AD_DRAW
 70
     0
  0
APPID
  2
DESIGNERASSEMBLIES
 70
     0
  0
APPID
  2
ACADM_DIM_EDIT
 70
     0
  0
APPID
  2
AMDT_DM_ADJ
 70
     0
  0
APPID
  2
ITEMNAME
 70
     0
  0
APPID
  2
GENIUS_GENOBJ-N-FIL_13
 70
     0
  0
APPID
  2
HATCH_TYPE
 70
     0
  0
APPID
  2
HATCH_DISPLAY
 70
     0
  0
APPID
  2
HATCH_DISTANCE
 70
     0
  0
ENDTAB
  0
TABLE
  2
DIMSTYLE
 70
     7
  0
DIMSTYLE
  2
BIGT
 70
     0
  3

  4

  5

  6

  7

 40
1.0
 41
2.2299999999999991
 42
0.5
 43
7.0
 44
1.0
 45
0.0
 46
0.0
 47
0.0
 48
0.01
140
2.799999999999998
141
0.0
142
0.0
143
25.399999999999999
144
1.0
145
0.0
146
1.0
147
1.0
 71
     0
 72
     0
 73
     0
 74
     0
 75
     0
 76
     0
 77
     3
 78
     9
170
     0
171
     2
172
     1
173
     0
174
     1
175
     0
176
   256
177
   256
178
    40
  0
DIMSTYLE
  2
AM_ANSI
 70
     0
  3

  4
mm
  5

  6

  7

 40
1.0
 41
0.1
 42
0.05
 43
0.5
 44
0.1
 45
0.0
 46
0.0
 47
0.1
 48
0.1
140
0.12
141
0.0
142
0.0
143
25.399999999999999
144
1.0
145
0.0
146
0.71
147
0.06
 71
     0
 72
     0
 73
     1
 74
     1
 75
     0
 76
     0
 77
     0
 78
     7
170
     0
171
     2
172
     0
173
     0
174
     0
175
     0
176
   256
177
   256
178
     2
  0
DIMSTYLE
  2
AM_ANSI$3
 70
     0
  3

  4
mm
  5

  6

  7

 40
1.0
 41
0.1
 42
0.05
 43
0.5
 44
0.1
 45
0.0
 46
0.0
 47
0.1
 48
0.1
140
0.12
141
0.0
142
0.0
143
25.399999999999999
144
1.0
145
0.0
146
0.71
147
0.06
 71
     0
 72
     0
 73
     1
 74
     1
 75
     0
 76
     0
 77
     0
 78
     7
170
     0
171
     2
172
     0
173
     0
174
     0
175
     0
176
   256
177
   256
178
     2
  0
DIMSTYLE
  2
AM_ANSI$4
 70
     0
  3

  4
mm
  5

  6

  7

 40
1.0
 41
0.1
 42
0.05
 43
0.5
 44
0.1
 45
0.0
 46
0.0
 47
0.1
 48
0.1
140
0.12
141
0.0
142
0.0
143
25.399999999999999
144
1.0
145
0.0
146
0.71
147
0.06
 71
     0
 72
     0
 73
     1
 74
     1
 75
     0
 76
     0
 77
     0
 78
     7
170
     0
171
     2
172
     0
173
     0
174
     0
175
     0
176
   256
177
   256
178
     2
  0
DIMSTYLE
  2
AM_ANSI$7
 70
     0
  3

  4
mm
  5

  6

  7

 40
1.0
 41
0.1
 42
0.05
 43
0.5
 44
0.1
 45
0.0
 46
0.0
 47
0.1
 48
0.1
140
0.24
141
0.0
142
0.0
143
25.399999999999999
144
1.0
145
0.0
146
0.71
147
0.06
 71
     0
 72
     0
 73
     1
 74
     1
 75
     0
 76
     0
 77
     0
 78
     7
170
     0
171
     2
172
     0
173
     0
174
     0
175
     0
176
   256
177
   256
178
     2
  0
DIMSTYLE
  2
AM_ANSI$SF
 70
     0
  3

  4
mm
  5

  6

  7

 40
1.0
 41
0.1
 42
0.05
 43
0.5
 44
0.1
 45
0.0
 46
0.0
 47
0.1
 48
0.1
140
0.12
141
0.0
142
0.0
143
25.399999999999999
144
1.0
145
0.0
146
0.71
147
0.06
 71
     0
 72
     0
 73
     1
 74
     1
 75
     1
 76
     1
 77
     0
 78
     7
170
     0
171
     2
172
     0
173
     0
174
     0
175
     0
176
   256
177
   256
178
     2
  0
DIMSTYLE
  2
AM_ANSI$SH
 70
     0
  3

  4
mm
  5

  6

  7

 40
1.0
 41
0.1
 42
0.05
 43
0.5
 44
0.1
 45
0.0
 46
0.0
 47
0.1
 48
0.1
140
0.12
141
0.0
142
0.0
143
25.399999999999999
144
1.0
145
0.0
146
0.71
147
0.06
 71
     0
 72
     0
 73
     1
 74
     1
 75
     1
 76
     1
 77
     0
 78
     7
170
     0
171
     2
172
     0
173
     1
174
     0
175
     0
176
   256
177
   256
178
     2
  0
ENDTAB
  0
ENDSEC
  0
SECTION
  2
BLOCKS
  0
BLOCK
  8
0
  2
$MODEL_SPACE
 70
     0
 10
0.0
 20
0.0
 30
0.0
  3
$MODEL_SPACE
  1

  0
ENDBLK
  5
198B
  8
0
  0
BLOCK
 67
     1
  8
0
  2
$PAPER_SPACE
 70
     0
 10
0.0
 20
0.0
 30
0.0
  3
$PAPER_SPACE
  1

  0
ENDBLK
  5
1987
 67
     1
  8
0
  0
BLOCK
  8
0
  2
_OPEN
 70
     0
 10
0.0
 20
0.0
 30
0.0
  3
_OPEN
  1

  0
LINE
  5
595
  8
0
  6
BYBLOCK
 62
     0
 10
-1.0
 20
0.1666666666666666
 30
0.0
 11
0.0
 21
0.0
 31
0.0
  0
LINE
  5
596
  8
0
  6
BYBLOCK
 62
     0
 10
-1.0
 20
-0.1666666666666666
 30
0.0
 11
0.0
 21
0.0
 31
0.0
  0
LINE
  5
597
  8
0
  6
BYBLOCK
 62
     0
 10
0.0
 20
0.0
 30
0.0
 11
-1.0
 21
0.0
 31
0.0
  0
ENDBLK
  5
599
  8
0
  0
BLOCK
  8
0
  2
*U1
 70
     1
 10
0.0
 20
0.0
 30
0.0
  3
*U1
  1

  0
TEXT
  5
18BD
  8
241
 10
-78.050168560901369
 20
21.04983143602982
 30
0.0
 40
3.0
  1
ST10-C0608-45B-16
  7
YOKO
  0
ENDBLK
  5
18BF
  8
0
  0
BLOCK
  8
0
  2
A$C3ADD5052
 70
     0
 10
0.0
 20
0.0
 30
0.0
  3
A$C3ADD5052
  1

  0
LINE
  5
1CA2
  8
247
 10
-74.927415640393335
 20
-2.2763451167402908
 30
0.0
 11
-74.0380436321107
 21
-1.3869731084576311
 31
0.0
  0
LINE
  5
1CA3
  8
247
 10
-74.96389142590678
 20
-2.5714522785404972
 30
0.0
 11
-74.692890294934699
 21
-2.3004511475684128
 31
0.0
  0
LINE
  5
1CA4
  8
247
 10
-74.013937601282564
 20
-1.6214984539162829
 30
0.0
 11
-73.742936470310497
 21
-1.3504973229442041
 31
0.0
  0
LINE
  5
1CA5
  8
247
 10
-74.941158065782304
 20
-2.8073502947027982
 30
0.0
 11
-74.730789689016476
 21
-2.5969819179369691
 31
0.0
  0
LINE
  5
1CA6
  8
247
 10
-73.717109131825708
 20
-1.583301360746211
 30
0.0
 11
-73.484304444325716
 21
-1.3504966732462149
 31
0.0
  0
LINE
  5
1CA7
  8
247
 10
-74.883592869002356
 20
-3.0084164742096511
 30
0.0
 11
-74.698755356054349
 21
-2.8235789612616591
 31
0.0
  0
LINE
  5
1CA8
  8
247
 10
-73.458477755538922
 20
-1.5833013607462121
 30
0.0
 11
-73.275069310722913
 21
-1.399892915930216
 31
0.0
  0
LINE
  5
1CA9
  8
247
 10
-74.800226436099152
 20
-3.1836814175932382
 30
0.0
 11
-74.628328067874037
 21
-3.0117830493681321
 31
0.0
  0
LINE
  5
1CAA
  8
247
 10
-74.695208959237348
 20
-3.3372953170182318
 30
0.0
 11
-74.529362332586942
 21
-3.1714486903678312
 31
0.0
  0
LINE
  5
1CAB
  8
247
 10
-74.570370033624854
 20
-3.4710877676925369
 30
0.0
 11
-74.405586762955735
 21
-3.3063044970234161
 31
0.0
  0
LINE
  5
1CAC
  8
247
 10
-74.426023455195931
 20
-3.5853725655503932
 30
0.0
 11
-74.257607945428973
 21
-3.416957055783433
 31
0.0
  0
LINE
  5
1CAD
  8
247
 10
-74.261087805461784
 20
-3.6790682921030471
 30
0.0
 11
-74.083295704967711
 21
-3.5012761916089681
 31
0.0
  0
LINE
  5
1CAE
  8
247
 10
-74.072649825267305
 20
-3.7492616881953671
 30
0.0
 11
-73.876308984932422
 21
-3.5529208478604719
 31
0.0
  0
LINE
  5
1CAF
  8
247
 10
-73.854469348639412
 20
-3.7897125878542539
 30
0.0
 11
-73.626880661814567
 21
-3.562123901029421
 31
0.0
  0
LINE
  5
1CB0
  8
247
 10
-73.601053967036293
 20
-3.7949285825379131
 30
0.0
 11
-73.368249285527796
 21
-3.562123901029421
 31
0.0
  0
LINE
  5
1CB1
  8
247
 10
-73.342422590749493
 20
-3.7949285825379131
 30
0.0
 11
-73.109617909240995
 21
-3.562123901029421
 31
0.0
  0
LINE
  5
1CB2
  8
247
 10
-73.083791214462707
 20
-3.7949285825379131
 30
0.0
 11
-72.850986532954195
 21
-3.562123901029421
 31
0.0
  0
LINE
  5
1CB3
  8
247
 10
-72.825159838175907
 20
-3.7949285825379211
 30
0.0
 11
-72.592355156667423
 21
-3.5621239010294281
 31
0.0
  0
LINE
  5
1CB4
  8
247
 10
-72.566528461889121
 20
-3.7949285825379211
 30
0.0
 11
-72.333723780380623
 21
-3.562123901029421
 31
0.0
  0
LINE
  5
1CB5
  8
247
 10
-72.307897085602335
 20
-3.7949285825379131
 30
0.0
 11
-72.075092404093823
 21
-3.562123901029421
 31
0.0
  0
LINE
  5
1CB6
  8
247
 10
-72.049265709315534
 20
-3.7949285825379131
 30
0.0
 11
-71.816461027807037
 21
-3.562123901029421
 31
0.0
  0
LINE
  5
1CB7
  8
247
 10
-71.790634333028748
 20
-3.7949285825379131
 30
0.0
 11
-71.557829651520251
 21
-3.562123901029421
 31
0.0
  0
LINE
  5
1CB8
  8
247
 10
-71.532002956741948
 20
-3.7949285825379131
 30
0.0
 11
-71.299198275233465
 21
-3.562123901029421
 31
0.0
  0
LINE
  5
1CB9
  8
247
 10
-69.27956971780047
 20
-1.542495343596435
 30
0.0
 11
-69.089816031188661
 21
-1.35274165698462
 31
0.0
  0
LINE
  5
1CBA
  8
247
 10
-71.273371580455162
 20
-3.7949285825379211
 30
0.0
 11
-71.040566898946665
 21
-3.562123901029421
 31
0.0
  0
LINE
  5
1CBB
  8
247
 10
-69.062865824670993
 20
-1.584422826753773
 30
0.0
 11
-68.841436875158678
 21
-1.3629938772414261
 31
0.0
  0
LINE
  5
1CBC
  8
247
 10
-71.014740204168362
 20
-3.7949285825379131
 30
0.0
 11
-70.781935522659865
 21
-3.562123901029421
 31
0.0
  0
LINE
  5
1CBD
  8
247
 10
-68.822227590683724
 20
-1.6024159690532871
 30
0.0
 11
-68.632092240804411
 21
-1.412280619173955
 31
0.0
  0
LINE
  5
1CBE
  8
247
 10
-70.756108827881576
 20
-3.7949285825379131
 30
0.0
 11
-70.523304146373093
 21
-3.562123901029421
 31
0.0
  0
LINE
  5
1CBF
  8
247
 10
-68.624943673006996
 20
-1.6637634276633291
 30
0.0
 11
-68.450336125441424
 21
-1.489155880097766
 31
0.0
  0
LINE
  5
1CC0
  8
247
 10
-70.497477451594776
 20
-3.7949285825379211
 30
0.0
 11
-70.264672770086293
 21
-3.562123901029413
 31
0.0
  0
LINE
  5
1CC1
  8
247
 10
-68.458032804843796
 20
-1.7554839357869261
 30
0.0
 11
-68.291073698288443
 21
-1.588524829231575
 31
0.0
  0
LINE
  5
1CC2
  8
247
 10
-70.23884607530799
 20
-3.7949285825379211
 30
0.0
 11
-70.006041393799492
 21
-3.562123901029429
 31
0.0
  0
LINE
  5
1CC3
  8
247
 10
-68.316581294536164
 20
-1.872663801766087
 30
0.0
 11
-68.151963496200807
 21
-1.708046003430729
 31
0.0
  0
LINE
  5
1CC4
  8
247
 10
-69.980214699021204
 20
-3.7949285825379211
 30
0.0
 11
-69.747410017512706
 21
-3.562123901029421
 31
0.0
  0
LINE
  5
1CC5
  8
247
 10
-68.199239868715495
 20
-2.0139537522322111
 30
0.0
 11
-68.032312325766043
 21
-1.847026209282761
 31
0.0
  0
LINE
  5
1CC6
  8
247
 10
-69.721583322734404
 20
-3.794928582537914
 30
0.0
 11
-69.48877864122592
 21
-3.562123901029421
 31
0.0
  0
LINE
  5
1CC7
  8
247
 10
-68.107339158399554
 20
-2.180684418203056
 30
0.0
 11
-67.93280396065812
 21
-2.0061492204616158
 31
0.0
  0
LINE
  5
1CC8
  8
247
 10
-69.462951946447603
 20
-3.794928582537914
 30
0.0
 11
-69.23014726493912
 21
-3.562123901029421
 31
0.0
  0
LINE
  5
1CC9
  8
247
 10
-68.045761073052233
 20
-2.377737709142528
 30
0.0
 11
-67.855766594723519
 21
-2.1877432308138189
 31
0.0
  0
LINE
  5
1CCA
  8
247
 10
-69.204320570160831
 20
-3.7949285825379211
 30
0.0
 11
-68.97047838322618
 21
-3.5610863956032688
 31
0.0
  0
LINE
  5
1CCB
  8
247
 10
-68.027397079810257
 20
-2.618005092187337
 30
0.0
 11
-67.806269595209358
 21
-2.396877607586438
 31
0.0
  0
LINE
  5
1CCC
  8
247
 10
-68.943553489640195
 20
-3.7927928783040801
 30
0.0
 11
-68.637873313954927
 21
-3.487112702618814
 31
0.0
  0
LINE
  5
1CCD
  8
247
 10
-68.101370772794695
 20
-2.9506101614586
 30
0.0
 11
-67.795690597109456
 21
-2.644929985773333
 31
0.0
  0
LINE
  5
1CCE
  8
247
 10
-68.621830100975956
 20
-3.729700865926628
 30
0.0
 11
-67.858782609486894
 21
-2.9666533744375698
 31
0.0
  0
LINE
  5
1CCF
  8
247
 10
-71.4393100493715
 20
-1.374553288586341
 30
0.0
 11
-71.415253434031371
 21
-1.350496673246216
 31
0.0
  0
LINE
  5
1CD0
  8
247
 10
-71.424440105898952
 20
-1.618314721400594
 30
0.0
 11
-71.156622057744585
 21
-1.350496673246226
 31
0.0
  0
LINE
  5
1CD1
  8
247
 10
-71.5284169986639
 20
-1.980922990452326
 30
0.0
 11
-70.897990681457784
 21
-1.350496673246216
 31
0.0
  0
LINE
  5
1CD2
  8
247
 10
-71.632393891428833
 20
-2.3435312595040521
 30
0.0
 11
-70.902366503485624
 21
-1.613503871560833
 31
0.0
  0
LINE
  5
1CD3
  8
247
 10
-71.736370784193781
 20
-2.7061395285557861
 30
0.0
 11
-71.006341977303066
 21
-1.9761107216650871
 31
0.0
  0
LINE
  5
1CD4
  8
247
 10
-71.840347676958714
 20
-3.0687477976075042
 30
0.0
 11
-71.110317451120522
 21
-2.3387175717693269
 31
0.0
  0
LINE
  5
1CD5
  8
247
 10
-71.944324569723634
 20
-3.4313560666592271
 30
0.0
 11
-71.214292924937979
 21
-2.7013244218735721
 31
0.0
  0
LINE
  5
1CD6
  8
247
 10
-71.700058684057012
 20
-3.4457215572793909
 30
0.0
 11
-71.318268398755436
 21
-3.0639312719778191
 31
0.0
  0
LINE
  5
1CD7
  8
247
 10
-71.441427307770212
 20
-3.4457215572793909
 30
0.0
 11
-71.422243872572892
 21
-3.4265381220820541
 31
0.0
  0
LINE
  5
1CD8
  8
247
 10
-70.851327811787314
 20
-2.079727932436112
 30
0.0
 11
-70.125808078987433
 21
-1.3542081996362381
 31
0.0
  0
LINE
  5
1CD9
  8
247
 10
-70.937191572198572
 20
-2.4242230691341722
 30
0.0
 11
-69.882462051735516
 21
-1.369493548671104
 31
0.0
  0
LINE
  5
1CDA
  8
247
 10
-70.973838298994963
 20
-2.719501172217349
 30
0.0
 11
-70.21473951605762
 21
-1.960402389280004
 31
0.0
  0
LINE
  5
1CDB
  8
247
 10
-69.868533707508675
 20
-1.6141965807310461
 30
0.0
 11
-69.694211144025971
 21
-1.439874017248354
 31
0.0
  0
LINE
  5
1CDC
  8
247
 10
-70.932693908598623
 20
-2.9369881581077921
 30
0.0
 11
-70.318716348882504
 21
-2.3230105983916829
 31
0.0
  0
LINE
  5
1CDD
  8
247
 10
-69.720031078556232
 20
-1.7243253280654041
 30
0.0
 11
-69.434365942493514
 21
-1.4386601920027
 31
0.0
  0
LINE
  5
1CDE
  8
247
 10
-70.846778227235333
 20
-3.109703853031311
 30
0.0
 11
-70.422693181707402
 21
-2.6856188075033671
 31
0.0
  0
LINE
  5
1CDF
  8
247
 10
-69.396601100556381
 20
-1.659526726352345
 30
0.0
 11
-69.372362501709745
 21
-1.6352881275057101
 31
0.0
  0
LINE
  5
1CE0
  8
247
 10
-70.727112533538886
 20
-3.248669535621644
 30
0.0
 11
-70.480555041314858
 21
-3.0021120433976232
 31
0.0
  0
LINE
  5
1CE1
  8
247
 10
-69.969672093038454
 20
-2.4912290951212119
 30
0.0
 11
-69.736867405538433
 21
-2.2584244076212121
 31
0.0
  0
LINE
  5
1CE2
  8
247
 10
-70.575607868155885
 20
-3.3557962465254381
 30
0.0
 11
-70.372328501853744
 21
-3.152516880223287
 31
0.0
  0
LINE
  5
1CE3
  8
247
 10
-69.917587632153996
 20
-2.6977760105235391
 30
0.0
 11
-69.478236029251661
 21
-2.2584244076212201
 31
0.0
  0
LINE
  5
1CE4
  8
247
 10
-70.387615103884244
 20
-3.426434858540587
 30
0.0
 11
-70.114298589711154
 21
-3.1531183443674911
 31
0.0
  0
LINE
  5
1CE5
  8
247
 10
-70.034904193546026
 20
-3.0737239482023639
 30
0.0
 11
-69.342463077335083
 21
-2.381282831991419
 31
0.0
  0
LINE
  5
1CE6
  8
247
 10
-70.144740038063105
 20
-3.4421911690062328
 30
0.0
 11
-69.446439556729203
 21
-2.743890687672319
 31
0.0
  0
LINE
  5
1CE7
  8
247
 10
-69.76866691679848
 20
-3.324749424028409
 30
0.0
 11
-69.550416036123295
 21
-3.106498543353224
 31
0.0
  0
LINE
  5
1CE8
  8
247
 10
-70.826950669354815
 20
-1.3504966732462209
 30
0.0
 11
-71.432411606854814
 21
-1.3504966732462209
 31
0.0
1001
HATCH_DISTANCE
1040
1.0
1001
HATCH_DISPLAY
1070
     0
1001
HATCH_TYPE
1070
     7
  0
LINE
  5
1CE9
  8
247
 10
-71.427744614667333
 20
-3.4457215572793931
 30
0.0
 11
-70.826950669354815
 21
-1.3504966732462209
 31
0.0
1001
HATCH_DISTANCE
1040
1.0
1001
HATCH_DISPLAY
1070
     0
1001
HATCH_TYPE
1070
     7
  0
LINE
  5
1CEA
  8
247
 10
-71.948443833417329
 20
-3.4457215572793931
 30
0.0
 11
-71.427744614667333
 21
-3.4457215572793931
 31
0.0
1001
HATCH_DISTANCE
1040
1.0
1001
HATCH_DISPLAY
1070
     0
1001
HATCH_TYPE
1070
     7
  0
LINE
  5
1CEB
  8
247
 10
-71.421073716229827
 20
-1.606574798246208
 30
0.0
 11
-71.948443833417329
 21
-3.4457215572793931
 31
0.0
1001
HATCH_DISTANCE
1040
1.0
1001
HATCH_DISPLAY
1070
     0
1001
HATCH_TYPE
1070
     7
  0
LINE
  5
1CEC
  8
247
 10
-71.505844224042335
 20
-1.606574798246208
 30
0.0
 11
-71.421073716229827
 21
-1.606574798246208
 31
0.0
1001
HATCH_DISTANCE
1040
1.0
1001
HATCH_DISPLAY
1070
     0
1001
HATCH_TYPE
1070
     7
  0
LINE
  5
1CED
  8
247
 10
-71.432411606854814
 20
-1.3504966732462209
 30
0.0
 11
-71.505844224042335
 21
-1.606574798246208
 31
0.0
1001
HATCH_DISTANCE
1040
1.0
1001
HATCH_DISPLAY
1070
     0
1001
HATCH_TYPE
1070
     7
  0
LINE
  5
1CEE
  8
247
 10
-70.826950669354815
 20
-1.3504966732462209
 30
0.0
 11
-71.432411606854814
 21
-1.3504966732462209
 31
0.0
  0
LINE
  5
1CEF
  8
247
 10
-71.427744614667333
 20
-3.4457215572793931
 30
0.0
 11
-70.826950669354815
 21
-1.3504966732462209
 31
0.0
  0
LINE
  5
1CF0
  8
247
 10
-71.948443833417329
 20
-3.4457215572793931
 30
0.0
 11
-71.427744614667333
 21
-3.4457215572793931
 31
0.0
  0
LINE
  5
1CF1
  8
247
 10
-71.421073716229827
 20
-1.606574798246208
 30
0.0
 11
-71.948443833417329
 21
-3.4457215572793931
 31
0.0
  0
LINE
  5
1CF2
  8
247
 10
-71.505844224042335
 20
-1.606574798246208
 30
0.0
 11
-71.421073716229827
 21
-1.606574798246208
 31
0.0
  0
LINE
  5
1CF3
  8
247
 10
-71.432411606854814
 20
-1.3504966732462209
 30
0.0
 11
-71.505844224042335
 21
-1.606574798246208
 31
0.0
  0
LINE
  5
1CF4
  8
247
 10
-69.257268052167333
 20
-1.613219329496214
 30
0.0
 11
-69.257268052167333
 21
-1.613219329496214
 31
0.0
1001
HATCH_DISTANCE
1040
1.0
1001
HATCH_DISPLAY
1070
     0
1001
HATCH_TYPE
1070
     7
  0
LINE
  5
1CF5
  8
247
 10
-69.327378403729838
 20
-1.390882415433732
 30
0.0
 11
-69.257268052167333
 21
-1.613219329496214
 31
0.0
1001
HATCH_DISTANCE
1040
1.0
1001
HATCH_DISPLAY
1070
     0
1001
HATCH_TYPE
1070
     7
  0
LINE
  5
1CF6
  8
247
 10
-69.327378403729838
 20
-1.390882415433732
 30
0.0
 11
-69.327378403729838
 21
-1.390882415433732
 31
0.0
1001
HATCH_DISTANCE
1040
1.0
1001
HATCH_DISPLAY
1070
     0
1001
HATCH_TYPE
1070
     7
  0
LINE
  5
1CF7
  8
247
 10
-69.257268052167333
 20
-1.613219329496214
 30
0.0
 11
-69.327378403729838
 21
-1.390882415433732
 31
0.0
1001
HATCH_DISTANCE
1040
1.0
1001
HATCH_DISPLAY
1070
     0
1001
HATCH_TYPE
1070
     7
  0
LINE
  5
1CF8
  8
247
 10
-69.257268052167333
 20
-1.613219329496214
 30
0.0
 11
-69.257268052167333
 21
-1.613219329496214
 31
0.0
  0
LINE
  5
1CF9
  8
247
 10
-69.327378403729838
 20
-1.390882415433732
 30
0.0
 11
-69.257268052167333
 21
-1.613219329496214
 31
0.0
  0
LINE
  5
1CFA
  8
247
 10
-69.327378403729838
 20
-1.390882415433732
 30
0.0
 11
-69.327378403729838
 21
-1.390882415433732
 31
0.0
  0
LINE
  5
1CFB
  8
247
 10
-69.257268052167333
 20
-1.613219329496214
 30
0.0
 11
-69.327378403729838
 21
-1.390882415433732
 31
0.0
  0
LINE
  5
1CFC
  8
247
 10
-69.257268052167333
 20
-1.613219329496214
 30
0.0
 11
-69.257268052167333
 21
-1.613219329496214
 31
0.0
1001
HATCH_DISTANCE
1040
1.0
1001
HATCH_DISPLAY
1070
     0
1001
HATCH_TYPE
1070
     7
  0
LINE
  5
1CFD
  8
247
 10
-69.327378403729838
 20
-1.390882415433732
 30
0.0
 11
-69.257268052167333
 21
-1.613219329496214
 31
0.0
1001
HATCH_DISTANCE
1040
1.0
1001
HATCH_DISPLAY
1070
     0
1001
HATCH_TYPE
1070
     7
  0
LINE
  5
1CFE
  8
247
 10
-69.327378403729838
 20
-1.390882415433732
 30
0.0
 11
-69.327378403729838
 21
-1.390882415433732
 31
0.0
1001
HATCH_DISTANCE
1040
1.0
1001
HATCH_DISPLAY
1070
     0
1001
HATCH_TYPE
1070
     7
  0
LINE
  5
1CFF
  8
247
 10
-69.257268052167333
 20
-1.613219329496214
 30
0.0
 11
-69.327378403729838
 21
-1.390882415433732
 31
0.0
1001
HATCH_DISTANCE
1040
1.0
1001
HATCH_DISPLAY
1070
     0
1001
HATCH_TYPE
1070
     7
  0
LINE
  5
1D00
  8
247
 10
-69.257268052167333
 20
-1.613219329496214
 30
0.0
 11
-69.257268052167333
 21
-1.613219329496214
 31
0.0
  0
LINE
  5
1D01
  8
247
 10
-69.327378403729838
 20
-1.390882415433732
 30
0.0
 11
-69.257268052167333
 21
-1.613219329496214
 31
0.0
  0
LINE
  5
1D02
  8
247
 10
-69.327378403729838
 20
-1.390882415433732
 30
0.0
 11
-69.327378403729838
 21
-1.390882415433732
 31
0.0
  0
LINE
  5
1D03
  8
247
 10
-69.257268052167333
 20
-1.613219329496214
 30
0.0
 11
-69.327378403729838
 21
-1.390882415433732
 31
0.0
  0
LINE
  5
1D04
  8
241
 10
-16.613
 20
0.775
 30
0.0
 11
-16.6128
 21
0.775
 31
0.0
  0
LINE
  5
1D05
  8
241
 10
-16.613199999999999
 20
0.775
 30
0.0
 11
-16.613
 21
0.775
 31
0.0
  0
LINE
  5
1D06
  8
241
 10
-16.613299999999999
 20
0.775
 30
0.0
 11
-16.613199999999999
 21
0.775
 31
0.0
  0
LINE
  5
1D07
  8
241
 10
-16.613499999999998
 20
0.775
 30
0.0
 11
-16.613299999999999
 21
0.775
 31
0.0
  0
LINE
  5
1D08
  8
241
 10
-16.613700000000001
 20
0.775
 30
0.0
 11
-16.613499999999998
 21
0.775
 31
0.0
  0
LINE
  5
1D09
  8
241
 10
-16.613900000000001
 20
0.775
 30
0.0
 11
-16.613700000000001
 21
0.775
 31
0.0
  0
LINE
  5
1D0A
  8
241
 10
-16.614000000000001
 20
0.775
 30
0.0
 11
-16.613900000000001
 21
0.775
 31
0.0
  0
LINE
  5
1D0B
  8
241
 10
-16.6142
 20
0.7750010000000001
 30
0.0
 11
-16.614000000000001
 21
0.775
 31
0.0
  0
LINE
  5
1D0C
  8
241
 10
-16.6144
 20
0.7750010000000001
 30
0.0
 11
-16.6142
 21
0.7750010000000001
 31
0.0
  0
LINE
  5
1D0D
  8
241
 10
-16.6145
 20
0.7750010000000001
 30
0.0
 11
-16.6144
 21
0.7750010000000001
 31
0.0
  0
LINE
  5
1D0E
  8
241
 10
-16.614699999999999
 20
0.7750010000000001
 30
0.0
 11
-16.6145
 21
0.7750010000000001
 31
0.0
  0
LINE
  5
1D0F
  8
241
 10
-16.614899999999999
 20
0.7750010000000001
 30
0.0
 11
-16.614699999999999
 21
0.7750010000000001
 31
0.0
  0
LINE
  5
1D10
  8
241
 10
-16.614999999999998
 20
0.7750010000000001
 30
0.0
 11
-16.614899999999999
 21
0.7750010000000001
 31
0.0
  0
LINE
  5
1D11
  8
241
 10
-16.615200000000002
 20
0.7750020000000001
 30
0.0
 11
-16.614999999999998
 21
0.7750010000000001
 31
0.0
  0
LINE
  5
1D12
  8
241
 10
-16.615400000000001
 20
0.7750020000000001
 30
0.0
 11
-16.615200000000002
 21
0.7750020000000001
 31
0.0
  0
LINE
  5
1D13
  8
241
 10
-16.615500000000001
 20
0.7750020000000001
 30
0.0
 11
-16.615400000000001
 21
0.7750020000000001
 31
0.0
  0
LINE
  5
1D14
  8
241
 10
-16.6157
 20
0.7750020000000001
 30
0.0
 11
-16.615500000000001
 21
0.7750020000000001
 31
0.0
  0
LINE
  5
1D15
  8
241
 10
-16.6159
 20
0.775003
 30
0.0
 11
-16.6157
 21
0.7750020000000001
 31
0.0
  0
LINE
  5
1D16
  8
241
 10
-16.616
 20
0.775003
 30
0.0
 11
-16.6159
 21
0.775003
 31
0.0
  0
LINE
  5
1D17
  8
241
 10
-16.616199999999999
 20
0.775003
 30
0.0
 11
-16.616
 21
0.775003
 31
0.0
  0
LINE
  5
1D18
  8
241
 10
-16.616399999999999
 20
0.7750040000000001
 30
0.0
 11
-16.616199999999999
 21
0.775003
 31
0.0
  0
LINE
  5
1D19
  8
241
 10
-16.616499999999998
 20
0.7750040000000001
 30
0.0
 11
-16.616399999999999
 21
0.7750040000000001
 31
0.0
  0
LINE
  5
1D1A
  8
241
 10
-16.616700000000002
 20
0.7750050000000001
 30
0.0
 11
-16.616499999999998
 21
0.7750040000000001
 31
0.0
  0
LINE
  5
1D1B
  8
241
 10
-16.616900000000001
 20
0.7750050000000001
 30
0.0
 11
-16.616700000000002
 21
0.7750050000000001
 31
0.0
  0
LINE
  5
1D1C
  8
241
 10
-16.617000000000001
 20
0.7750050000000001
 30
0.0
 11
-16.616900000000001
 21
0.7750050000000001
 31
0.0
  0
LINE
  5
1D1D
  8
241
 10
-16.6172
 20
0.7750060000000002
 30
0.0
 11
-16.617000000000001
 21
0.7750050000000001
 31
0.0
  0
LINE
  5
1D1E
  8
241
 10
-16.6174
 20
0.7750060000000002
 30
0.0
 11
-16.6172
 21
0.7750060000000002
 31
0.0
  0
LINE
  5
1D1F
  8
241
 10
-16.6175
 20
0.775007
 30
0.0
 11
-16.6174
 21
0.7750060000000002
 31
0.0
  0
LINE
  5
1D20
  8
241
 10
-16.617699999999999
 20
0.775007
 30
0.0
 11
-16.6175
 21
0.775007
 31
0.0
  0
LINE
  5
1D21
  8
241
 10
-16.617899999999999
 20
0.7750080000000001
 30
0.0
 11
-16.617699999999999
 21
0.775007
 31
0.0
  0
LINE
  5
1D22
  8
241
 10
-16.617999999999999
 20
0.7750080000000001
 30
0.0
 11
-16.617899999999999
 21
0.7750080000000001
 31
0.0
  0
LINE
  5
1D23
  8
241
 10
-16.618200000000002
 20
0.7750090000000001
 30
0.0
 11
-16.617999999999999
 21
0.7750080000000001
 31
0.0
  0
LINE
  5
1D24
  8
241
 10
-16.618400000000001
 20
0.7750090000000001
 30
0.0
 11
-16.618200000000002
 21
0.7750090000000001
 31
0.0
  0
LINE
  5
1D25
  8
241
 10
-16.618600000000001
 20
0.7750100000000001
 30
0.0
 11
-16.618400000000001
 21
0.7750090000000001
 31
0.0
  0
LINE
  5
1D26
  8
241
 10
-16.6187
 20
0.7750110000000001
 30
0.0
 11
-16.618600000000001
 21
0.7750100000000001
 31
0.0
  0
LINE
  5
1D27
  8
241
 10
-16.6189
 20
0.7750110000000001
 30
0.0
 11
-16.6187
 21
0.7750110000000001
 31
0.0
  0
LINE
  5
1D28
  8
241
 10
-16.6191
 20
0.7750120000000002
 30
0.0
 11
-16.6189
 21
0.7750110000000001
 31
0.0
  0
LINE
  5
1D29
  8
241
 10
-16.619199999999999
 20
0.7750120000000002
 30
0.0
 11
-16.6191
 21
0.7750120000000002
 31
0.0
  0
LINE
  5
1D2A
  8
241
 10
-16.619399999999999
 20
0.7750130000000001
 30
0.0
 11
-16.619199999999999
 21
0.7750120000000002
 31
0.0
  0
LINE
  5
1D2B
  8
241
 10
-16.619599999999998
 20
0.775014
 30
0.0
 11
-16.619399999999999
 21
0.7750130000000001
 31
0.0
  0
LINE
  5
1D2C
  8
241
 10
-16.619700000000002
 20
0.775015
 30
0.0
 11
-16.619599999999998
 21
0.775014
 31
0.0
  0
LINE
  5
1D2D
  8
241
 10
-16.619900000000001
 20
0.775015
 30
0.0
 11
-16.619700000000002
 21
0.775015
 31
0.0
  0
LINE
  5
1D2E
  8
241
 10
-16.620100000000001
 20
0.7750160000000002
 30
0.0
 11
-16.619900000000001
 21
0.775015
 31
0.0
  0
LINE
  5
1D2F
  8
241
 10
-16.620200000000001
 20
0.775017
 30
0.0
 11
-16.620100000000001
 21
0.7750160000000002
 31
0.0
  0
LINE
  5
1D30
  8
241
 10
-16.6204
 20
0.775017
 30
0.0
 11
-16.620200000000001
 21
0.775017
 31
0.0
  0
LINE
  5
1D31
  8
241
 10
-16.6206
 20
0.7750180000000001
 30
0.0
 11
-16.6204
 21
0.775017
 31
0.0
  0
LINE
  5
1D32
  8
241
 10
-16.620699999999999
 20
0.775019
 30
0.0
 11
-16.6206
 21
0.7750180000000001
 31
0.0
  0
LINE
  5
1D33
  8
241
 10
-16.620899999999999
 20
0.77502
 30
0.0
 11
-16.620699999999999
 21
0.775019
 31
0.0
  0
LINE
  5
1D34
  8
241
 10
-16.621099999999998
 20
0.775021
 30
0.0
 11
-16.620899999999999
 21
0.77502
 31
0.0
  0
LINE
  5
1D35
  8
241
 10
-16.621200000000002
 20
0.775022
 30
0.0
 11
-16.621099999999998
 21
0.775021
 31
0.0
  0
LINE
  5
1D36
  8
241
 10
-16.621400000000001
 20
0.775022
 30
0.0
 11
-16.621200000000002
 21
0.775022
 31
0.0
  0
LINE
  5
1D37
  8
241
 10
-16.621600000000001
 20
0.775023
 30
0.0
 11
-16.621400000000001
 21
0.775022
 31
0.0
  0
LINE
  5
1D38
  8
241
 10
-16.621700000000001
 20
0.7750240000000001
 30
0.0
 11
-16.621600000000001
 21
0.775023
 31
0.0
  0
LINE
  5
1D39
  8
241
 10
-16.6219
 20
0.775025
 30
0.0
 11
-16.621700000000001
 21
0.7750240000000001
 31
0.0
  0
LINE
  5
1D3A
  8
241
 10
-16.6221
 20
0.775026
 30
0.0
 11
-16.6219
 21
0.775025
 31
0.0
  0
LINE
  5
1D3B
  8
241
 10
-16.622199999999999
 20
0.7750270000000001
 30
0.0
 11
-16.6221
 21
0.775026
 31
0.0
  0
LINE
  5
1D3C
  8
241
 10
-16.622399999999999
 20
0.7750280000000001
 30
0.0
 11
-16.622199999999999
 21
0.7750270000000001
 31
0.0
  0
LINE
  5
1D3D
  8
241
 10
-16.622599999999998
 20
0.775029
 30
0.0
 11
-16.622399999999999
 21
0.7750280000000001
 31
0.0
  0
LINE
  5
1D3E
  8
241
 10
-16.622699999999998
 20
0.7750300000000001
 30
0.0
 11
-16.622599999999998
 21
0.775029
 31
0.0
  0
LINE
  5
1D3F
  8
241
 10
-16.622900000000001
 20
0.7750310000000001
 30
0.0
 11
-16.622699999999998
 21
0.7750300000000001
 31
0.0
  0
LINE
  5
1D40
  8
241
 10
-16.623100000000001
 20
0.7750320000000001
 30
0.0
 11
-16.622900000000001
 21
0.7750310000000001
 31
0.0
  0
LINE
  5
1D41
  8
241
 10
-16.6233
 20
0.775033
 30
0.0
 11
-16.623100000000001
 21
0.7750320000000001
 31
0.0
  0
LINE
  5
1D42
  8
241
 10
-16.6234
 20
0.775034
 30
0.0
 11
-16.6233
 21
0.775033
 31
0.0
  0
LINE
  5
1D43
  8
241
 10
-16.6236
 20
0.775035
 30
0.0
 11
-16.6234
 21
0.775034
 31
0.0
  0
LINE
  5
1D44
  8
241
 10
-16.623799999999999
 20
0.775036
 30
0.0
 11
-16.6236
 21
0.775035
 31
0.0
  0
LINE
  5
1D45
  8
241
 10
-16.623899999999999
 20
0.775038
 30
0.0
 11
-16.623799999999999
 21
0.775036
 31
0.0
  0
LINE
  5
1D46
  8
241
 10
-16.624099999999999
 20
0.7750390000000001
 30
0.0
 11
-16.623899999999999
 21
0.775038
 31
0.0
  0
LINE
  5
1D47
  8
241
 10
-16.624300000000002
 20
0.77504
 30
0.0
 11
-16.624099999999999
 21
0.7750390000000001
 31
0.0
  0
LINE
  5
1D48
  8
241
 10
-16.624400000000001
 20
0.775041
 30
0.0
 11
-16.624300000000002
 21
0.77504
 31
0.0
  0
LINE
  5
1D49
  8
241
 10
-16.624600000000001
 20
0.775042
 30
0.0
 11
-16.624400000000001
 21
0.775041
 31
0.0
  0
LINE
  5
1D4A
  8
241
 10
-16.6248
 20
0.775044
 30
0.0
 11
-16.624600000000001
 21
0.775042
 31
0.0
  0
LINE
  5
1D4B
  8
241
 10
-16.6249
 20
0.775045
 30
0.0
 11
-16.6248
 21
0.775044
 31
0.0
  0
LINE
  5
1D4C
  8
241
 10
-16.6251
 20
0.7750460000000001
 30
0.0
 11
-16.6249
 21
0.775045
 31
0.0
  0
LINE
  5
1D4D
  8
241
 10
-16.625299999999999
 20
0.775047
 30
0.0
 11
-16.6251
 21
0.7750460000000001
 31
0.0
  0
LINE
  5
1D4E
  8
241
 10
-16.625399999999999
 20
0.775049
 30
0.0
 11
-16.625299999999999
 21
0.775047
 31
0.0
  0
LINE
  5
1D4F
  8
241
 10
-16.625599999999999
 20
0.7750500000000001
 30
0.0
 11
-16.625399999999999
 21
0.775049
 31
0.0
  0
LINE
  5
1D50
  8
241
 10
-16.625800000000002
 20
0.7750510000000001
 30
0.0
 11
-16.625599999999999
 21
0.7750500000000001
 31
0.0
  0
LINE
  5
1D51
  8
241
 10
-16.625900000000001
 20
0.775053
 30
0.0
 11
-16.625800000000002
 21
0.7750510000000001
 31
0.0
  0
LINE
  5
1D52
  8
241
 10
-16.626100000000001
 20
0.775054
 30
0.0
 11
-16.625900000000001
 21
0.775053
 31
0.0
  0
LINE
  5
1D53
  8
241
 10
-16.626300000000001
 20
0.7750550000000001
 30
0.0
 11
-16.626100000000001
 21
0.775054
 31
0.0
  0
LINE
  5
1D54
  8
241
 10
-16.6264
 20
0.775057
 30
0.0
 11
-16.626300000000001
 21
0.7750550000000001
 31
0.0
  0
LINE
  5
1D55
  8
241
 10
-16.6266
 20
0.7750580000000001
 30
0.0
 11
-16.6264
 21
0.775057
 31
0.0
  0
LINE
  5
1D56
  8
241
 10
-16.626799999999999
 20
0.7750600000000001
 30
0.0
 11
-16.6266
 21
0.7750580000000001
 31
0.0
  0
LINE
  5
1D57
  8
241
 10
-16.626899999999999
 20
0.775061
 30
0.0
 11
-16.626799999999999
 21
0.7750600000000001
 31
0.0
  0
LINE
  5
1D58
  8
241
 10
-16.627099999999999
 20
0.7750620000000001
 30
0.0
 11
-16.626899999999999
 21
0.775061
 31
0.0
  0
LINE
  5
1D59
  8
241
 10
-16.627300000000002
 20
0.7750640000000001
 30
0.0
 11
-16.627099999999999
 21
0.7750620000000001
 31
0.0
  0
LINE
  5
1D5A
  8
241
 10
-16.627400000000002
 20
0.7750650000000001
 30
0.0
 11
-16.627300000000002
 21
0.7750640000000001
 31
0.0
  0
LINE
  5
1D5B
  8
241
 10
-16.627600000000001
 20
0.7750670000000001
 30
0.0
 11
-16.627400000000002
 21
0.7750650000000001
 31
0.0
  0
LINE
  5
1D5C
  8
241
 10
-16.627800000000001
 20
0.775068
 30
0.0
 11
-16.627600000000001
 21
0.7750670000000001
 31
0.0
  0
LINE
  5
1D5D
  8
241
 10
-16.628
 20
0.7750700000000002
 30
0.0
 11
-16.627800000000001
 21
0.775068
 31
0.0
  0
LINE
  5
1D5E
  8
241
 10
-16.6281
 20
0.775072
 30
0.0
 11
-16.628
 21
0.7750700000000002
 31
0.0
  0
LINE
  5
1D5F
  8
241
 10
-16.628299999999999
 20
0.7750729999999999
 30
0.0
 11
-16.6281
 21
0.775072
 31
0.0
  0
LINE
  5
1D60
  8
241
 10
-16.628499999999999
 20
0.775075
 30
0.0
 11
-16.628299999999999
 21
0.7750729999999999
 31
0.0
  0
LINE
  5
1D61
  8
241
 10
-16.628599999999999
 20
0.775076
 30
0.0
 11
-16.628499999999999
 21
0.775075
 31
0.0
  0
LINE
  5
1D62
  8
241
 10
-16.628799999999998
 20
0.7750779999999999
 30
0.0
 11
-16.628599999999999
 21
0.775076
 31
0.0
  0
LINE
  5
1D63
  8
241
 10
-16.629000000000001
 20
0.77508
 30
0.0
 11
-16.628799999999998
 21
0.7750779999999999
 31
0.0
  0
LINE
  5
1D64
  8
241
 10
-16.629100000000001
 20
0.7750810000000001
 30
0.0
 11
-16.629000000000001
 21
0.77508
 31
0.0
  0
LINE
  5
1D65
  8
241
 10
-16.629300000000001
 20
0.775083
 30
0.0
 11
-16.629100000000001
 21
0.7750810000000001
 31
0.0
  0
LINE
  5
1D66
  8
241
 10
-16.6295
 20
0.775085
 30
0.0
 11
-16.629300000000001
 21
0.775083
 31
0.0
  0
LINE
  5
1D67
  8
241
 10
-16.6296
 20
0.7750860000000001
 30
0.0
 11
-16.6295
 21
0.775085
 31
0.0
  0
LINE
  5
1D68
  8
241
 10
-16.629799999999999
 20
0.7750880000000001
 30
0.0
 11
-16.6296
 21
0.7750860000000001
 31
0.0
  0
LINE
  5
1D69
  8
241
 10
-16.629999999999999
 20
0.77509
 30
0.0
 11
-16.629799999999999
 21
0.7750880000000001
 31
0.0
  0
LINE
  5
1D6A
  8
241
 10
-16.630099999999999
 20
0.775092
 30
0.0
 11
-16.629999999999999
 21
0.77509
 31
0.0
  0
LINE
  5
1D6B
  8
241
 10
-16.630299999999998
 20
0.7750930000000001
 30
0.0
 11
-16.630099999999999
 21
0.775092
 31
0.0
  0
LINE
  5
1D6C
  8
241
 10
-16.630500000000001
 20
0.775095
 30
0.0
 11
-16.630299999999998
 21
0.7750930000000001
 31
0.0
  0
LINE
  5
1D6D
  8
241
 10
-16.630600000000001
 20
0.7750970000000002
 30
0.0
 11
-16.630500000000001
 21
0.775095
 31
0.0
  0
LINE
  5
1D6E
  8
241
 10
-16.630800000000001
 20
0.775099
 30
0.0
 11
-16.630600000000001
 21
0.7750970000000002
 31
0.0
  0
LINE
  5
1D6F
  8
241
 10
-16.631
 20
0.7751010000000002
 30
0.0
 11
-16.630800000000001
 21
0.775099
 31
0.0
  0
LINE
  5
1D70
  8
241
 10
-16.6311
 20
0.775103
 30
0.0
 11
-16.631
 21
0.7751010000000002
 31
0.0
  0
LINE
  5
1D71
  8
241
 10
-16.6313
 20
0.7751050000000002
 30
0.0
 11
-16.6311
 21
0.775103
 31
0.0
  0
LINE
  5
1D72
  8
241
 10
-16.631499999999999
 20
0.7751060000000001
 30
0.0
 11
-16.6313
 21
0.7751050000000002
 31
0.0
  0
LINE
  5
1D73
  8
241
 10
-16.631599999999999
 20
0.775108
 30
0.0
 11
-16.631499999999999
 21
0.7751060000000001
 31
0.0
  0
LINE
  5
1D74
  8
241
 10
-16.631799999999998
 20
0.7751100000000001
 30
0.0
 11
-16.631599999999999
 21
0.775108
 31
0.0
  0
LINE
  5
1D75
  8
241
 10
-16.632000000000001
 20
0.7751120000000001
 30
0.0
 11
-16.631799999999998
 21
0.7751100000000001
 31
0.0
  0
LINE
  5
1D76
  8
241
 10
-16.632100000000001
 20
0.7751140000000002
 30
0.0
 11
-16.632000000000001
 21
0.7751120000000001
 31
0.0
  0
LINE
  5
1D77
  8
241
 10
-16.632300000000001
 20
0.7751160000000001
 30
0.0
 11
-16.632100000000001
 21
0.7751140000000002
 31
0.0
  0
LINE
  5
1D78
  8
241
 10
-16.6325
 20
0.775118
 30
0.0
 11
-16.632300000000001
 21
0.7751160000000001
 31
0.0
  0
LINE
  5
1D79
  8
241
 10
-16.6327
 20
0.7751200000000001
 30
0.0
 11
-16.6325
 21
0.775118
 31
0.0
  0
LINE
  5
1D7A
  8
241
 10
-16.6328
 20
0.775122
 30
0.0
 11
-16.6327
 21
0.7751200000000001
 31
0.0
  0
LINE
  5
1D7B
  8
241
 10
-16.632999999999999
 20
0.775124
 30
0.0
 11
-16.6328
 21
0.775122
 31
0.0
  0
LINE
  5
1D7C
  8
241
 10
-16.633199999999999
 20
0.7751260000000001
 30
0.0
 11
-16.632999999999999
 21
0.775124
 31
0.0
  0
LINE
  5
1D7D
  8
241
 10
-16.633299999999998
 20
0.775129
 30
0.0
 11
-16.633199999999999
 21
0.7751260000000001
 31
0.0
  0
LINE
  5
1D7E
  8
241
 10
-16.633500000000002
 20
0.7751310000000001
 30
0.0
 11
-16.633299999999998
 21
0.775129
 31
0.0
  0
LINE
  5
1D7F
  8
241
 10
-16.633700000000001
 20
0.775133
 30
0.0
 11
-16.633500000000002
 21
0.7751310000000001
 31
0.0
  0
LINE
  5
1D80
  8
241
 10
-16.633800000000001
 20
0.7751350000000001
 30
0.0
 11
-16.633700000000001
 21
0.775133
 31
0.0
  0
LINE
  5
1D81
  8
241
 10
-16.634
 20
0.775137
 30
0.0
 11
-16.633800000000001
 21
0.7751350000000001
 31
0.0
  0
LINE
  5
1D82
  8
241
 10
-16.6342
 20
0.7751390000000001
 30
0.0
 11
-16.634
 21
0.775137
 31
0.0
  0
LINE
  5
1D83
  8
245
 10
1.607587272896154
 20
1.55000000000001
 30
0.0
 11
-19.577643079991731
 21
1.550000000000038
 31
0.0
  0
LINE
  5
1D84
  8
241
 10
-17.855484118156959
 20
3.1194608366266432
 30
0.0
 11
-17.855484118156959
 21
0.5241843575262802
 31
0.0
  0
LINE
  5
1D85
  8
245
 10
-80.22867747581148
 20
0.0000000000000279
 30
0.0
 11
1.607587272896154
 21
-0.0000000000000006
 31
0.0
  0
LINE
  5
1D86
  8
240
 10
-77.955484118156988
 20
0.0000000000000279
 30
0.0
 11
-77.955484118156988
 21
4.0000000000000258
 31
0.0
  0
LINE
  5
1D87
  8
240
 10
-77.955484118156988
 20
-3.9999999999999711
 30
0.0
 11
-77.955484118156988
 21
0.0000000000000279
 31
0.0
  0
ARC
  5
1D88
  8
240
 10
-76.955484118156988
 20
4.0000000000000258
 30
0.0
 40
1.0
 50
90.0
 51
180.0
  0
ARC
  5
1D89
  8
240
 10
-76.955484118156988
 20
-4.0
 30
0.0
 40
1.0
 50
180.0
 51
270.0
  0
LINE
  5
1D8A
  8
240
 10
-18.734163774597331
 20
-3.7286796564388558
 30
0.0
 11
-18.734163774597331
 21
-2.6441767805316361
 31
0.0
  0
LINE
  5
1D8B
  8
240
 10
-18.734163774597331
 20
3.728679656440391
 30
0.0
 11
-20.005484118157
 21
5.0000000000000258
 31
0.0
  0
LINE
  5
1D8C
  8
241
 10
-20.005484118157
 20
0.0000000000000279
 30
0.0
 11
-20.005484118157
 21
5.0000000000000258
 31
0.0
  0
ARC
  5
1D8D
  8
240
 10
-16.634163774597369
 20
-3.3999999999999759
 30
0.0
 40
2.099999999999993
 50
90.0
 51
180.0
  0
ARC
  5
1D8E
  8
240
 10
-16.612843431037732
 20
5.850000000000021
 30
0.0
 40
3.0
 50
225.0
 51
270.0
  0
LINE
  5
1D8F
  8
241
 10
-20.005484118157
 20
-4.9999999999999707
 30
0.0
 11
-20.005484118157
 21
0.0000000000000279
 31
0.0
  0
LINE
  5
1D90
  8
240
 10
-20.005484118157
 20
-4.9999999999999707
 30
0.0
 11
-18.734163774597331
 21
-3.7286796564403351
 31
0.0
  0
LINE
  5
1D91
  8
240
 10
-76.955484118156988
 20
-4.9999999999999707
 30
0.0
 11
-20.005484118157
 21
-4.9999999999999707
 31
0.0
  0
LINE
  5
1D92
  8
240
 10
-20.005484118157
 20
5.0000000000000258
 30
0.0
 11
-76.955484118156988
 21
5.0000000000000258
 31
0.0
  0
LINE
  5
1D93
  8
241
 10
-4.1949246780417582
 20
2.538392082640986
 30
0.0
 11
-4.8037101564979423
 21
0.3431825655027565
 31
0.0
  0
LINE
  5
1D94
  8
241
 10
-4.0514323326641772
 20
2.8500000000000489
 30
0.0
 11
-4.052149085447013
 21
2.8474154729605909
 31
0.0
  0
LINE
  5
1D95
  8
240
 10
-0.4042220725919208
 20
-1.2999999999999821
 30
0.0
 11
-0.3554841181569941
 21
-1.1499999999999491
 31
0.0
  0
LINE
  5
1D96
  8
240
 10
-0.3554841181569941
 20
-1.1499999999999491
 30
0.0
 11
-0.3554841181569941
 21
0.042939807006076
 31
0.0
  0
LINE
  5
1D97
  8
241
 10
-4.6610600666671029
 20
0.0961053622114839
 30
0.0
 11
-2.4555601189678802
 21
-0.4742757065595557
 31
0.0
  0
LINE
  5
1D98
  8
240
 10
-2.355408117346101
 20
-0.4742757065595569
 30
0.0
 11
-0.1499081696468636
 21
0.0961053622114305
 31
0.0
  0
LINE
  5
1D99
  8
240
 10
-0.007258079816026
 20
0.3431825655027068
 30
0.0
 11
-0.6160435582722671
 21
2.5383920826410802
 31
0.0
  0
LINE
  5
1D9A
  8
240
 10
-0.6661195590831568
 20
2.6251262602853931
 30
0.0
 11
-2.262834028326139
 21
4.2499547086526439
 31
0.0
  0
LINE
  5
1D9B
  8
240
 10
-2.5481342079878142
 20
4.2499547086526439
 30
0.0
 11
-4.1448486772308684
 21
2.625126260285302
 31
0.0
  0
LINE
  5
1D9C
  8
240
 10
-16.63416377459734
 20
-1.2999999999999821
 30
0.0
 11
-0.4042220725919208
 21
-1.2999999999999821
 31
0.0
  0
LINE
  5
1D9D
  8
240
 10
-3.9238658686665939
 20
2.8500000000000489
 30
0.0
 11
-16.6128434310377
 21
2.8500000000000489
 31
0.0
  0
LINE
  5
1D9E
  8
241
 10
-4.6839565833588761
 20
0.775000000000062
 30
0.0
 11
-16.6128434310377
 21
0.775000000000062
 31
0.0
  0
ARC
  5
1D9F
  8
240
 10
-2.405484118156977
 20
4.1097728557926771
 30
0.0
 40
0.2
 50
44.499999999999297
 51
135.50000000000071
1001
GENIUS_GENODEF_13
1002
{
1000
HIER
1070
     0
1002
}
1002
{
1000
MANEDIT
1070
     0
1002
}
1002
{
1000
NOSEL
1070
     0
1002
}
1002
{
1000
BEHIND
1070
     0
1002
}
1002
{
1000
OTHER
1070
     0
1002
}
1002
{
1000
REACTOR
1002
}
1001
GENIUS_GENOBJ-N-FIL_13
1002
{
1000
OWNER
1000
GEN
1002
}
  0
ARC
  5
1DA0
  8
241
 10
-4.002198587400029
 20
2.484944407425334
 30
0.0
 40
0.2
 50
135.50000000000071
 51
164.4999999999998
1001
GENIUS_GENOBJ-N-FIL_13
1002
{
1000
OWNER
1000
GEN
1002
}
1001
GENIUS_GENODEF_13
1002
{
1000
HIER
1070
     0
1002
}
1002
{
1000
MANEDIT
1070
     0
1002
}
1002
{
1000
NOSEL
1070
     0
1002
}
1002
{
1000
BEHIND
1070
     0
1002
}
1002
{
1000
OTHER
1070
     0
1002
}
1002
{
1000
REACTOR
1002
}
  0
ARC
  5
1DA1
  8
241
 10
-4.610984065856214
 20
0.289734890287105
 30
0.0
 40
0.2
 50
164.4999999999998
 51
255.4999999999994
1001
GENIUS_GENOBJ-N-FIL_13
1002
{
1000
OWNER
1000
GEN
1002
}
1001
GENIUS_GENODEF_13
1002
{
1000
HIER
1070
     0
1002
}
1002
{
1000
MANEDIT
1070
     0
1002
}
1002
{
1000
NOSEL
1070
     0
1002
}
1002
{
1000
BEHIND
1070
     0
1002
}
1002
{
1000
OTHER
1070
     0
1002
}
1002
{
1000
REACTOR
1002
}
  0
ARC
  5
1DA2
  8
241
 10
-2.4054841181569899
 20
-0.2806461784839346
 30
0.0
 40
0.2
 50
255.4999999999994
 51
284.4999999999992
1001
GENIUS_GENODEF_13
1002
{
1000
HIER
1070
     0
1002
}
1002
{
1000
MANEDIT
1070
     0
1002
}
1002
{
1000
NOSEL
1070
     0
1002
}
1002
{
1000
BEHIND
1070
     0
1002
}
1002
{
1000
OTHER
1070
     0
1002
}
1002
{
1000
REACTOR
1002
}
1001
GENIUS_GENOBJ-N-FIL_13
1002
{
1000
OWNER
1000
GEN
1002
}
  0
ARC
  5
1DA3
  8
240
 10
-0.1999841704577534
 20
0.2897348902870527
 30
0.0
 40
0.2
 50
284.4999999999992
 51
15.50000000000079
1001
GENIUS_GENODEF_13
1002
{
1000
HIER
1070
     0
1002
}
1002
{
1000
MANEDIT
1070
     0
1002
}
1002
{
1000
NOSEL
1070
     0
1002
}
1002
{
1000
BEHIND
1070
     0
1002
}
1002
{
1000
OTHER
1070
     0
1002
}
1002
{
1000
REACTOR
1002
}
1001
GENIUS_GENOBJ-N-FIL_13
1002
{
1000
OWNER
1000
GEN
1002
}
  0
ARC
  5
1DA4
  8
240
 10
-0.8087696489139942
 20
2.4849444074254241
 30
0.0
 40
0.2
 50
15.50000000000087
 51
44.499999999999297
1001
GENIUS_GENOBJ-N-FIL_13
1002
{
1000
OWNER
1000
GEN
1002
}
1001
GENIUS_GENODEF_13
1002
{
1000
HIER
1070
     0
1002
}
1002
{
1000
MANEDIT
1070
     0
1002
}
1002
{
1000
NOSEL
1070
     0
1002
}
1002
{
1000
BEHIND
1070
     0
1002
}
1002
{
1000
OTHER
1070
     0
1002
}
1002
{
1000
REACTOR
1002
}
  0
ARC
  5
1DA5
  8
241
 10
8.9036312564985565
 20
1.959887470849212
 30
0.0
 40
9.8624451124759744
 50
191.8126542537043
 51
199.25569722687351
  0
CIRCLE
  5
1DA6
  8
246
 10
-2.4054841181569611
 20
1.5630808787889361
 30
0.0
 40
1.985000000000001
  0
ARC
  5
1DA7
  8
247
 10
-70.050946763104719
 20
-2.107103118558705
 30
0.0
 40
0.7566075439453125
 50
53.444012197057553
 51
164.0001843876851
  0
LINE
  5
1DA8
  8
247
 10
-70.477805161542335
 20
-2.8778160091837282
 30
0.0
 11
-70.164053208417329
 21
-1.783639251371222
 31
0.0
  0
ARC
  5
1DA9
  8
247
 10
-70.242829575604858
 20
-2.9451929623087318
 30
0.0
 40
0.2444446334838867
 50
164.00027305718169
 51
344.00027305718208
  0
ARC
  5
1DAA
  8
247
 10
-68.980808091229719
 20
-2.728894134183713
 30
0.0
 40
1.9799648437499999
 50
155.20517736984121
 51
172.79482596205219
  0
ARC
  5
1DAB
  8
247
 10
-69.015770981854814
 20
-2.5727124935587211
 30
0.0
 40
0.9894138793945311
 50
110.8721834020737
 51
132.54194893738779
  0
ARC
  5
1DAC
  8
247
 10
-69.929077622479838
 20
-1.8510249935587171
 30
0.0
 40
0.2444448051452637
 50
1.710121382062687
 51
163.9983983544472
  0
ARC
  5
1DAD
  8
247
 10
-69.015770981854814
 20
-2.5727124935587211
 30
0.0
 40
1.222216369628905
 50
110.22964506332001
 51
118.57168892371681
  0
LINE
  5
1DAE
  8
247
 10
-69.368282700604837
 20
-1.6482261654337209
 30
0.0
 11
-69.438393052167328
 21
-1.4258892513711821
 31
0.0
  0
LINE
  5
1DAF
  8
247
 10
-69.257268052167333
 20
-1.613219329496214
 30
0.0
 11
-69.327378403729838
 21
-1.390882415433732
 31
0.0
  0
LINE
  5
1DB0
  8
247
 10
-69.647686997479838
 20
-3.4457215572793931
 30
0.0
 11
-69.307233872479827
 21
-2.2584244076212152
 31
0.0
  0
LINE
  5
1DB1
  8
247
 10
-69.985353989667331
 20
-2.2584244076212152
 30
0.0
 11
-69.307233872479827
 21
-2.2584244076212152
 31
0.0
  0
LINE
  5
1DB2
  8
247
 10
-70.052106919354827
 20
-2.4912290951212079
 30
0.0
 11
-69.985353989667331
 21
-2.2584244076212152
 31
0.0
  0
LINE
  5
1DB3
  8
247
 10
-69.784251450604813
 20
-3.3091658932169361
 30
0.0
 11
-69.647686997479838
 21
-3.4457215572793931
 31
0.0
  0
LINE
  5
1DB4
  8
247
 10
-70.052106919354827
 20
-2.4912290951212079
 30
0.0
 11
-69.85836082560472
 21
-2.4912290951212079
 31
0.0
  0
LINE
  5
1DB5
  8
247
 10
-70.007853989667325
 20
-3.0125699154337111
 30
0.0
 11
-69.85836082560472
 21
-2.4912290951212079
 31
0.0
  0
ARC
  5
1DB6
  8
247
 10
-69.015770981854814
 20
-2.5727124935587211
 30
0.0
 40
0.9894111328124999
 50
270.0
 51
104.1274364964101
  0
ARC
  5
1DB7
  8
247
 10
-69.015770981854814
 20
-2.5727124935587211
 30
0.0
 40
1.2222158203124971
 50
270.0
 51
104.7707939660941
  0
LINE
  5
1DB8
  8
247
 10
-73.619517075604705
 20
-3.4457215572793931
 30
0.0
 11
-73.085476059980124
 21
-1.583301360746951
 31
0.0
  0
LINE
  5
1DB9
  8
247
 10
-73.351424858493132
 20
-2.5107739688475261
 30
0.0
 11
-72.536511781588516
 21
-1.69586089194305
 31
0.0
  0
ARC
  5
1DBA
  8
247
 10
-72.646128403729733
 20
-1.909226165433745
 30
0.0
 40
0.349197280883789
 50
261.6626016879294
 51
66.338155095189762
  0
LINE
  5
1DBB
  8
247
 10
-72.505981363293628
 20
-1.5893862866919291
 30
0.0
 11
-72.696762187497015
 21
-2.254732982903469
 31
0.0
  0
LINE
  5
1DBC
  8
247
 10
-71.948443833417329
 20
-3.4457215572793931
 30
0.0
 11
-71.421073716229827
 21
-1.606574798246208
 31
0.0
  0
LINE
  5
1DBD
  8
247
 10
-72.662276114714743
 20
-2.5975193539296639
 30
0.0
 11
-71.829189491278242
 21
-1.7644327304930361
 31
0.0
  0
LINE
  5
1DBE
  8
247
 10
-73.247448701045116
 20
-2.1481664351128358
 30
0.0
 11
-72.449778939178614
 21
-1.3504966732463051
 31
0.0
  0
ARC
  5
1DBF
  8
247
 10
-72.38640281779233
 20
-1.9324996029337109
 30
0.0
 40
0.5820078735351563
 50
287.66957754739968
 51
90.236159842671569
  0
LINE
  5
1DC0
  8
247
 10
-72.304386566899012
 20
-1.9809984298271071
 30
0.0
 11
-71.914810397248445
 21
-1.5914222601763821
 31
0.0
  0
LINE
  5
1DC1
  8
247
 10
-73.143472543597227
 20
-1.785558901378089
 30
0.0
 11
-72.708410315465443
 21
-1.350496673246278
 31
0.0
  0
LINE
  5
1DC2
  8
247
 10
-73.741676255292333
 20
-1.5833013607462141
 30
0.0
 11
-73.327658677167221
 21
-1.5833013607462141
 31
0.0
  0
LINE
  5
1DC3
  8
247
 10
-73.206571763105103
 20
-1.5833013607462141
 30
0.0
 11
-73.085476059980124
 21
-1.583301360746951
 31
0.0
  0
LINE
  5
1DC4
  8
247
 10
-72.334225518048214
 20
-1.75220600468955
 30
0.0
 11
-72.04393527788713
 21
-1.4619157645284071
 31
0.0
  0
LINE
  5
1DC5
  8
247
 10
-73.741676255292333
 20
-1.3504966732462209
 30
0.0
 11
-73.260905747479839
 21
-1.3504966732462209
 31
0.0
  0
LINE
  5
1DC6
  8
247
 10
-73.139818833417124
 20
-1.3504966732462209
 30
0.0
 11
-72.38880171173939
 21
-1.3504966732463051
 31
0.0
  0
LINE
  5
1DC7
  8
247
 10
-73.139818833417124
 20
-1.3504966732462209
 30
0.0
 11
-73.206571763105103
 21
-1.5833013607462141
 31
0.0
  0
LINE
  5
1DC8
  8
247
 10
-73.260905747479839
 20
-1.3504966732462209
 30
0.0
 11
-73.327658677167221
 21
-1.5833013607462141
 31
0.0
  0
LINE
  5
1DC9
  8
247
 10
-73.199846379252122
 20
-1.58330136074627
 30
0.0
 11
-72.967041691752144
 21
-1.350496673246278
 31
0.0
  0
LINE
  5
1DCA
  8
247
 10
-72.456593481810117
 20
-1.615942592164596
 30
0.0
 11
-72.2164955774509
 21
-1.375844687805422
 31
0.0
  0
LINE
  5
1DCB
  8
247
 10
-71.505844224042335
 20
-1.606574798246208
 30
0.0
 11
-71.421073716229827
 21
-1.606574798246208
 31
0.0
  0
LINE
  5
1DCC
  8
247
 10
-71.505844224042335
 20
-1.606574798246208
 30
0.0
 11
-71.432411606854814
 21
-1.3504966732462209
 31
0.0
  0
LINE
  5
1DCD
  8
247
 10
-72.571995526054224
 20
-2.7658701415558342
 30
0.0
 11
-71.808619134938809
 21
-2.0024937504404869
 31
0.0
  0
ARC
  5
1DCE
  8
247
 10
-72.65342332560472
 20
-2.8637183529337422
 30
0.0
 40
0.5820029296875
 50
270.0
 51
40.329840654167107
  0
LINE
  5
1DCF
  8
247
 10
-73.455401015940936
 20
-2.8733815025822711
 30
0.0
 11
-72.640484507069431
 21
-2.0584649937106518
 31
0.0
  0
LINE
  5
1DD0
  8
247
 10
-73.559377173388938
 20
-3.235989036316961
 30
0.0
 11
-72.57435613933653
 21
-2.2509680022645231
 31
0.0
  0
LINE
  5
1DD1
  8
247
 10
-73.619517075604705
 20
-3.4457215572793931
 30
0.0
 11
-72.65342332560472
 21
-3.4457215572793931
 31
0.0
  0
LINE
  5
1DD2
  8
247
 10
-72.993215565491013
 20
-3.4457215572793931
 30
0.0
 11
-72.139002235680309
 21
-2.5915082274687462
 31
0.0
  0
ARC
  5
1DD3
  8
247
 10
-72.913148911542336
 20
-2.840436126371197
 30
0.0
 40
0.3492072715759277
 50
261.66285421114719
 51
66.338192159113618
  0
LINE
  5
1DD4
  8
247
 10
-72.772999092539507
 20
-2.5205865574251849
 30
0.0
 11
-72.963783055328605
 21
-3.1859529884843831
 31
0.0
  0
LINE
  5
1DD5
  8
247
 10
-72.734584189204213
 20
-3.445721557279422
 30
0.0
 11
-72.076424534272533
 21
-2.787561902347699
 31
0.0
  0
LINE
  5
1DD6
  8
247
 10
-73.251846941777814
 20
-3.4457215572793931
 30
0.0
 11
-72.952408229684295
 21
-3.1462828451859881
 31
0.0
  0
LINE
  5
1DD7
  8
247
 10
-73.510478318064514
 20
-3.4457215572793931
 30
0.0
 11
-72.848437429731504
 21
-2.7836806689464262
 31
0.0
  0
LINE
  5
1DD8
  8
247
 10
-72.432316928747994
 20
-3.402085673110061
 30
0.0
 11
-72.115056005428514
 21
-3.084824749790493
 31
0.0
  0
LINE
  5
1DD9
  8
247
 10
-71.948443833417329
 20
-3.4457215572793931
 30
0.0
 11
-71.427744614667333
 21
-3.4457215572793931
 31
0.0
  0
ARC
  5
1DDA
  8
247
 10
-73.741676255292333
 20
-2.5727124935587211
 30
0.0
 40
1.2222158203124971
 50
90.0
 51
270.0
  0
ARC
  5
1DDB
  8
247
 10
-73.741676255292333
 20
-2.5727124935587211
 30
0.0
 40
0.9894111328124999
 50
90.0
 51
270.0
  0
ARC
  5
1DDC
  8
247
 10
-70.217833481854839
 20
-2.689114837308717
 30
0.0
 40
0.756615234375
 50
163.99975070172931
 51
304.9638732916307
  0
LINE
  5
1DDD
  8
247
 10
-73.741676255292333
 20
-3.562123901029417
 30
0.0
 11
-69.015770981854814
 21
-3.562123901029417
 31
0.0
  0
LINE
  5
1DDE
  8
247
 10
-73.741676255292333
 20
-3.7949285825379162
 30
0.0
 11
-69.015770981854814
 21
-3.7949285825379162
 31
0.0
  0
LINE
  5
1DDF
  8
247
 10
-71.427744614667333
 20
-3.4457215572793931
 30
0.0
 11
-70.826950669354815
 21
-1.3504966732462209
 31
0.0
  0
LINE
  5
1DE0
  8
247
 10
-71.432411606854814
 20
-1.3504966732462209
 30
0.0
 11
-70.826950669354815
 21
-1.3504966732462209
 31
0.0
  0
TEXT
  5
1DE1
  8
247
 10
-66.76466307982902
 20
-3.498139858613678
 30
0.0
 40
2.0
  1
ST10-C0608-45B-16
 41
0.7
  7
YOKO
 11
-66.76466307982902
 21
-3.498139858613678
 31
0.0
 73
     1
  0
ARC
  5
1DE2
  8
241
 10
-16.832921357286718
 20
-0.9908648390987767
 30
0.0
 40
1.777153681544688
 50
83.578582408660495
 51
168.3957304244588
  0
ARC
  5
1DE3
  8
241
 10
-9.1376028881370797
 20
-2.3979625802188802
 30
0.0
 40
9.5997188646321518
 50
169.40793867041481
 51
181.46968696133411
  0
ENDBLK
  5
1DE5
  8
0
  0
ENDSEC
  0
SECTION
  2
ENTITIES
  0
INSERT
  5
13FA
  8
240
  2
*U1
 10
0.0
 20
0.0
 30
0.0
  0
LINE
  5
1744
  8
250
 10
-17.855484118156959
 20
0.02418435752628
 30
0.0
 11
-17.855484118156959
 21
-23.846796149144829
 31
0.0
  0
LINE
  5
1745
  8
250
 10
0.0
 20
0.1339947205092636
 30
0.0
 11
0.0
 21
-23.846796149144829
 31
0.0
  0
LINE
  5
1746
  8
250
 10
-15.625484118156971
 20
-22.84679614914484
 30
0.0
 11
-2.2300000000000031
 21
-22.84679614914484
 31
0.0
  0
LINE
  5
174A
  8
250
 10
-77.955484118156988
 20
-4.4999999999999707
 30
0.0
 11
-77.955484118156988
 21
-30.84679614914484
 31
0.0
  0
LINE
  5
174B
  8
250
 10
0.0
 20
-0.7244176078116601
 30
0.0
 11
0.0
 21
-30.84679614914484
 31
0.0
  0
LINE
  5
174C
  8
250
 10
-75.725484118156984
 20
-29.846796149144829
 30
0.0
 11
-2.2300000000000031
 21
-29.846796149144829
 31
0.0
  0
LINE
  5
1750
  8
250
 10
0.0000000000000142
 20
2.4472780723590111
 30
0.0
 11
0.0000000000000142
 21
11.45043389883922
 31
0.0
  0
LINE
  5
1751
  8
250
 10
-2.6138314871351152
 20
4.6071323176510814
 30
0.0
 11
-6.6608499588649988
 21
8.7254082339782837
 31
0.0
  0
ARC
  5
1752
  8
250
 10
0.0
 20
1.9472780723590111
 30
0.0
 40
8.5031558264802083
 50
105.06953524394051
 51
119.4304647560587
  0
LINE
  5
1756
  8
250
 10
-77.455484118156988
 20
-4.9999999999999707
 30
0.0
 11
-90.276996985808935
 21
-4.999999999999968
 31
0.0
  0
LINE
  5
1757
  8
250
 10
-77.455484118156988
 20
5.0000000000000258
 30
0.0
 11
-90.276996985808935
 21
5.0000000000000311
 31
0.0
  0
LINE
  5
1758
  8
250
 10
-89.276996985808978
 20
-2.769999999999968
 30
0.0
 11
-89.276996985808978
 21
2.7700000000000311
 31
0.0
  0
LINE
  5
175C
  8
250
 10
2.1075872728961542
 20
-0.0000000000000007
 30
0.0
 11
9.7230030141909634
 21
-0.0000000000000029
 31
0.0
  0
LINE
  5
175D
  8
250
 10
2.1075872728961542
 20
1.55000000000001
 30
0.0
 11
9.7230030141909634
 21
1.5500000000000069
 31
0.0
  0
LINE
  5
175E
  8
250
 10
8.7230030141909651
 20
3.7800000000000078
 30
0.0
 11
8.7230030141909651
 21
6.010000000000006
 31
0.0
  0
LINE
  5
175F
  8
250
 10
8.7230030141909651
 20
-2.2300000000000022
 30
0.0
 11
8.7230030141909651
 21
-14.88380952380952
 31
0.0
  0
LINE
  5
1760
  8
250
 10
8.7230030141909651
 20
1.5500000000000069
 30
0.0
 11
8.7230030141909651
 21
-0.0000000000000026
 31
0.0
  0
LINE
  5
1764
  8
250
 10
-1.9054841181569759
 20
4.3999999999999764
 30
0.0
 11
16.72301083092708
 21
4.399999999999971
 31
0.0
  0
LINE
  5
1765
  8
250
 10
15.72301083092708
 20
2.1699999999999711
 30
0.0
 11
15.72301083092708
 21
-5.2761904761904814
 31
0.0
  0
TEXT
  5
1768
  8
250
 10
14.72301083092708
 20
-4.561904761904751
 30
0.0
 40
3.0
  1
\U+2205
 50
90.0
  0
TEXT
  5
1769
  8
250
 10
14.623010830927081
 20
-1.8476190476190371
 30
0.0
 40
2.799999999999998
  1
8.8
 50
90.0
  0
LINE
  5
176A
  8
250
 10
15.351344164260411
 20
2.1699999999999711
 30
0.0
 11
15.72301083092708
 21
4.399999999999971
 31
0.0
  0
LINE
  5
176B
  8
250
 10
16.09467749759375
 20
2.1699999999999711
 30
0.0
 11
15.72301083092708
 21
4.399999999999971
 31
0.0
  0
LINE
  5
176C
  8
250
 10
15.72301083092708
 20
4.399999999999971
 30
0.0
 11
15.72301083092708
 21
2.1699999999999711
 31
0.0
  0
TEXT
  5
176D
  8
250
 10
7.7230030141909651
 20
-14.683809523809501
 30
0.0
 40
2.799999999999998
  1
1.55
 50
90.0
  0
LINE
  5
176E
  8
250
 10
8.3513363475242937
 20
-2.2300000000000022
 30
0.0
 11
8.7230030141909651
 21
-0.0000000000000026
 31
0.0
  0
LINE
  5
176F
  8
250
 10
9.0946696808576348
 20
-2.2300000000000022
 30
0.0
 11
8.7230030141909651
 21
-0.0000000000000026
 31
0.0
  0
LINE
  5
1770
  8
250
 10
8.7230030141909651
 20
-0.0000000000000026
 30
0.0
 11
8.7230030141909651
 21
-2.2300000000000022
 31
0.0
  0
LINE
  5
1771
  8
250
 10
9.0946696808576348
 20
3.7800000000000069
 30
0.0
 11
8.7230030141909651
 21
1.5500000000000069
 31
0.0
  0
LINE
  5
1772
  8
250
 10
8.3513363475242937
 20
3.7800000000000069
 30
0.0
 11
8.7230030141909651
 21
1.5500000000000069
 31
0.0
  0
LINE
  5
1773
  8
250
 10
8.7230030141909651
 20
1.5500000000000069
 30
0.0
 11
8.7230030141909651
 21
3.7800000000000069
 31
0.0
  0
TEXT
  5
1774
  8
250
 10
-41.644408725745151
 20
-28.84679614914484
 30
0.0
 40
2.799999999999998
  1
78
  0
LINE
  5
1775
  8
250
 10
-2.2300000000000031
 20
-29.47512948247817
 30
0.0
 11
0.0
 21
-29.846796149144829
 31
0.0
  0
LINE
  5
1776
  8
250
 10
-2.2300000000000031
 20
-30.218462815811488
 30
0.0
 11
0.0
 21
-29.846796149144829
 31
0.0
  0
LINE
  5
1777
  8
250
 10
0.0
 20
-29.846796149144829
 30
0.0
 11
-2.2300000000000031
 21
-29.846796149144829
 31
0.0
  0
LINE
  5
1778
  8
250
 10
-75.725484118156984
 20
-30.218462815811488
 30
0.0
 11
-77.955484118156988
 21
-29.846796149144829
 31
0.0
  0
LINE
  5
1779
  8
250
 10
-75.725484118156984
 20
-29.47512948247817
 30
0.0
 11
-77.955484118156988
 21
-29.846796149144829
 31
0.0
  0
LINE
  5
177A
  8
250
 10
-77.955484118156988
 20
-29.846796149144829
 30
0.0
 11
-75.725484118156984
 21
-29.846796149144829
 31
0.0
  0
TEXT
  5
177B
  8
250
 10
-13.72774205907848
 20
-21.84679614914484
 30
0.0
 40
2.799999999999998
  1
17.9
  0
LINE
  5
177C
  8
250
 10
-2.2300000000000031
 20
-22.47512948247817
 30
0.0
 11
0.0
 21
-22.84679614914484
 31
0.0
  0
LINE
  5
177D
  8
250
 10
-2.2300000000000031
 20
-23.218462815811499
 30
0.0
 11
0.0
 21
-22.84679614914484
 31
0.0
  0
LINE
  5
177E
  8
250
 10
0.0
 20
-22.84679614914484
 30
0.0
 11
-2.2300000000000031
 21
-22.84679614914484
 31
0.0
  0
LINE
  5
177F
  8
250
 10
-15.625484118156971
 20
-23.218462815811499
 30
0.0
 11
-17.855484118156959
 21
-22.84679614914484
 31
0.0
  0
LINE
  5
1780
  8
250
 10
-15.625484118156971
 20
-22.47512948247817
 30
0.0
 11
-17.855484118156959
 21
-22.84679614914484
 31
0.0
  0
LINE
  5
1781
  8
250
 10
-17.855484118156959
 20
-22.84679614914484
 30
0.0
 11
-15.625484118156971
 21
-22.84679614914484
 31
0.0
  0
TEXT
  5
1782
  8
250
 10
-90.276996985808935
 20
-3.895238095238065
 30
0.0
 40
3.0
  1
\U+2205
 50
90.0
  0
TEXT
  5
1783
  8
250
 10
-90.376996985808944
 20
-1.180952380952349
 30
0.0
 40
2.799999999999998
  1
10
 50
90.0
  0
LINE
  5
1784
  8
250
 10
-89.648663652475619
 20
2.7700000000000311
 30
0.0
 11
-89.276996985808978
 21
5.0000000000000311
 31
0.0
  0
LINE
  5
1785
  8
250
 10
-88.905330319142294
 20
2.7700000000000311
 30
0.0
 11
-89.276996985808978
 21
5.0000000000000311
 31
0.0
  0
LINE
  5
1786
  8
250
 10
-89.276996985808978
 20
5.0000000000000311
 30
0.0
 11
-89.276996985808978
 21
2.7700000000000311
 31
0.0
  0
LINE
  5
1787
  8
250
 10
-88.905330319142294
 20
-2.769999999999968
 30
0.0
 11
-89.276996985808978
 21
-4.999999999999968
 31
0.0
  0
LINE
  5
1788
  8
250
 10
-89.648663652475619
 20
-2.769999999999968
 30
0.0
 11
-89.276996985808978
 21
-4.999999999999968
 31
0.0
  0
LINE
  5
1789
  8
250
 10
-89.276996985808978
 20
-4.999999999999968
 30
0.0
 11
-89.276996985808978
 21
-2.769999999999968
 31
0.0
  0
TEXT
  5
178A
  8
250
 10
-7.2780071292719262
 20
10.19854206514279
 30
0.0
 40
2.799999999999998
  1
45üï
 50
17.00509001047304
  0
LINE
  5
178B
  8
250
 10
-3.954675042472132
 20
9.0561624666368825
 30
0.0
 11
-5.9599406945651614
 21
8.0121577848240921
 31
0.0
  0
LINE
  5
178C
  8
250
 10
-4.4016638934434678
 20
9.6500862088393369
 30
0.0
 11
-5.9599406945651614
 21
8.0121577848240921
 31
0.0
  0
LINE
  5
178D
  8
250
 10
-5.9599406945651614
 20
8.0121577848240921
 30
0.0
 11
-4.1781694679578001
 21
9.3531243377381106
 31
0.0
  0
LINE
  5
178E
  8
250
 10
-2.2594808349589059
 20
10.526476436700801
 30
0.0
 11
0.0000000000000142
 21
10.45043389883922
 31
0.0
  0
LINE
  5
178F
  8
250
 10
-2.1620091804838051
 20
9.7895614341270072
 30
0.0
 11
0.0000000000000142
 21
10.45043389883922
 31
0.0
  0
LINE
  5
1790
  8
250
 10
0.0000000000000142
 20
10.45043389883922
 30
0.0
 11
-2.2107450077213562
 21
10.158018935413899
 31
0.0
  0
INSERT
  5
1DE6
  8
240
  2
A$C3ADD5052
 10
0.0
 20
0.0
 30
0.0
  0
VIEWPORT
  5
22
 67
     1
  8
0
 10
261.51769911504419
 20
148.5
 30
0.0
 40
523.0353982300885
 41
297.0
 68
     1
 69
     1
1001
ACAD
1000
MVIEW
1002
{
1070
    16
1010
0.0
1020
0.0
1030
0.0
1010
0.0
1020
0.0
1030
1.0
1040
0.0
1040
297.0
1040
261.51769911504419
1040
148.5
1040
50.0
1040
0.0
1040
0.0
1070
     0
1070
   100
1070
     1
1070
     1
1070
     0
1070
     0
1070
     0
1070
     0
1040
0.0
1040
0.0
1040
0.0
1040
1.0
1040
1.0
1040
10.0
1040
10.0
1070
     0
1002
{
1002
}
1002
}
1001
GENIUS_GENODEF_13
1002
{
1000
HIER
1070
     0
1002
}
1002
{
1000
MANEDIT
1070
     0
1002
}
1002
{
1000
NOSEL
1070
     0
1002
}
1002
{
1000
BEHIND
1070
     0
1002
}
1002
{
1000
OTHER
1070
     0
1002
}
1002
{
1000
REACTOR
1002
}
1001
GENIUS_GENOBJ-N-SDF_13
1002
{
1000
OWNER
1000
GEN
1002
}
1001
GENIUS_GENSCREG_15
1000
PF
1040
1.0
1000
DF
1040
1.0
1000
MIN
1011
0.0
1021
0.0
1031
0.0
1021
0.0
1031
0.0
1000
MAX
1011
523.0353982300885
1021
0.0
1031
0.0
1021
297.0
1031
0.0
1000
FLAGS
1070
     2
  0
ENDSEC
  0
EOF
