  0
SECTION
  2
HEADER
  9
$ACADVER
  1
AC1009
  9
$INSBASE
 10
0.0
 20
0.0
 30
0.0
  9
$EXTMIN
 10
-109.9451305299326
 20
-22.0
 30
0.0
  9
$EXTMAX
 10
14.98096205531988
 20
25.7402781673443
 30
0.0
  9
$LIMMIN
 10
0.0
 20
0.0
  9
$LIMMAX
 10
297.0
 20
210.0
  9
$ORTHOMODE
 70
     1
  9
$REGENMODE
 70
     1
  9
$FILLMODE
 70
     1
  9
$QTEXTMODE
 70
     0
  9
$MIRRTEXT
 70
     1
  9
$DRAGMODE
 70
     2
  9
$LTSCALE
 40
10.0
  9
$OSMODE
 70
  2799
  9
$ATTMODE
 70
     1
  9
$TEXTSIZE
 40
3.0
  9
$TRACEWID
 40
1.0
  9
$TEXTSTYLE
  7
YOKO
  9
$CLAYER
  8
240
  9
$CELTYPE
  6
BYLAYER
  9
$CECOLOR
 62
   256
  9
$DIMSCALE
 40
1.0
  9
$DIMASZ
 40
2.2299999999999991
  9
$DIMEXO
 40
0.5
  9
$DIMDLI
 40
7.0
  9
$DIMRND
 40
0.0
  9
$DIMDLE
 40
0.0
  9
$DIMEXE
 40
1.0
  9
$DIMTP
 40
0.0
  9
$DIMTM
 40
0.01
  9
$DIMTXT
 40
2.799999999999998
  9
$DIMCEN
 40
0.0
  9
$DIMTSZ
 40
0.0
  9
$DIMTOL
 70
     0
  9
$DIMLIM
 70
     0
  9
$DIMTIH
 70
     0
  9
$DIMTOH
 70
     0
  9
$DIMSE1
 70
     0
  9
$DIMSE2
 70
     0
  9
$DIMTAD
 70
     3
  9
$DIMZIN
 70
     9
  9
$DIMBLK
  1
OPEN
  9
$DIMASO
 70
     1
  9
$DIMSHO
 70
     1
  9
$DIMPOST
  1

  9
$DIMAPOST
  1

  9
$DIMALT
 70
     0
  9
$DIMALTD
 70
     2
  9
$DIMALTF
 40
25.399999999999999
  9
$DIMLFAC
 40
1.0
  9
$DIMTOFL
 70
     1
  9
$DIMTVP
 40
0.0
  9
$DIMTIX
 70
     1
  9
$DIMSOXD
 70
     0
  9
$DIMSAH
 70
     0
  9
$DIMBLK1
  1

  9
$DIMBLK2
  1

  9
$DIMSTYLE
  2
BIGT
  9
$DIMCLRD
 70
   256
  9
$DIMCLRE
 70
   256
  9
$DIMCLRT
 70
    40
  9
$DIMTFAC
 40
1.0
  9
$DIMGAP
 40
1.0
  9
$LUNITS
 70
     2
  9
$LUPREC
 70
     3
  9
$SKETCHINC
 40
1.0
  9
$FILLETRAD
 40
0.0
  9
$AUNITS
 70
     0
  9
$AUPREC
 70
     3
  9
$MENU
  1
.
  9
$ELEVATION
 40
0.0
  9
$PELEVATION
 40
0.0
  9
$THICKNESS
 40
0.0
  9
$LIMCHECK
 70
     0
  9
$BLIPMODE
 70
     0
  9
$CHAMFERA
 40
0.25
  9
$CHAMFERB
 40
0.25
  9
$SKPOLY
 70
     0
  9
$TDCREATE
 40
2454089.7755458802
  9
$TDUPDATE
 40
2454809.4339219788
  9
$TDINDWG
 40
0.0137512616
  9
$TDUSRTIMER
 40
0.013751088
  9
$USRTIMER
 70
     1
  9
$ANGBASE
 50
0.0
  9
$ANGDIR
 70
     0
  9
$PDMODE
 70
     1
  9
$PDSIZE
 40
0.0
  9
$PLINEWID
 40
0.0
  9
$COORDS
 70
     0
  9
$SPLFRAME
 70
     0
  9
$SPLINETYPE
 70
     6
  9
$SPLINESEGS
 70
     4
  9
$ATTDIA
 70
     1
  9
$ATTREQ
 70
     1
  9
$HANDLING
 70
     1
  9
$HANDSEED
  5
21C3
  9
$SURFTAB1
 70
     6
  9
$SURFTAB2
 70
     6
  9
$SURFTYPE
 70
     6
  9
$SURFU
 70
     6
  9
$SURFV
 70
     6
  9
$UCSNAME
  2

  9
$UCSORG
 10
0.0
 20
0.0
 30
0.0
  9
$UCSXDIR
 10
1.0
 20
0.0
 30
0.0
  9
$UCSYDIR
 10
0.0
 20
1.0
 30
0.0
  9
$PUCSNAME
  2

  9
$PUCSORG
 10
0.0
 20
0.0
 30
0.0
  9
$PUCSXDIR
 10
1.0
 20
0.0
 30
0.0
  9
$PUCSYDIR
 10
0.0
 20
1.0
 30
0.0
  9
$USERI1
 70
     1
  9
$USERI2
 70
     0
  9
$USERI3
 70
     0
  9
$USERI4
 70
     0
  9
$USERI5
 70
     0
  9
$USERR1
 40
0.0
  9
$USERR2
 40
0.0
  9
$USERR3
 40
0.0
  9
$USERR4
 40
0.0
  9
$USERR5
 40
0.0
  9
$WORLDVIEW
 70
     1
  9
$SHADEDGE
 70
     3
  9
$SHADEDIF
 70
    70
  9
$TILEMODE
 70
     1
  9
$MAXACTVP
 70
    16
  9
$PLIMCHECK
 70
     0
  9
$PEXTMIN
 10
1.0000000000000000E+020
 20
1.0000000000000000E+020
 30
1.0000000000000000E+020
  9
$PEXTMAX
 10
-1.0000000000000000E+020
 20
-1.0000000000000000E+020
 30
-1.0000000000000000E+020
  9
$PLIMMIN
 10
0.0
 20
0.0
  9
$PLIMMAX
 10
420.0
 20
297.0
  9
$UNITMODE
 70
     0
  9
$VISRETAIN
 70
     1
  9
$PLINEGEN
 70
     0
  9
$PSLTSCALE
 70
     1
  0
ENDSEC
  0
SECTION
  2
TABLES
  0
TABLE
  2
VPORT
 70
     3
  0
VPORT
  2
*ACTIVE
 70
     0
 10
0.0
 20
0.0
 11
1.0
 21
1.0
 12
-47.487205651235683
 22
1.8780285760382751
 13
0.0
 23
0.0
 14
7.0
 24
7.0
 15
7.0
 25
7.0
 16
0.0
 26
0.0
 36
1.0
 17
0.0
 27
0.0
 37
0.0
 40
81.063497052682365
 41
1.5487804878048781
 42
50.0
 43
0.0
 44
0.0
 50
0.0
 51
0.0
 71
     0
 72
  2000
 73
     1
 74
     0
 75
     0
 76
     0
 77
     0
 78
     0
  0
ENDTAB
  0
TABLE
  2
LTYPE
 70
    16
  0
LTYPE
  2
CONTINUOUS
 70
     0
  3
Solid line
 72
    65
 73
     0
 40
0.0
  0
LTYPE
  2
CENTER2
 70
     0
  3
___ _ ___ _ ___ _ ___ _ ___ _ ___ _ ___ _ ___ _
 72
    65
 73
     4
 40
1.125
 49
0.75
 49
-0.125
 49
0.125
 49
-0.125
  0
LTYPE
  2
HIDDEN2
 70
     0
  3
_ _ _ _ _ _ _ _ _ _ _ _ _ _ _ _ _ _ _ _ _ _ _ _
 72
    65
 73
     2
 40
0.1875
 49
0.125
 49
-0.0625
  0
LTYPE
  2
PHANTOM2
 70
     0
  3
___ _ _ ___ _ _ ___ _ _ ___ _ _ ___ _ _ ___ _ _
 72
    65
 73
     6
 40
1.25
 49
0.625
 49
-0.125
 49
0.125
 49
-0.125
 49
0.125
 49
-0.125
  0
LTYPE
  2
CENTER
 70
     0
  3
____ _ ____ _ ____ _ ____ _ ____ _ ____ _ ____ 
 72
    65
 73
     4
 40
2.0
 49
1.25
 49
-0.25
 49
0.25
 49
-0.25
  0
LTYPE
  2
AMCONSTR
 70
     0
  3
_______________________
 72
    65
 73
     2
 40
9999.0
 49
9999.0
 49
0.0
  0
LTYPE
  2
HIDDEN
 70
     0
  3
Hidden __ __ __ __ __ __ __ __ __ __ __ __ __ _
 72
    65
 73
     2
 40
9.5249999999999986
 49
6.3499999999999979
 49
-3.174999999999998
  0
LTYPE
  2
AMZIGZAG2
 70
     0
  3
/\/-/\/-/\/-/\/-/\/-/\/
 72
    65
 73
     2
 40
0.4401
 49
0.0001
 49
-0.4400000000000001
  0
LTYPE
  2
ACANSTGB
 70
     0
  3
__ . . __ . .
 72
    65
 73
     6
 40
0.35433070866
 49
0.15748031496
 49
-0.03937007874
 49
0.03937007874
 49
-0.03937007874
 49
0.03937007874
 49
-0.03937007874
  0
LTYPE
  2
ACANSTGL
 70
     0
  3
_ _ _ _ _
 72
    65
 73
     2
 40
0.11811023622
 49
0.07874015748
 49
-0.03937007874
  0
ENDTAB
  0
TABLE
  2
LAYER
 70
     8
  0
LAYER
  2
0
 70
     0
 62
     7
  6
CONTINUOUS
  0
LAYER
  2
240
 70
     0
 62
     4
  6
CONTINUOUS
  0
LAYER
  2
DEFPOINTS
 70
     0
 62
     7
  6
CONTINUOUS
  0
LAYER
  2
245
 70
     0
 62
     2
  6
CENTER2
  0
LAYER
  2
241
 70
     0
 62
   211
  6
CONTINUOUS
  0
LAYER
  2
246
 70
     0
 62
     3
  6
PHANTOM2
  0
LAYER
  2
247
 70
     0
 62
    60
  6
CONTINUOUS
  0
LAYER
  2
250
 70
     0
 62
     3
  6
CONTINUOUS
  0
ENDTAB
  0
TABLE
  2
STYLE
 70
     5
  0
STYLE
  2
STANDARD
 70
     0
 40
0.0
 41
1.0
 50
0.0
 71
     0
 42
3.0
  3
romans.shx
  4
extfont.shx
  0
STYLE
  2
YOKO
 70
     0
 40
0.0
 41
1.0
 50
0.0
 71
     0
 42
3.0
  3
romans.shx
  4
extfont.shx
  0
STYLE
  2

 70
     1
 40
0.0
 41
1.0
 50
0.0
 71
     0
 42
3.0
  3
ltypeshp.shx
  4

  0
STYLE
  2
ACANSTS
 70
     0
 40
1.0
 41
1.0
 50
0.0
 71
     0
 42
3.0
  3
romans.shx
  4
extfont.shx
  0
STYLE
  2
ACANSGDT
 70
     0
 40
0.0
 41
1.0
 50
0.0
 71
     0
 42
3.0
  3
amgdtans.shx
  4

  0
ENDTAB
  0
TABLE
  2
VIEW
 70
     0
  0
ENDTAB
  0
TABLE
  2
UCS
 70
     0
  0
ENDTAB
  0
TABLE
  2
APPID
 70
    31
  0
APPID
  2
ACAD
 70
     0
  0
APPID
  2
GLOBAL
 70
     0
  0
APPID
  2
DETAIL
 70
     0
  0
APPID
  2
GRPNAME
 70
     0
  0
APPID
  2
GPARA
 70
     0
  0
APPID
  2
MCAD_NO_VIS
 70
     0
  0
APPID
  2
ACAD_TEMP_GRAPHIC
 70
     0
  0
APPID
  2
ACATTRIBSERVICES
 70
     0
  0
APPID
  2
GENIUS_GENSCREG_15
 70
     0
  0
APPID
  2
GENIUS_GENODEF_13
 70
     0
  0
APPID
  2
GENIUS_GENOBJ-N-SDF_13
 70
     0
  0
APPID
  2
GENIUS_GENREC_14
 70
     0
  0
APPID
  2
GENIUS_GENOBJ-N-REC_13
 70
     0
  0
APPID
  2
GENIUS_GENDIMSH_14
 70
     0
  0
APPID
  2
GENIUS_GENOBJ-N-DIM_13
 70
     0
  0
APPID
  2
GENIUS_GENDIM_13
 70
     0
  0
APPID
  2
GENIUS_GENDTOL_13
 70
     0
  0
APPID
  2
GENIUS_GENOLIS_13
 70
     0
  0
APPID
  2
GENIUS_GENOENT_13
 70
     0
  0
APPID
  2
GENIUS_GENOBJ-F-FEM_13
 70
     0
  0
APPID
  2
GENIUS_GENOREF_13
 70
     0
  0
APPID
  2
GENIUS_GEFFEM_13
 70
     0
  0
APPID
  2
GENIUS_GEFFEMP_13
 70
     0
  0
APPID
  2
AD_DRAW
 70
     0
  0
APPID
  2
DESIGNERASSEMBLIES
 70
     0
  0
APPID
  2
ACADM_DIM_EDIT
 70
     0
  0
APPID
  2
AMDT_DM_ADJ
 70
     0
  0
APPID
  2
GENIUS_GENOBJ-N-FIL_13
 70
     0
  0
APPID
  2
HATCH_TYPE
 70
     0
  0
APPID
  2
HATCH_DISPLAY
 70
     0
  0
APPID
  2
HATCH_DISTANCE
 70
     0
  0
ENDTAB
  0
TABLE
  2
DIMSTYLE
 70
     7
  0
DIMSTYLE
  2
BIGT
 70
     0
  3

  4

  5

  6

  7

 40
1.0
 41
2.2299999999999991
 42
0.5
 43
7.0
 44
1.0
 45
0.0
 46
0.0
 47
0.0
 48
0.01
140
2.799999999999998
141
0.0
142
0.0
143
25.399999999999999
144
1.0
145
0.0
146
1.0
147
1.0
 71
     0
 72
     0
 73
     0
 74
     0
 75
     0
 76
     0
 77
     3
 78
     9
170
     0
171
     2
172
     1
173
     0
174
     1
175
     0
176
   256
177
   256
178
    40
  0
DIMSTYLE
  2
AM_ANSI
 70
     0
  3

  4
mm
  5

  6

  7

 40
1.0
 41
0.1
 42
0.05
 43
0.5
 44
0.1
 45
0.0
 46
0.0
 47
0.1
 48
0.1
140
0.12
141
0.0
142
0.0
143
25.399999999999999
144
1.0
145
0.0
146
0.71
147
0.06
 71
     0
 72
     0
 73
     1
 74
     1
 75
     0
 76
     0
 77
     0
 78
     7
170
     0
171
     2
172
     0
173
     0
174
     0
175
     0
176
   256
177
   256
178
     2
  0
DIMSTYLE
  2
AM_ANSI$3
 70
     0
  3

  4
mm
  5

  6

  7

 40
1.0
 41
0.1
 42
0.05
 43
0.5
 44
0.1
 45
0.0
 46
0.0
 47
0.1
 48
0.1
140
0.12
141
0.0
142
0.0
143
25.399999999999999
144
1.0
145
0.0
146
0.71
147
0.06
 71
     0
 72
     0
 73
     1
 74
     1
 75
     0
 76
     0
 77
     0
 78
     7
170
     0
171
     2
172
     0
173
     0
174
     0
175
     0
176
   256
177
   256
178
     2
  0
DIMSTYLE
  2
AM_ANSI$4
 70
     0
  3

  4
mm
  5

  6

  7

 40
1.0
 41
0.1
 42
0.05
 43
0.5
 44
0.1
 45
0.0
 46
0.0
 47
0.1
 48
0.1
140
0.12
141
0.0
142
0.0
143
25.399999999999999
144
1.0
145
0.0
146
0.71
147
0.06
 71
     0
 72
     0
 73
     1
 74
     1
 75
     0
 76
     0
 77
     0
 78
     7
170
     0
171
     2
172
     0
173
     0
174
     0
175
     0
176
   256
177
   256
178
     2
  0
DIMSTYLE
  2
AM_ANSI$7
 70
     0
  3

  4
mm
  5

  6

  7

 40
1.0
 41
0.1
 42
0.05
 43
0.5
 44
0.1
 45
0.0
 46
0.0
 47
0.1
 48
0.1
140
0.24
141
0.0
142
0.0
143
25.399999999999999
144
1.0
145
0.0
146
0.71
147
0.06
 71
     0
 72
     0
 73
     1
 74
     1
 75
     0
 76
     0
 77
     0
 78
     7
170
     0
171
     2
172
     0
173
     0
174
     0
175
     0
176
   256
177
   256
178
     2
  0
DIMSTYLE
  2
AM_ANSI$SF
 70
     0
  3

  4
mm
  5

  6

  7

 40
1.0
 41
0.1
 42
0.05
 43
0.5
 44
0.1
 45
0.0
 46
0.0
 47
0.1
 48
0.1
140
0.12
141
0.0
142
0.0
143
25.399999999999999
144
1.0
145
0.0
146
0.71
147
0.06
 71
     0
 72
     0
 73
     1
 74
     1
 75
     1
 76
     1
 77
     0
 78
     7
170
     0
171
     2
172
     0
173
     0
174
     0
175
     0
176
   256
177
   256
178
     2
  0
DIMSTYLE
  2
AM_ANSI$SH
 70
     0
  3

  4
mm
  5

  6
GENAXEH
  7

 40
1.0
 41
0.1
 42
0.05
 43
0.5
 44
0.1
 45
0.0
 46
0.0
 47
0.1
 48
0.1
140
0.12
141
0.0
142
0.0
143
25.399999999999999
144
1.0
145
0.0
146
0.71
147
0.06
 71
     0
 72
     0
 73
     1
 74
     1
 75
     1
 76
     1
 77
     0
 78
     7
170
     0
171
     2
172
     0
173
     1
174
     0
175
     0
176
   256
177
   256
178
     2
  0
ENDTAB
  0
ENDSEC
  0
SECTION
  2
BLOCKS
  0
BLOCK
  8
0
  2
$MODEL_SPACE
 70
     0
 10
0.0
 20
0.0
 30
0.0
  3
$MODEL_SPACE
  1

  0
ENDBLK
  5
19A8
  8
0
  0
BLOCK
 67
     1
  8
0
  2
$PAPER_SPACE
 70
     0
 10
0.0
 20
0.0
 30
0.0
  3
$PAPER_SPACE
  1

  0
ENDBLK
  5
19A4
 67
     1
  8
0
  0
BLOCK
  8
0
  2
_OPEN
 70
     0
 10
0.0
 20
0.0
 30
0.0
  3
_OPEN
  1

  0
LINE
  5
17D6
  8
0
  6
BYBLOCK
 62
     0
 10
-1.0
 20
0.1666666666666666
 30
0.0
 11
0.0
 21
0.0
 31
0.0
  0
LINE
  5
17D7
  8
0
  6
BYBLOCK
 62
     0
 10
-1.0
 20
-0.1666666666666666
 30
0.0
 11
0.0
 21
0.0
 31
0.0
  0
LINE
  5
17D8
  8
0
  6
BYBLOCK
 62
     0
 10
0.0
 20
0.0
 30
0.0
 11
-1.0
 21
0.0
 31
0.0
  0
ENDBLK
  5
17D9
  8
0
  0
BLOCK
  8
0
  2
GENAXEH
 70
     0
 10
0.0
 20
0.0
 30
0.0
  3
GENAXEH
  1

  0
LINE
  5
1801
  8
0
 10
-1.0
 20
0.0
 30
0.0
 11
1.0
 21
0.0
 31
0.0
  0
ENDBLK
  5
1802
  8
0
  0
BLOCK
  8
0
  2
A$C074263DB
 70
     0
 10
0.0
 20
0.0
 30
0.0
  3
A$C074263DB
  1

  0
LINE
  5
1E21
  8
247
 10
-92.671724609735946
 20
-2.1102342576137292
 30
0.0
 11
-91.782352601453297
 21
-1.220862249331067
 31
0.0
  0
LINE
  5
1E22
  8
247
 10
-92.708200395249378
 20
-2.4053414194139329
 30
0.0
 11
-92.437199264277311
 21
-2.1343402884418512
 31
0.0
  0
LINE
  5
1E23
  8
247
 10
-91.758246570625175
 20
-1.4553875947897219
 30
0.0
 11
-91.487245439653094
 21
-1.1843864638176409
 31
0.0
  0
LINE
  5
1E24
  8
247
 10
-92.685467035124887
 20
-2.6412394355762339
 30
0.0
 11
-92.475098658359059
 21
-2.4308710588104061
 31
0.0
  0
LINE
  5
1E25
  8
247
 10
-91.46141810116832
 20
-1.4171905016196471
 30
0.0
 11
-91.228613413668327
 21
-1.184385814119653
 31
0.0
  0
LINE
  5
1E26
  8
247
 10
-92.627901838344954
 20
-2.8423056150830881
 30
0.0
 11
-92.443064325396946
 21
-2.6574681021350952
 31
0.0
  0
LINE
  5
1E27
  8
247
 10
-91.202786724881534
 20
-1.417190501619648
 30
0.0
 11
-91.01937828006551
 21
-1.2337820568036511
 31
0.0
  0
LINE
  5
1E28
  8
247
 10
-92.544535405441735
 20
-3.0175705584666761
 30
0.0
 11
-92.372637037216634
 21
-2.8456721902415678
 31
0.0
  0
LINE
  5
1E29
  8
247
 10
-92.439517928579974
 20
-3.1711844578916719
 30
0.0
 11
-92.273671301929539
 21
-3.0053378312412669
 31
0.0
  0
LINE
  5
1E2A
  8
247
 10
-92.314679002967466
 20
-3.304976908565973
 30
0.0
 11
-92.149895732298333
 21
-3.1401936378968531
 31
0.0
  0
LINE
  5
1E2B
  8
247
 10
-92.170332424538529
 20
-3.4192617064238289
 30
0.0
 11
-92.001916914771556
 21
-3.2508461966568691
 31
0.0
  0
LINE
  5
1E2C
  8
247
 10
-92.005396774804396
 20
-3.5129574329764832
 30
0.0
 11
-91.827604674310322
 21
-3.3351653324824069
 31
0.0
  0
LINE
  5
1E2D
  8
247
 10
-91.816958794609917
 20
-3.5831508290688028
 30
0.0
 11
-91.620617954275019
 21
-3.386809988733912
 31
0.0
  0
LINE
  5
1E2E
  8
247
 10
-91.59877831798201
 20
-3.62360172872769
 30
0.0
 11
-91.371189631157165
 21
-3.396013041902858
 31
0.0
  0
LINE
  5
1E2F
  8
247
 10
-91.345362936378891
 20
-3.6288177234113501
 30
0.0
 11
-91.112558254870393
 21
-3.396013041902858
 31
0.0
  0
LINE
  5
1E30
  8
247
 10
-91.086731560092076
 20
-3.6288177234113501
 30
0.0
 11
-90.853926878583607
 21
-3.396013041902858
 31
0.0
  0
LINE
  5
1E31
  8
247
 10
-90.828100183805319
 20
-3.6288177234113501
 30
0.0
 11
-90.595295502296807
 21
-3.396013041902858
 31
0.0
  0
LINE
  5
1E32
  8
247
 10
-90.569468807518504
 20
-3.6288177234113572
 30
0.0
 11
-90.336664126010021
 21
-3.3960130419028651
 31
0.0
  0
LINE
  5
1E33
  8
247
 10
-90.310837431231718
 20
-3.6288177234113572
 30
0.0
 11
-90.078032749723235
 21
-3.396013041902858
 31
0.0
  0
LINE
  5
1E34
  8
247
 10
-90.052206054944932
 20
-3.6288177234113501
 30
0.0
 11
-89.819401373436435
 21
-3.396013041902858
 31
0.0
  0
LINE
  5
1E35
  8
247
 10
-89.793574678658132
 20
-3.6288177234113501
 30
0.0
 11
-89.560769997149634
 21
-3.396013041902858
 31
0.0
  0
LINE
  5
1E36
  8
247
 10
-89.534943302371346
 20
-3.6288177234113501
 30
0.0
 11
-89.302138620862848
 21
-3.396013041902858
 31
0.0
  0
LINE
  5
1E37
  8
247
 10
-89.276311926084574
 20
-3.6288177234113501
 30
0.0
 11
-89.043507244576048
 21
-3.396013041902858
 31
0.0
  0
LINE
  5
1E38
  8
247
 10
-87.023878687143096
 20
-1.3763844844698709
 30
0.0
 11
-86.834125000531259
 21
-1.1866307978580559
 31
0.0
  0
LINE
  5
1E39
  8
247
 10
-89.017680549797774
 20
-3.6288177234113572
 30
0.0
 11
-88.784875868289276
 21
-3.396013041902858
 31
0.0
  0
LINE
  5
1E3A
  8
247
 10
-86.807174794013619
 20
-1.4183119676272089
 30
0.0
 11
-86.585745844501275
 21
-1.196883018114864
 31
0.0
  0
LINE
  5
1E3B
  8
247
 10
-88.759049173510959
 20
-3.6288177234113501
 30
0.0
 11
-88.526244492002476
 21
-3.396013041902858
 31
0.0
  0
LINE
  5
1E3C
  8
247
 10
-86.566536560026336
 20
-1.436305109926725
 30
0.0
 11
-86.376401210147009
 21
-1.2461697600473911
 31
0.0
  0
LINE
  5
1E3D
  8
247
 10
-88.500417797224188
 20
-3.6288177234113501
 30
0.0
 11
-88.26761311571569
 21
-3.396013041902858
 31
0.0
  0
LINE
  5
1E3E
  8
247
 10
-86.369252642349593
 20
-1.497652568536769
 30
0.0
 11
-86.194645094784036
 21
-1.3230450209712039
 31
0.0
  0
LINE
  5
1E3F
  8
247
 10
-88.241786420937387
 20
-3.6288177234113572
 30
0.0
 11
-88.008981739428876
 21
-3.39601304190285
 31
0.0
  0
LINE
  5
1E40
  8
247
 10
-86.202341774186408
 20
-1.5893730766603631
 30
0.0
 11
-86.035382667631055
 21
-1.4224139701050109
 31
0.0
  0
LINE
  5
1E41
  8
247
 10
-87.983155044650601
 20
-3.6288177234113572
 30
0.0
 11
-87.750350363142104
 21
-3.396013041902866
 31
0.0
  0
LINE
  5
1E42
  8
247
 10
-86.060890263878775
 20
-1.7065529426395241
 30
0.0
 11
-85.896272465543404
 21
-1.541935144304166
 31
0.0
  0
LINE
  5
1E43
  8
247
 10
-87.724523668363815
 20
-3.6288177234113581
 30
0.0
 11
-87.491718986855304
 21
-3.396013041902858
 31
0.0
  0
LINE
  5
1E44
  8
247
 10
-85.943548838058092
 20
-1.8478428931056481
 30
0.0
 11
-85.77662129510864
 21
-1.6809153501561971
 31
0.0
  0
LINE
  5
1E45
  8
247
 10
-87.465892292077015
 20
-3.628817723411351
 30
0.0
 11
-87.233087610568518
 21
-3.396013041902858
 31
0.0
  0
LINE
  5
1E46
  8
247
 10
-85.851648127742138
 20
-2.014573559076493
 30
0.0
 11
-85.677112930000703
 21
-1.8400383613350519
 31
0.0
  0
LINE
  5
1E47
  8
247
 10
-87.207260915790215
 20
-3.628817723411351
 30
0.0
 11
-86.974456234281732
 21
-3.396013041902858
 31
0.0
  0
LINE
  5
1E48
  8
247
 10
-85.790070042394845
 20
-2.211626850015965
 30
0.0
 11
-85.600075564066131
 21
-2.0216323716872591
 31
0.0
  0
LINE
  5
1E49
  8
247
 10
-86.948629539503443
 20
-3.6288177234113581
 30
0.0
 11
-86.714787352568791
 21
-3.3949755364767049
 31
0.0
  0
LINE
  5
1E4A
  8
247
 10
-85.771706049152854
 20
-2.451894233060774
 30
0.0
 11
-85.550578564551984
 21
-2.230766748459875
 31
0.0
  0
LINE
  5
1E4B
  8
247
 10
-86.687862458982806
 20
-3.6266820191775189
 30
0.0
 11
-86.382182283297524
 21
-3.321001843492251
 31
0.0
  0
LINE
  5
1E4C
  8
247
 10
-85.845679742137307
 20
-2.7844993023320361
 30
0.0
 11
-85.539999566452039
 21
-2.4788191266467732
 31
0.0
  0
LINE
  5
1E4D
  8
247
 10
-86.366139070318553
 20
-3.5635900068000681
 30
0.0
 11
-85.603091578829492
 21
-2.800542515311006
 31
0.0
  0
LINE
  5
1E4E
  8
247
 10
-89.183619018714097
 20
-1.2084424294597771
 30
0.0
 11
-89.159562403373968
 21
-1.1843858141196539
 31
0.0
  0
LINE
  5
1E4F
  8
247
 10
-89.168749075241564
 20
-1.4522038622740301
 30
0.0
 11
-88.900931027087196
 21
-1.1843858141196619
 31
0.0
  0
LINE
  5
1E50
  8
247
 10
-89.272725968006512
 20
-1.8148121313257619
 30
0.0
 11
-88.642299650800396
 21
-1.1843858141196539
 31
0.0
  0
LINE
  5
1E51
  8
247
 10
-89.376702860771445
 20
-2.1774204003774891
 30
0.0
 11
-88.646675472828235
 21
-1.447393012434272
 31
0.0
  0
LINE
  5
1E52
  8
247
 10
-89.480679753536364
 20
-2.5400286694292231
 30
0.0
 11
-88.750650946645678
 21
-1.809999862538523
 31
0.0
  0
LINE
  5
1E53
  8
247
 10
-89.584656646301298
 20
-2.9026369384809421
 30
0.0
 11
-88.854626420463134
 21
-2.1726067126427662
 31
0.0
  0
LINE
  5
1E54
  8
247
 10
-89.688633539066245
 20
-3.2652452075326628
 30
0.0
 11
-88.958601894280577
 21
-2.5352135627470078
 31
0.0
  0
LINE
  5
1E55
  8
247
 10
-89.44436765339961
 20
-3.279610698152827
 30
0.0
 11
-89.062577368098033
 21
-2.8978204128512561
 31
0.0
  0
LINE
  5
1E56
  8
247
 10
-89.185736277112824
 20
-3.279610698152827
 30
0.0
 11
-89.166552841915475
 21
-3.260427262955492
 31
0.0
  0
LINE
  5
1E57
  8
247
 10
-88.595636781129912
 20
-1.913617073309549
 30
0.0
 11
-87.870117048330044
 21
-1.188097340509676
 31
0.0
  0
LINE
  5
1E58
  8
247
 10
-88.681500541541183
 20
-2.2581122100076079
 30
0.0
 11
-87.626771021078127
 21
-1.2033826895445441
 31
0.0
  0
LINE
  5
1E59
  8
247
 10
-88.718147268337574
 20
-2.553390313090786
 30
0.0
 11
-87.959048485400245
 21
-1.794291530153441
 31
0.0
  0
LINE
  5
1E5A
  8
247
 10
-87.612842676851272
 20
-1.448085721604482
 30
0.0
 11
-87.438520113368583
 21
-1.2737631581217921
 31
0.0
  0
LINE
  5
1E5B
  8
247
 10
-88.67700287794122
 20
-2.77087729898123
 30
0.0
 11
-88.063025318225115
 21
-2.156899739265119
 31
0.0
  0
LINE
  5
1E5C
  8
247
 10
-87.464340047898816
 20
-1.55821446893884
 30
0.0
 11
-87.178674911836126
 21
-1.2725493328761359
 31
0.0
  0
LINE
  5
1E5D
  8
247
 10
-88.591087196577945
 20
-2.943592993904748
 30
0.0
 11
-88.167002151050013
 21
-2.5195079483768028
 31
0.0
  0
LINE
  5
1E5E
  8
247
 10
-87.140910069898993
 20
-1.493415867225782
 30
0.0
 11
-87.116671471052356
 21
-1.469177268379146
 31
0.0
  0
LINE
  5
1E5F
  8
247
 10
-88.471421502881483
 20
-3.0825586764950801
 30
0.0
 11
-88.22486401065747
 21
-2.8360011842710602
 31
0.0
  0
LINE
  5
1E60
  8
247
 10
-87.713981062381052
 20
-2.3251182359946481
 30
0.0
 11
-87.481176374881045
 21
-2.0923135484946478
 31
0.0
  0
LINE
  5
1E61
  8
247
 10
-88.319916837498496
 20
-3.1896853873988782
 30
0.0
 11
-88.116637471196356
 21
-2.9864060210967232
 31
0.0
  0
LINE
  5
1E62
  8
247
 10
-87.661896601496593
 20
-2.5316651513969748
 30
0.0
 11
-87.222544998594273
 21
-2.0923135484946558
 31
0.0
  0
LINE
  5
1E63
  8
247
 10
-88.131924073226855
 20
-3.2603239994140232
 30
0.0
 11
-87.858607559053752
 21
-2.9870074852409272
 31
0.0
  0
LINE
  5
1E64
  8
247
 10
-87.779213162888638
 20
-2.9076130890758001
 30
0.0
 11
-87.086772046677694
 21
-2.2151719728648551
 31
0.0
  0
LINE
  5
1E65
  8
247
 10
-87.889049007405717
 20
-3.276080309879672
 30
0.0
 11
-87.1907485260718
 21
-2.5777798285457552
 31
0.0
  0
LINE
  5
1E66
  8
247
 10
-87.512975886141092
 20
-3.158638564901846
 30
0.0
 11
-87.294725005465907
 21
-2.940387684226661
 31
0.0
  0
LINE
  5
1E67
  8
247
 10
-88.571259638697384
 20
-1.184385814119657
 30
0.0
 11
-89.176720576197397
 21
-1.184385814119657
 31
0.0
1001
HATCH_DISTANCE
1040
1.0
1001
HATCH_DISPLAY
1070
     0
1001
HATCH_TYPE
1070
     7
  0
LINE
  5
1E68
  8
247
 10
-89.172053584009888
 20
-3.2796106981528279
 30
0.0
 11
-88.571259638697384
 21
-1.184385814119657
 31
0.0
1001
HATCH_DISTANCE
1040
1.0
1001
HATCH_DISPLAY
1070
     0
1001
HATCH_TYPE
1070
     7
  0
LINE
  5
1E69
  8
247
 10
-89.692752802759927
 20
-3.2796106981528279
 30
0.0
 11
-89.172053584009888
 21
-3.2796106981528279
 31
0.0
1001
HATCH_DISTANCE
1040
1.0
1001
HATCH_DISPLAY
1070
     0
1001
HATCH_TYPE
1070
     7
  0
LINE
  5
1E6A
  8
247
 10
-89.165382685572368
 20
-1.4404639391196441
 30
0.0
 11
-89.692752802759927
 21
-3.2796106981528279
 31
0.0
1001
HATCH_DISTANCE
1040
1.0
1001
HATCH_DISPLAY
1070
     0
1001
HATCH_TYPE
1070
     7
  0
LINE
  5
1E6B
  8
247
 10
-89.250153193384904
 20
-1.4404639391196441
 30
0.0
 11
-89.165382685572368
 21
-1.4404639391196441
 31
0.0
1001
HATCH_DISTANCE
1040
1.0
1001
HATCH_DISPLAY
1070
     0
1001
HATCH_TYPE
1070
     7
  0
LINE
  5
1E6C
  8
247
 10
-89.176720576197397
 20
-1.184385814119657
 30
0.0
 11
-89.250153193384904
 21
-1.4404639391196441
 31
0.0
1001
HATCH_DISTANCE
1040
1.0
1001
HATCH_DISPLAY
1070
     0
1001
HATCH_TYPE
1070
     7
  0
LINE
  5
1E6D
  8
247
 10
-88.571259638697384
 20
-1.184385814119657
 30
0.0
 11
-89.176720576197397
 21
-1.184385814119657
 31
0.0
  0
LINE
  5
1E6E
  8
247
 10
-89.172053584009888
 20
-3.2796106981528279
 30
0.0
 11
-88.571259638697384
 21
-1.184385814119657
 31
0.0
  0
LINE
  5
1E6F
  8
247
 10
-89.692752802759927
 20
-3.2796106981528279
 30
0.0
 11
-89.172053584009888
 21
-3.2796106981528279
 31
0.0
  0
LINE
  5
1E70
  8
247
 10
-89.165382685572368
 20
-1.4404639391196441
 30
0.0
 11
-89.692752802759927
 21
-3.2796106981528279
 31
0.0
  0
LINE
  5
1E71
  8
247
 10
-89.250153193384904
 20
-1.4404639391196441
 30
0.0
 11
-89.165382685572368
 21
-1.4404639391196441
 31
0.0
  0
LINE
  5
1E72
  8
247
 10
-89.176720576197397
 20
-1.184385814119657
 30
0.0
 11
-89.250153193384904
 21
-1.4404639391196441
 31
0.0
  0
LINE
  5
1E73
  8
247
 10
-87.001577021509902
 20
-1.4471084703696491
 30
0.0
 11
-87.001577021509902
 21
-1.4471084703696491
 31
0.0
1001
HATCH_DISTANCE
1040
1.0
1001
HATCH_DISPLAY
1070
     0
1001
HATCH_TYPE
1070
     7
  0
LINE
  5
1E74
  8
247
 10
-87.071687373072393
 20
-1.2247715563071671
 30
0.0
 11
-87.001577021509902
 21
-1.4471084703696491
 31
0.0
1001
HATCH_DISTANCE
1040
1.0
1001
HATCH_DISPLAY
1070
     0
1001
HATCH_TYPE
1070
     7
  0
LINE
  5
1E75
  8
247
 10
-87.071687373072393
 20
-1.2247715563071671
 30
0.0
 11
-87.071687373072393
 21
-1.2247715563071671
 31
0.0
1001
HATCH_DISTANCE
1040
1.0
1001
HATCH_DISPLAY
1070
     0
1001
HATCH_TYPE
1070
     7
  0
LINE
  5
1E76
  8
247
 10
-87.001577021509902
 20
-1.4471084703696491
 30
0.0
 11
-87.071687373072393
 21
-1.2247715563071671
 31
0.0
1001
HATCH_DISTANCE
1040
1.0
1001
HATCH_DISPLAY
1070
     0
1001
HATCH_TYPE
1070
     7
  0
LINE
  5
1E77
  8
247
 10
-87.001577021509902
 20
-1.4471084703696491
 30
0.0
 11
-87.001577021509902
 21
-1.4471084703696491
 31
0.0
  0
LINE
  5
1E78
  8
247
 10
-87.071687373072393
 20
-1.2247715563071671
 30
0.0
 11
-87.001577021509902
 21
-1.4471084703696491
 31
0.0
  0
LINE
  5
1E79
  8
247
 10
-87.071687373072393
 20
-1.2247715563071671
 30
0.0
 11
-87.071687373072393
 21
-1.2247715563071671
 31
0.0
  0
LINE
  5
1E7A
  8
247
 10
-87.001577021509902
 20
-1.4471084703696491
 30
0.0
 11
-87.071687373072393
 21
-1.2247715563071671
 31
0.0
  0
LINE
  5
1E7B
  8
247
 10
-87.001577021509902
 20
-1.4471084703696491
 30
0.0
 11
-87.001577021509902
 21
-1.4471084703696491
 31
0.0
1001
HATCH_DISTANCE
1040
1.0
1001
HATCH_DISPLAY
1070
     0
1001
HATCH_TYPE
1070
     7
  0
LINE
  5
1E7C
  8
247
 10
-87.071687373072393
 20
-1.2247715563071671
 30
0.0
 11
-87.001577021509902
 21
-1.4471084703696491
 31
0.0
1001
HATCH_DISTANCE
1040
1.0
1001
HATCH_DISPLAY
1070
     0
1001
HATCH_TYPE
1070
     7
  0
LINE
  5
1E7D
  8
247
 10
-87.071687373072393
 20
-1.2247715563071671
 30
0.0
 11
-87.071687373072393
 21
-1.2247715563071671
 31
0.0
1001
HATCH_DISTANCE
1040
1.0
1001
HATCH_DISPLAY
1070
     0
1001
HATCH_TYPE
1070
     7
  0
LINE
  5
1E7E
  8
247
 10
-87.001577021509902
 20
-1.4471084703696491
 30
0.0
 11
-87.071687373072393
 21
-1.2247715563071671
 31
0.0
1001
HATCH_DISTANCE
1040
1.0
1001
HATCH_DISPLAY
1070
     0
1001
HATCH_TYPE
1070
     7
  0
LINE
  5
1E7F
  8
247
 10
-87.001577021509902
 20
-1.4471084703696491
 30
0.0
 11
-87.001577021509902
 21
-1.4471084703696491
 31
0.0
  0
LINE
  5
1E80
  8
247
 10
-87.071687373072393
 20
-1.2247715563071671
 30
0.0
 11
-87.001577021509902
 21
-1.4471084703696491
 31
0.0
  0
LINE
  5
1E81
  8
247
 10
-87.071687373072393
 20
-1.2247715563071671
 30
0.0
 11
-87.071687373072393
 21
-1.2247715563071671
 31
0.0
  0
LINE
  5
1E82
  8
247
 10
-87.001577021509902
 20
-1.4471084703696491
 30
0.0
 11
-87.071687373072393
 21
-1.2247715563071671
 31
0.0
  0
LINE
  5
1E83
  8
241
 10
-4.4391299999999996
 20
-3.6720000000000002
 30
0.0
 11
-4.3980100000000002
 21
-3.6756699999999989
 31
0.0
  0
LINE
  5
1E84
  8
241
 10
-4.480249999999999
 20
-3.6683199999999991
 30
0.0
 11
-4.4391299999999996
 21
-3.6720000000000002
 31
0.0
  0
LINE
  5
1E85
  8
241
 10
-4.5213799999999997
 20
-3.6646299999999998
 30
0.0
 11
-4.480249999999999
 21
-3.6683199999999991
 31
0.0
  0
LINE
  5
1E86
  8
241
 10
-4.5625200000000001
 20
-3.6609199999999991
 30
0.0
 11
-4.5213799999999997
 21
-3.6646299999999998
 31
0.0
  0
LINE
  5
1E87
  8
241
 10
-4.6036799999999998
 20
-3.6571899999999991
 30
0.0
 11
-4.5625200000000001
 21
-3.6609199999999991
 31
0.0
  0
LINE
  5
1E88
  8
241
 10
-4.6448599999999987
 20
-3.6534199999999988
 30
0.0
 11
-4.6036799999999998
 21
-3.6571899999999991
 31
0.0
  0
LINE
  5
1E89
  8
241
 10
-4.6860599999999986
 20
-3.6496199999999992
 30
0.0
 11
-4.6448599999999987
 21
-3.6534199999999988
 31
0.0
  0
LINE
  5
1E8A
  8
241
 10
-4.7272899999999991
 20
-3.6457699999999988
 30
0.0
 11
-4.6860599999999986
 21
-3.6496199999999992
 31
0.0
  0
LINE
  5
1E8B
  8
241
 10
-4.768559999999999
 20
-3.64188
 30
0.0
 11
-4.7272899999999991
 21
-3.6457699999999988
 31
0.0
  0
LINE
  5
1E8C
  8
241
 10
-4.8098499999999991
 20
-3.6379199999999989
 30
0.0
 11
-4.768559999999999
 21
-3.64188
 31
0.0
  0
LINE
  5
1E8D
  8
241
 10
-4.851189999999999
 20
-3.6339000000000001
 30
0.0
 11
-4.8098499999999991
 21
-3.6379199999999989
 31
0.0
  0
LINE
  5
1E8E
  8
241
 10
-4.8925700000000001
 20
-3.6298199999999992
 30
0.0
 11
-4.851189999999999
 21
-3.6339000000000001
 31
0.0
  0
LINE
  5
1E8F
  8
241
 10
-4.9340000000000002
 20
-3.625659999999999
 30
0.0
 11
-4.8925700000000001
 21
-3.6298199999999992
 31
0.0
  0
LINE
  5
1E90
  8
241
 10
-4.9754800000000001
 20
-3.62141
 30
0.0
 11
-4.9340000000000002
 21
-3.625659999999999
 31
0.0
  0
LINE
  5
1E91
  8
241
 10
-5.0170199999999987
 20
-3.6170800000000001
 30
0.0
 11
-4.9754800000000001
 21
-3.62141
 31
0.0
  0
LINE
  5
1E92
  8
241
 10
-5.0586199999999986
 20
-3.612649999999999
 30
0.0
 11
-5.0170199999999987
 21
-3.6170800000000001
 31
0.0
  0
LINE
  5
1E93
  8
241
 10
-5.1002799999999997
 20
-3.6081199999999991
 30
0.0
 11
-5.0586199999999986
 21
-3.612649999999999
 31
0.0
  0
LINE
  5
1E94
  8
241
 10
-5.1420099999999991
 20
-3.6034899999999999
 30
0.0
 11
-5.1002799999999997
 21
-3.6081199999999991
 31
0.0
  0
LINE
  5
1E95
  8
241
 10
-5.1837999999999989
 20
-3.5987399999999998
 30
0.0
 11
-5.1420099999999991
 21
-3.6034899999999999
 31
0.0
  0
LINE
  5
1E96
  8
241
 10
-5.2256799999999997
 20
-3.593869999999999
 30
0.0
 11
-5.1837999999999989
 21
-3.5987399999999998
 31
0.0
  0
LINE
  5
1E97
  8
241
 10
-5.2676299999999996
 20
-3.5888800000000001
 30
0.0
 11
-5.2256799999999997
 21
-3.593869999999999
 31
0.0
  0
LINE
  5
1E98
  8
241
 10
-5.3096699999999988
 20
-3.5837500000000002
 30
0.0
 11
-5.2676299999999996
 21
-3.5888800000000001
 31
0.0
  0
LINE
  5
1E99
  8
241
 10
-5.351799999999999
 20
-3.5784899999999991
 30
0.0
 11
-5.3096699999999988
 21
-3.5837500000000002
 31
0.0
  0
LINE
  5
1E9A
  8
241
 10
-5.3940099999999989
 20
-3.57308
 30
0.0
 11
-5.351799999999999
 21
-3.5784899999999991
 31
0.0
  0
LINE
  5
1E9B
  8
241
 10
-5.4363099999999989
 20
-3.5675199999999991
 30
0.0
 11
-5.3940099999999989
 21
-3.57308
 31
0.0
  0
LINE
  5
1E9C
  8
241
 10
-5.4786799999999998
 20
-3.561799999999999
 30
0.0
 11
-5.4363099999999989
 21
-3.5675199999999991
 31
0.0
  0
LINE
  5
1E9D
  8
241
 10
-5.5211199999999989
 20
-3.5559199999999991
 30
0.0
 11
-5.4786799999999998
 21
-3.561799999999999
 31
0.0
  0
LINE
  5
1E9E
  8
241
 10
-5.5636199999999993
 20
-3.549869999999999
 30
0.0
 11
-5.5211199999999989
 21
-3.5559199999999991
 31
0.0
  0
LINE
  5
1E9F
  8
241
 10
-5.6061699999999988
 20
-3.5436499999999991
 30
0.0
 11
-5.5636199999999993
 21
-3.549869999999999
 31
0.0
  0
LINE
  5
1EA0
  8
241
 10
-5.6487600000000002
 20
-3.5372499999999989
 30
0.0
 11
-5.6061699999999988
 21
-3.5436499999999991
 31
0.0
  0
LINE
  5
1EA1
  8
241
 10
-5.6913799999999997
 20
-3.5306599999999988
 30
0.0
 11
-5.6487600000000002
 21
-3.5372499999999989
 31
0.0
  0
LINE
  5
1EA2
  8
241
 10
-5.7340299999999997
 20
-3.5238800000000001
 30
0.0
 11
-5.6913799999999997
 21
-3.5306599999999988
 31
0.0
  0
LINE
  5
1EA3
  8
241
 10
-5.7766900000000003
 20
-3.5169000000000001
 30
0.0
 11
-5.7340299999999997
 21
-3.5238800000000001
 31
0.0
  0
LINE
  5
1EA4
  8
241
 10
-5.8193699999999993
 20
-3.5097199999999988
 30
0.0
 11
-5.7766900000000003
 21
-3.5169000000000001
 31
0.0
  0
LINE
  5
1EA5
  8
241
 10
-5.8620400000000004
 20
-3.5023300000000002
 30
0.0
 11
-5.8193699999999993
 21
-3.5097199999999988
 31
0.0
  0
LINE
  5
1EA6
  8
241
 10
-5.9047099999999988
 20
-3.4947199999999992
 30
0.0
 11
-5.8620400000000004
 21
-3.5023300000000002
 31
0.0
  0
LINE
  5
1EA7
  8
241
 10
-5.9473699999999994
 20
-3.486899999999999
 30
0.0
 11
-5.9047099999999988
 21
-3.4947199999999992
 31
0.0
  0
LINE
  5
1EA8
  8
241
 10
-5.9900000000000002
 20
-3.478839999999999
 30
0.0
 11
-5.9473699999999994
 21
-3.486899999999999
 31
0.0
  0
LINE
  5
1EA9
  8
241
 10
-6.0326000000000004
 20
-3.470559999999999
 30
0.0
 11
-5.9900000000000002
 21
-3.478839999999999
 31
0.0
  0
LINE
  5
1EAA
  8
241
 10
-6.0751599999999986
 20
-3.4620299999999999
 30
0.0
 11
-6.0326000000000004
 21
-3.470559999999999
 31
0.0
  0
LINE
  5
1EAB
  8
241
 10
-6.1176699999999986
 20
-3.4532599999999989
 30
0.0
 11
-6.0751599999999986
 21
-3.4620299999999999
 31
0.0
  0
LINE
  5
1EAC
  8
241
 10
-6.16012
 20
-3.4442400000000002
 30
0.0
 11
-6.1176699999999986
 21
-3.4532599999999989
 31
0.0
  0
LINE
  5
1EAD
  8
241
 10
-6.2025199999999989
 20
-3.4349599999999989
 30
0.0
 11
-6.16012
 21
-3.4442400000000002
 31
0.0
  0
LINE
  5
1EAE
  8
241
 10
-6.2448399999999991
 20
-3.425419999999999
 30
0.0
 11
-6.2025199999999989
 21
-3.4349599999999989
 31
0.0
  0
LINE
  5
1EAF
  8
241
 10
-6.287069999999999
 20
-3.4156199999999992
 30
0.0
 11
-6.2448399999999991
 21
-3.425419999999999
 31
0.0
  0
LINE
  5
1EB0
  8
241
 10
-6.329229999999999
 20
-3.4055399999999998
 30
0.0
 11
-6.287069999999999
 21
-3.4156199999999992
 31
0.0
  0
LINE
  5
1EB1
  8
241
 10
-6.3712799999999996
 20
-3.3951799999999999
 30
0.0
 11
-6.329229999999999
 21
-3.4055399999999998
 31
0.0
  0
LINE
  5
1EB2
  8
241
 10
-6.4132300000000004
 20
-3.3845299999999998
 30
0.0
 11
-6.3712799999999996
 21
-3.3951799999999999
 31
0.0
  0
LINE
  5
1EB3
  8
241
 10
-6.4550700000000001
 20
-3.3735900000000001
 30
0.0
 11
-6.4132300000000004
 21
-3.3845299999999998
 31
0.0
  0
LINE
  5
1EB4
  8
241
 10
-6.4967800000000002
 20
-3.3623599999999989
 30
0.0
 11
-6.4550700000000001
 21
-3.3735900000000001
 31
0.0
  0
LINE
  5
1EB5
  8
241
 10
-6.5383699999999987
 20
-3.3508199999999988
 30
0.0
 11
-6.4967800000000002
 21
-3.3623599999999989
 31
0.0
  0
LINE
  5
1EB6
  8
241
 10
-6.5798199999999989
 20
-3.3389699999999989
 30
0.0
 11
-6.5383699999999987
 21
-3.3508199999999988
 31
0.0
  0
LINE
  5
1EB7
  8
241
 10
-6.6211199999999986
 20
-3.32681
 30
0.0
 11
-6.5798199999999989
 21
-3.3389699999999989
 31
0.0
  0
LINE
  5
1EB8
  8
241
 10
-6.6622699999999986
 20
-3.31433
 30
0.0
 11
-6.6211199999999986
 21
-3.32681
 31
0.0
  0
LINE
  5
1EB9
  8
241
 10
-6.7032600000000002
 20
-3.3015199999999991
 30
0.0
 11
-6.6622699999999986
 21
-3.31433
 31
0.0
  0
LINE
  5
1EBA
  8
241
 10
-6.7440699999999989
 20
-3.2883699999999991
 30
0.0
 11
-6.7032600000000002
 21
-3.3015199999999991
 31
0.0
  0
LINE
  5
1EBB
  8
241
 10
-6.7847099999999996
 20
-3.2748900000000001
 30
0.0
 11
-6.7440699999999989
 21
-3.2883699999999991
 31
0.0
  0
LINE
  5
1EBC
  8
241
 10
-6.8251699999999991
 20
-3.2610700000000001
 30
0.0
 11
-6.7847099999999996
 21
-3.2748900000000001
 31
0.0
  0
LINE
  5
1EBD
  8
241
 10
-6.865429999999999
 20
-3.2468900000000001
 30
0.0
 11
-6.8251699999999991
 21
-3.2610700000000001
 31
0.0
  0
LINE
  5
1EBE
  8
241
 10
-6.9054799999999998
 20
-3.232359999999999
 30
0.0
 11
-6.865429999999999
 21
-3.2468900000000001
 31
0.0
  0
LINE
  5
1EBF
  8
241
 10
-6.9453300000000002
 20
-3.2174700000000001
 30
0.0
 11
-6.9054799999999998
 21
-3.232359999999999
 31
0.0
  0
LINE
  5
1EC0
  8
241
 10
-6.9849500000000004
 20
-3.20221
 30
0.0
 11
-6.9453300000000002
 21
-3.2174700000000001
 31
0.0
  0
LINE
  5
1EC1
  8
241
 10
-7.0243500000000001
 20
-3.1865799999999989
 30
0.0
 11
-6.9849500000000004
 21
-3.20221
 31
0.0
  0
LINE
  5
1EC2
  8
241
 10
-7.0635199999999987
 20
-3.17056
 30
0.0
 11
-7.0243500000000001
 21
-3.1865799999999989
 31
0.0
  0
LINE
  5
1EC3
  8
241
 10
-7.1024399999999988
 20
-3.1541700000000001
 30
0.0
 11
-7.0635199999999987
 21
-3.17056
 31
0.0
  0
LINE
  5
1EC4
  8
241
 10
-7.1411100000000003
 20
-3.1373799999999989
 30
0.0
 11
-7.1024399999999988
 21
-3.1541700000000001
 31
0.0
  0
LINE
  5
1EC5
  8
241
 10
-7.1795200000000001
 20
-3.12019
 30
0.0
 11
-7.1411100000000003
 21
-3.1373799999999989
 31
0.0
  0
LINE
  5
1EC6
  8
241
 10
-7.2176600000000004
 20
-3.1025999999999989
 30
0.0
 11
-7.1795200000000001
 21
-3.12019
 31
0.0
  0
LINE
  5
1EC7
  8
241
 10
-7.2555199999999989
 20
-3.0846
 30
0.0
 11
-7.2176600000000004
 21
-3.1025999999999989
 31
0.0
  0
LINE
  5
1EC8
  8
241
 10
-7.2931100000000004
 20
-3.0661900000000002
 30
0.0
 11
-7.2555199999999989
 21
-3.0846
 31
0.0
  0
LINE
  5
1EC9
  8
241
 10
-7.3304
 20
-3.047359999999999
 30
0.0
 11
-7.2931100000000004
 21
-3.0661900000000002
 31
0.0
  0
LINE
  5
1ECA
  8
241
 10
-7.3673899999999994
 20
-3.0280999999999989
 30
0.0
 11
-7.3304
 21
-3.047359999999999
 31
0.0
  0
LINE
  5
1ECB
  8
241
 10
-7.404069999999999
 20
-3.00841
 30
0.0
 11
-7.3673899999999994
 21
-3.0280999999999989
 31
0.0
  0
LINE
  5
1ECC
  8
241
 10
-7.4404300000000001
 20
-2.9882799999999992
 30
0.0
 11
-7.404069999999999
 21
-3.00841
 31
0.0
  0
LINE
  5
1ECD
  8
241
 10
-7.4764699999999991
 20
-2.9676999999999989
 30
0.0
 11
-7.4404300000000001
 21
-2.9882799999999992
 31
0.0
  0
LINE
  5
1ECE
  8
241
 10
-7.5121699999999993
 20
-2.9466799999999989
 30
0.0
 11
-7.4764699999999991
 21
-2.9676999999999989
 31
0.0
  0
LINE
  5
1ECF
  8
241
 10
-7.5475399999999988
 20
-2.9251999999999989
 30
0.0
 11
-7.5121699999999993
 21
-2.9466799999999989
 31
0.0
  0
LINE
  5
1ED0
  8
241
 10
-7.58256
 20
-2.9032599999999991
 30
0.0
 11
-7.5475399999999988
 21
-2.9251999999999989
 31
0.0
  0
LINE
  5
1ED1
  8
241
 10
-7.61721
 20
-2.8808500000000001
 30
0.0
 11
-7.58256
 21
-2.9032599999999991
 31
0.0
  0
LINE
  5
1ED2
  8
241
 10
-7.65151
 20
-2.857969999999999
 30
0.0
 11
-7.61721
 21
-2.8808500000000001
 31
0.0
  0
LINE
  5
1ED3
  8
241
 10
-7.6854199999999988
 20
-2.8346099999999992
 30
0.0
 11
-7.65151
 21
-2.857969999999999
 31
0.0
  0
LINE
  5
1ED4
  8
241
 10
-7.71896
 20
-2.8107700000000002
 30
0.0
 11
-7.6854199999999988
 21
-2.8346099999999992
 31
0.0
  0
LINE
  5
1ED5
  8
241
 10
-7.7521100000000001
 20
-2.7864299999999989
 30
0.0
 11
-7.71896
 21
-2.8107700000000002
 31
0.0
  0
LINE
  5
1ED6
  8
241
 10
-7.784860000000001
 20
-2.7616000000000001
 30
0.0
 11
-7.7521100000000001
 21
-2.7864299999999989
 31
0.0
  0
LINE
  5
1ED7
  8
241
 10
-7.8171999999999988
 20
-2.7362700000000002
 30
0.0
 11
-7.784860000000001
 21
-2.7616000000000001
 31
0.0
  0
LINE
  5
1ED8
  8
241
 10
-7.8491299999999997
 20
-2.7104200000000001
 30
0.0
 11
-7.8171999999999988
 21
-2.7362700000000002
 31
0.0
  0
LINE
  5
1ED9
  8
241
 10
-7.88063
 20
-2.6840700000000002
 30
0.0
 11
-7.8491299999999997
 21
-2.7104200000000001
 31
0.0
  0
LINE
  5
1EDA
  8
241
 10
-7.9117100000000002
 20
-2.6571899999999991
 30
0.0
 11
-7.88063
 21
-2.6840700000000002
 31
0.0
  0
LINE
  5
1EDB
  8
241
 10
-7.9423399999999988
 20
-2.6297899999999998
 30
0.0
 11
-7.9117100000000002
 21
-2.6571899999999991
 31
0.0
  0
LINE
  5
1EDC
  8
241
 10
-7.972529999999999
 20
-2.6018500000000002
 30
0.0
 11
-7.9423399999999988
 21
-2.6297899999999998
 31
0.0
  0
LINE
  5
1EDD
  8
241
 10
-8.0022599999999997
 20
-2.5733799999999989
 30
0.0
 11
-7.972529999999999
 21
-2.6018500000000002
 31
0.0
  0
LINE
  5
1EDE
  8
241
 10
-8.0315300000000001
 20
-2.5443699999999998
 30
0.0
 11
-8.0022599999999997
 21
-2.5733799999999989
 31
0.0
  0
LINE
  5
1EDF
  8
241
 10
-8.0603400000000001
 20
-2.5148099999999989
 30
0.0
 11
-8.0315300000000001
 21
-2.5443699999999998
 31
0.0
  0
LINE
  5
1EE0
  8
241
 10
-8.0886800000000001
 20
-2.4847399999999991
 30
0.0
 11
-8.0603400000000001
 21
-2.5148099999999989
 31
0.0
  0
LINE
  5
1EE1
  8
241
 10
-8.1165599999999998
 20
-2.4541400000000002
 30
0.0
 11
-8.0886800000000001
 21
-2.4847399999999991
 31
0.0
  0
LINE
  5
1EE2
  8
241
 10
-8.1439699999999995
 20
-2.4230299999999989
 30
0.0
 11
-8.1165599999999998
 21
-2.4541400000000002
 31
0.0
  0
LINE
  5
1EE3
  8
241
 10
-8.1709199999999989
 20
-2.3914200000000001
 30
0.0
 11
-8.1439699999999995
 21
-2.4230299999999989
 31
0.0
  0
LINE
  5
1EE4
  8
241
 10
-8.1974
 20
-2.359319999999999
 30
0.0
 11
-8.1709199999999989
 21
-2.3914200000000001
 31
0.0
  0
LINE
  5
1EE5
  8
241
 10
-8.2234199999999991
 20
-2.3267299999999991
 30
0.0
 11
-8.1974
 21
-2.359319999999999
 31
0.0
  0
LINE
  5
1EE6
  8
241
 10
-8.2489799999999995
 20
-2.29366
 30
0.0
 11
-8.2234199999999991
 21
-2.3267299999999991
 31
0.0
  0
LINE
  5
1EE7
  8
241
 10
-8.27407
 20
-2.2601299999999989
 30
0.0
 11
-8.2489799999999995
 21
-2.29366
 31
0.0
  0
LINE
  5
1EE8
  8
241
 10
-8.2986899999999988
 20
-2.22614
 30
0.0
 11
-8.27407
 21
-2.2601299999999989
 31
0.0
  0
LINE
  5
1EE9
  8
241
 10
-8.3228500000000007
 20
-2.1916899999999999
 30
0.0
 11
-8.2986899999999988
 21
-2.22614
 31
0.0
  0
LINE
  5
1EEA
  8
241
 10
-8.3465399999999992
 20
-2.1568000000000001
 30
0.0
 11
-8.3228500000000007
 21
-2.1916899999999999
 31
0.0
  0
LINE
  5
1EEB
  8
241
 10
-8.369769999999999
 20
-2.12148
 30
0.0
 11
-8.3465399999999992
 21
-2.1568000000000001
 31
0.0
  0
LINE
  5
1EEC
  8
241
 10
-8.3925300000000007
 20
-2.085729999999999
 30
0.0
 11
-8.369769999999999
 21
-2.12148
 31
0.0
  0
LINE
  5
1EED
  8
241
 10
-8.4148199999999989
 20
-2.04956
 30
0.0
 11
-8.3925300000000007
 21
-2.085729999999999
 31
0.0
  0
LINE
  5
1EEE
  8
241
 10
-8.4366500000000002
 20
-2.0129899999999998
 30
0.0
 11
-8.4148199999999989
 21
-2.04956
 31
0.0
  0
LINE
  5
1EEF
  8
241
 10
-8.4580099999999998
 20
-1.9760099999999989
 30
0.0
 11
-8.4366500000000002
 21
-2.0129899999999998
 31
0.0
  0
LINE
  5
1EF0
  8
241
 10
-8.4789100000000008
 20
-1.9386399999999999
 30
0.0
 11
-8.4580099999999998
 21
-1.9760099999999989
 31
0.0
  0
LINE
  5
1EF1
  8
241
 10
-8.4993300000000005
 20
-1.90089
 30
0.0
 11
-8.4789100000000008
 21
-1.9386399999999999
 31
0.0
  0
LINE
  5
1EF2
  8
241
 10
-8.5192999999999994
 20
-1.8627599999999991
 30
0.0
 11
-8.4993300000000005
 21
-1.90089
 31
0.0
  0
LINE
  5
1EF3
  8
241
 10
-8.5387899999999988
 20
-1.8242700000000001
 30
0.0
 11
-8.5192999999999994
 21
-1.8627599999999991
 31
0.0
  0
LINE
  5
1EF4
  8
241
 10
-8.5578199999999995
 20
-1.78542
 30
0.0
 11
-8.5387899999999988
 21
-1.8242700000000001
 31
0.0
  0
LINE
  5
1EF5
  8
241
 10
-8.5763800000000003
 20
-1.7462099999999989
 30
0.0
 11
-8.5578199999999995
 21
-1.78542
 31
0.0
  0
LINE
  5
1EF6
  8
241
 10
-8.5944699999999994
 20
-1.7066699999999999
 30
0.0
 11
-8.5763800000000003
 21
-1.7462099999999989
 31
0.0
  0
LINE
  5
1EF7
  8
241
 10
-8.6120999999999999
 20
-1.66679
 30
0.0
 11
-8.5944699999999994
 21
-1.7066699999999999
 31
0.0
  0
LINE
  5
1EF8
  8
241
 10
-8.6292600000000004
 20
-1.62659
 30
0.0
 11
-8.6120999999999999
 21
-1.66679
 31
0.0
  0
LINE
  5
1EF9
  8
241
 10
-8.6459499999999991
 20
-1.5860700000000001
 30
0.0
 11
-8.6292600000000004
 21
-1.62659
 31
0.0
  0
LINE
  5
1EFA
  8
241
 10
-8.6621699999999997
 20
-1.54525
 30
0.0
 11
-8.6459499999999991
 21
-1.5860700000000001
 31
0.0
  0
LINE
  5
1EFB
  8
241
 10
-8.6779299999999981
 20
-1.5041299999999991
 30
0.0
 11
-8.6621699999999997
 21
-1.54525
 31
0.0
  0
LINE
  5
1EFC
  8
241
 10
-8.6932100000000005
 20
-1.4627099999999991
 30
0.0
 11
-8.6779299999999981
 21
-1.5041299999999991
 31
0.0
  0
LINE
  5
1EFD
  8
241
 10
-8.7080300000000008
 20
-1.4210100000000001
 30
0.0
 11
-8.6932100000000005
 21
-1.4627099999999991
 31
0.0
  0
LINE
  5
1EFE
  8
241
 10
-8.7223800000000011
 20
-1.37904
 30
0.0
 11
-8.7080300000000008
 21
-1.4210100000000001
 31
0.0
  0
LINE
  5
1EFF
  8
241
 10
-8.7362600000000015
 20
-1.3368100000000001
 30
0.0
 11
-8.7223800000000011
 21
-1.37904
 31
0.0
  0
LINE
  5
1F00
  8
241
 10
-8.7496799999999997
 20
-1.2943100000000001
 30
0.0
 11
-8.7362600000000015
 21
-1.3368100000000001
 31
0.0
  0
LINE
  5
1F01
  8
241
 10
-8.7626200000000001
 20
-1.2515700000000001
 30
0.0
 11
-8.7496799999999997
 21
-1.2943100000000001
 31
0.0
  0
LINE
  5
1F02
  8
241
 10
-8.7751000000000001
 20
-1.2085900000000001
 30
0.0
 11
-8.7626200000000001
 21
-1.2515700000000001
 31
0.0
  0
LINE
  5
1F03
  8
241
 10
-8.7871000000000006
 20
-1.165379999999999
 30
0.0
 11
-8.7751000000000001
 21
-1.2085900000000001
 31
0.0
  0
LINE
  5
1F04
  8
241
 10
-8.7986399999999971
 20
-1.12195
 30
0.0
 11
-8.7871000000000006
 21
-1.165379999999999
 31
0.0
  0
LINE
  5
1F05
  8
241
 10
-8.8097100000000008
 20
-1.0783
 30
0.0
 11
-8.7986399999999971
 21
-1.12195
 31
0.0
  0
LINE
  5
1F06
  8
241
 10
-8.8202999999999996
 20
-1.03444
 30
0.0
 11
-8.8097100000000008
 21
-1.0783
 31
0.0
  0
LINE
  5
1F07
  8
241
 10
-8.8304299999999998
 20
-0.9903870000000001
 30
0.0
 11
-8.8202999999999996
 21
-1.03444
 31
0.0
  0
LINE
  5
1F08
  8
241
 10
-8.84009
 20
-0.9461450000000001
 30
0.0
 11
-8.8304299999999998
 21
-0.9903870000000001
 31
0.0
  0
LINE
  5
1F09
  8
241
 10
-8.8492800000000003
 20
-0.9017219999999998
 30
0.0
 11
-8.84009
 21
-0.9461450000000001
 31
0.0
  0
LINE
  5
1F0A
  8
241
 10
-8.8580000000000005
 20
-0.857127
 30
0.0
 11
-8.8492800000000003
 21
-0.9017219999999998
 31
0.0
  0
LINE
  5
1F0B
  8
241
 10
-8.8662399999999995
 20
-0.8123689999999999
 30
0.0
 11
-8.8580000000000005
 21
-0.857127
 31
0.0
  0
LINE
  5
1F0C
  8
241
 10
-8.8740199999999998
 20
-0.767455
 30
0.0
 11
-8.8662399999999995
 21
-0.8123689999999999
 31
0.0
  0
LINE
  5
1F0D
  8
241
 10
-8.8813300000000002
 20
-0.722394
 30
0.0
 11
-8.8740199999999998
 21
-0.767455
 31
0.0
  0
LINE
  5
1F0E
  8
241
 10
-8.8881599999999992
 20
-0.6771950000000001
 30
0.0
 11
-8.8813300000000002
 21
-0.722394
 31
0.0
  0
LINE
  5
1F0F
  8
241
 10
-8.8945299999999996
 20
-0.631867
 30
0.0
 11
-8.8881599999999992
 21
-0.6771950000000001
 31
0.0
  0
LINE
  5
1F10
  8
241
 10
-8.9004300000000001
 20
-0.5864160000000001
 30
0.0
 11
-8.8945299999999996
 21
-0.631867
 31
0.0
  0
LINE
  5
1F11
  8
241
 10
-8.9058499999999992
 20
-0.5408530000000001
 30
0.0
 11
-8.9004300000000001
 21
-0.5864160000000001
 31
0.0
  0
LINE
  5
1F12
  8
241
 10
-8.9108000000000001
 20
-0.495186
 30
0.0
 11
-8.9058499999999992
 21
-0.5408530000000001
 31
0.0
  0
LINE
  5
1F13
  8
241
 10
-8.9152799999999992
 20
-0.4494220000000001
 30
0.0
 11
-8.9108000000000001
 21
-0.495186
 31
0.0
  0
LINE
  5
1F14
  8
241
 10
-8.9192900000000002
 20
-0.403571
 30
0.0
 11
-8.9152799999999992
 21
-0.4494220000000001
 31
0.0
  0
LINE
  5
1F15
  8
241
 10
-8.9228300000000011
 20
-0.357641
 30
0.0
 11
-8.9192900000000002
 21
-0.403571
 31
0.0
  0
LINE
  5
1F16
  8
241
 10
-8.9259000000000004
 20
-0.31164
 30
0.0
 11
-8.9228300000000011
 21
-0.357641
 31
0.0
  0
LINE
  5
1F17
  8
241
 10
-8.92849
 20
-0.265578
 30
0.0
 11
-8.9259000000000004
 21
-0.31164
 31
0.0
  0
LINE
  5
1F18
  8
241
 10
-8.9306099999999997
 20
-0.219461
 30
0.0
 11
-8.92849
 21
-0.265578
 31
0.0
  0
LINE
  5
1F19
  8
241
 10
-8.9322600000000012
 20
-0.173299
 30
0.0
 11
-8.9306099999999997
 21
-0.219461
 31
0.0
  0
LINE
  5
1F1A
  8
241
 10
-8.9334399999999992
 20
-0.127101
 30
0.0
 11
-8.9322600000000012
 21
-0.173299
 31
0.0
  0
LINE
  5
1F1B
  8
241
 10
-8.9341500000000007
 20
-0.0808742
 30
0.0
 11
-8.9334399999999992
 21
-0.127101
 31
0.0
  0
LINE
  5
1F1C
  8
241
 10
-8.9343800000000009
 20
-0.0346276
 30
0.0
 11
-8.9341500000000007
 21
-0.0808742
 31
0.0
  0
LINE
  5
1F1D
  8
241
 10
-8.9341399999999993
 20
0.0116303
 30
0.0
 11
-8.9343800000000009
 21
-0.0346276
 31
0.0
  0
LINE
  5
1F1E
  8
241
 10
-8.9334299999999995
 20
0.0578911
 30
0.0
 11
-8.9341399999999993
 21
0.0116303
 31
0.0
  0
LINE
  5
1F1F
  8
241
 10
-8.9322400000000002
 20
0.104146
 30
0.0
 11
-8.9334299999999995
 21
0.0578911
 31
0.0
  0
LINE
  5
1F20
  8
241
 10
-8.9305800000000009
 20
0.150388
 30
0.0
 11
-8.9322400000000002
 21
0.104146
 31
0.0
  0
LINE
  5
1F21
  8
241
 10
-8.9284499999999998
 20
0.196606
 30
0.0
 11
-8.9305800000000009
 21
0.150388
 31
0.0
  0
LINE
  5
1F22
  8
241
 10
-8.9258399999999991
 20
0.242794
 30
0.0
 11
-8.9284499999999998
 21
0.196606
 31
0.0
  0
LINE
  5
1F23
  8
241
 10
-8.9227600000000002
 20
0.288942
 30
0.0
 11
-8.9258399999999991
 21
0.242794
 31
0.0
  0
LINE
  5
1F24
  8
241
 10
-8.9192100000000014
 20
0.335043
 30
0.0
 11
-8.9227600000000002
 21
0.288942
 31
0.0
  0
LINE
  5
1F25
  8
241
 10
-8.9151799999999994
 20
0.381087
 30
0.0
 11
-8.9192100000000014
 21
0.335043
 31
0.0
  0
LINE
  5
1F26
  8
241
 10
-8.910680000000001
 20
0.4270660000000001
 30
0.0
 11
-8.9151799999999994
 21
0.381087
 31
0.0
  0
LINE
  5
1F27
  8
241
 10
-8.9057099999999991
 20
0.4729720000000001
 30
0.0
 11
-8.910680000000001
 21
0.4270660000000001
 31
0.0
  0
LINE
  5
1F28
  8
241
 10
-8.9002600000000012
 20
0.5187960000000002
 30
0.0
 11
-8.9057099999999991
 21
0.4729720000000001
 31
0.0
  0
LINE
  5
1F29
  8
241
 10
-8.8943300000000001
 20
0.5645310000000001
 30
0.0
 11
-8.9002600000000012
 21
0.5187960000000002
 31
0.0
  0
LINE
  5
1F2A
  8
241
 10
-8.8879300000000008
 20
0.610166
 30
0.0
 11
-8.8943300000000001
 21
0.5645310000000001
 31
0.0
  0
LINE
  5
1F2B
  8
241
 10
-8.8810599999999997
 20
0.655694
 30
0.0
 11
-8.8879300000000008
 21
0.610166
 31
0.0
  0
LINE
  5
1F2C
  8
241
 10
-8.8737100000000009
 20
0.701107
 30
0.0
 11
-8.8810599999999997
 21
0.655694
 31
0.0
  0
LINE
  5
1F2D
  8
241
 10
-8.8658900000000003
 20
0.746396
 30
0.0
 11
-8.8737100000000009
 21
0.701107
 31
0.0
  0
LINE
  5
1F2E
  8
241
 10
-8.8575900000000001
 20
0.7915520000000001
 30
0.0
 11
-8.8658900000000003
 21
0.746396
 31
0.0
  0
LINE
  5
1F2F
  8
241
 10
-8.8488199999999981
 20
0.8365670000000001
 30
0.0
 11
-8.8575900000000001
 21
0.7915520000000001
 31
0.0
  0
LINE
  5
1F30
  8
241
 10
-8.8395700000000001
 20
0.8814329999999999
 30
0.0
 11
-8.8488199999999981
 21
0.8365670000000001
 31
0.0
  0
LINE
  5
1F31
  8
241
 10
-8.8298500000000004
 20
0.92614
 30
0.0
 11
-8.8395700000000001
 21
0.8814329999999999
 31
0.0
  0
LINE
  5
1F32
  8
241
 10
-8.8196499999999993
 20
0.9706819999999998
 30
0.0
 11
-8.8298500000000004
 21
0.92614
 31
0.0
  0
LINE
  5
1F33
  8
241
 10
-8.8089700000000004
 20
1.01505
 30
0.0
 11
-8.8196499999999993
 21
0.9706819999999998
 31
0.0
  0
LINE
  5
1F34
  8
241
 10
-8.7978199999999998
 20
1.059229999999999
 30
0.0
 11
-8.8089700000000004
 21
1.01505
 31
0.0
  0
LINE
  5
1F35
  8
241
 10
-8.7861899999999995
 20
1.1032200000000001
 30
0.0
 11
-8.7978199999999998
 21
1.059229999999999
 31
0.0
  0
LINE
  5
1F36
  8
241
 10
-8.7740899999999993
 20
1.1470100000000001
 30
0.0
 11
-8.7861899999999995
 21
1.1032200000000001
 31
0.0
  0
LINE
  5
1F37
  8
241
 10
-8.7615100000000012
 20
1.1906000000000001
 30
0.0
 11
-8.7740899999999993
 21
1.1470100000000001
 31
0.0
  0
LINE
  5
1F38
  8
241
 10
-8.7484500000000001
 20
1.2339599999999991
 30
0.0
 11
-8.7615100000000012
 21
1.1906000000000001
 31
0.0
  0
LINE
  5
1F39
  8
241
 10
-8.7349199999999971
 20
1.277099999999999
 30
0.0
 11
-8.7484500000000001
 21
1.2339599999999991
 31
0.0
  0
LINE
  5
1F3A
  8
241
 10
-8.7209099999999982
 20
1.3200099999999999
 30
0.0
 11
-8.7349199999999971
 21
1.277099999999999
 31
0.0
  0
LINE
  5
1F3B
  8
241
 10
-8.7064199999999996
 20
1.36267
 30
0.0
 11
-8.7209099999999982
 21
1.3200099999999999
 31
0.0
  0
LINE
  5
1F3C
  8
241
 10
-8.6914600000000011
 20
1.405079999999999
 30
0.0
 11
-8.7064199999999996
 21
1.36267
 31
0.0
  0
LINE
  5
1F3D
  8
241
 10
-8.6760199999999994
 20
1.447239999999999
 30
0.0
 11
-8.6914600000000011
 21
1.405079999999999
 31
0.0
  0
LINE
  5
1F3E
  8
241
 10
-8.6600999999999981
 20
1.4891199999999989
 30
0.0
 11
-8.6760199999999994
 21
1.447239999999999
 31
0.0
  0
LINE
  5
1F3F
  8
241
 10
-8.6437000000000008
 20
1.530729999999999
 30
0.0
 11
-8.6600999999999981
 21
1.4891199999999989
 31
0.0
  0
LINE
  5
1F40
  8
241
 10
-8.6268299999999982
 20
1.5720499999999991
 30
0.0
 11
-8.6437000000000008
 21
1.530729999999999
 31
0.0
  0
LINE
  5
1F41
  8
241
 10
-8.6094799999999996
 20
1.613079999999999
 30
0.0
 11
-8.6268299999999982
 21
1.5720499999999991
 31
0.0
  0
LINE
  5
1F42
  8
241
 10
-8.5916499999999996
 20
1.6538099999999989
 30
0.0
 11
-8.6094799999999996
 21
1.613079999999999
 31
0.0
  0
LINE
  5
1F43
  8
241
 10
-8.5733399999999982
 20
1.694229999999999
 30
0.0
 11
-8.5916499999999996
 21
1.6538099999999989
 31
0.0
  0
LINE
  5
1F44
  8
241
 10
-8.5545600000000004
 20
1.734329999999999
 30
0.0
 11
-8.5733399999999982
 21
1.694229999999999
 31
0.0
  0
LINE
  5
1F45
  8
241
 10
-8.5352899999999998
 20
1.7740999999999989
 30
0.0
 11
-8.5545600000000004
 21
1.734329999999999
 31
0.0
  0
LINE
  5
1F46
  8
241
 10
-8.5155499999999993
 20
1.8135399999999999
 30
0.0
 11
-8.5352899999999998
 21
1.7740999999999989
 31
0.0
  0
LINE
  5
1F47
  8
241
 10
-8.4953299999999992
 20
1.8526299999999991
 30
0.0
 11
-8.5155499999999993
 21
1.8135399999999999
 31
0.0
  0
LINE
  5
1F48
  8
241
 10
-8.4746299999999994
 20
1.89137
 30
0.0
 11
-8.4953299999999992
 21
1.8526299999999991
 31
0.0
  0
LINE
  5
1F49
  8
241
 10
-8.4534500000000001
 20
1.9297500000000001
 30
0.0
 11
-8.4746299999999994
 21
1.89137
 31
0.0
  0
LINE
  5
1F4A
  8
241
 10
-8.4317899999999995
 20
1.9677599999999991
 30
0.0
 11
-8.4534500000000001
 21
1.9297500000000001
 31
0.0
  0
LINE
  5
1F4B
  8
241
 10
-8.4096600000000006
 20
2.0053899999999998
 30
0.0
 11
-8.4317899999999995
 21
1.9677599999999991
 31
0.0
  0
LINE
  5
1F4C
  8
241
 10
-8.3870399999999972
 20
2.04264
 30
0.0
 11
-8.4096600000000006
 21
2.0053899999999998
 31
0.0
  0
LINE
  5
1F4D
  8
241
 10
-8.3639500000000009
 20
2.0794899999999998
 30
0.0
 11
-8.3870399999999972
 21
2.04264
 31
0.0
  0
LINE
  5
1F4E
  8
241
 10
-8.3403700000000001
 20
2.1159400000000002
 30
0.0
 11
-8.3639500000000009
 21
2.0794899999999998
 31
0.0
  0
LINE
  5
1F4F
  8
241
 10
-8.3163300000000007
 20
2.15198
 30
0.0
 11
-8.3403700000000001
 21
2.1159400000000002
 31
0.0
  0
LINE
  5
1F50
  8
241
 10
-8.2918199999999995
 20
2.1876000000000002
 30
0.0
 11
-8.3163300000000007
 21
2.15198
 31
0.0
  0
LINE
  5
1F51
  8
241
 10
-8.2668400000000002
 20
2.222799999999999
 30
0.0
 11
-8.2918199999999995
 21
2.1876000000000002
 31
0.0
  0
LINE
  5
1F52
  8
241
 10
-8.2414199999999997
 20
2.257579999999999
 30
0.0
 11
-8.2668400000000002
 21
2.222799999999999
 31
0.0
  0
LINE
  5
1F53
  8
241
 10
-8.2155500000000004
 20
2.2919200000000002
 30
0.0
 11
-8.2414199999999997
 21
2.257579999999999
 31
0.0
  0
LINE
  5
1F54
  8
241
 10
-8.1892399999999999
 20
2.325829999999999
 30
0.0
 11
-8.2155500000000004
 21
2.2919200000000002
 31
0.0
  0
LINE
  5
1F55
  8
241
 10
-8.16249
 20
2.3592900000000001
 30
0.0
 11
-8.1892399999999999
 21
2.325829999999999
 31
0.0
  0
LINE
  5
1F56
  8
241
 10
-8.1353200000000001
 20
2.3923000000000001
 30
0.0
 11
-8.16249
 21
2.3592900000000001
 31
0.0
  0
LINE
  5
1F57
  8
241
 10
-8.1077300000000001
 20
2.4248500000000002
 30
0.0
 11
-8.1353200000000001
 21
2.3923000000000001
 31
0.0
  0
LINE
  5
1F58
  8
241
 10
-8.0797299999999996
 20
2.4569399999999999
 30
0.0
 11
-8.1077300000000001
 21
2.4248500000000002
 31
0.0
  0
LINE
  5
1F59
  8
241
 10
-8.0513100000000009
 20
2.4885599999999992
 30
0.0
 11
-8.0797299999999996
 21
2.4569399999999999
 31
0.0
  0
LINE
  5
1F5A
  8
241
 10
-8.0225000000000009
 20
2.519709999999999
 30
0.0
 11
-8.0513100000000009
 21
2.4885599999999992
 31
0.0
  0
LINE
  5
1F5B
  8
241
 10
-7.9932899999999991
 20
2.5503800000000001
 30
0.0
 11
-8.0225000000000009
 21
2.519709999999999
 31
0.0
  0
LINE
  5
1F5C
  8
241
 10
-7.9636899999999988
 20
2.5805599999999989
 30
0.0
 11
-7.9932899999999991
 21
2.5503800000000001
 31
0.0
  0
LINE
  5
1F5D
  8
241
 10
-7.9337099999999996
 20
2.6102500000000002
 30
0.0
 11
-7.9636899999999988
 21
2.5805599999999989
 31
0.0
  0
LINE
  5
1F5E
  8
241
 10
-7.9033600000000002
 20
2.63944
 30
0.0
 11
-7.9337099999999996
 21
2.6102500000000002
 31
0.0
  0
LINE
  5
1F5F
  8
241
 10
-7.8726399999999988
 20
2.6681300000000001
 30
0.0
 11
-7.9033600000000002
 21
2.63944
 31
0.0
  0
LINE
  5
1F60
  8
241
 10
-7.8415499999999989
 20
2.6963099999999991
 30
0.0
 11
-7.8726399999999988
 21
2.6681300000000001
 31
0.0
  0
LINE
  5
1F61
  8
241
 10
-7.8101099999999999
 20
2.72397
 30
0.0
 11
-7.8415499999999989
 21
2.6963099999999991
 31
0.0
  0
LINE
  5
1F62
  8
241
 10
-7.778319999999999
 20
2.7511099999999988
 30
0.0
 11
-7.8101099999999999
 21
2.72397
 31
0.0
  0
LINE
  5
1F63
  8
241
 10
-7.7461899999999986
 20
2.7777199999999991
 30
0.0
 11
-7.778319999999999
 21
2.7511099999999988
 31
0.0
  0
LINE
  5
1F64
  8
241
 10
-7.7137199999999986
 20
2.803799999999999
 30
0.0
 11
-7.7461899999999986
 21
2.7777199999999991
 31
0.0
  0
LINE
  5
1F65
  8
241
 10
-7.6809199999999986
 20
2.8293400000000002
 30
0.0
 11
-7.7137199999999986
 21
2.803799999999999
 31
0.0
  0
LINE
  5
1F66
  8
241
 10
-7.6478000000000002
 20
2.85433
 30
0.0
 11
-7.6809199999999986
 21
2.8293400000000002
 31
0.0
  0
LINE
  5
1F67
  8
241
 10
-7.6143599999999996
 20
2.8787699999999998
 30
0.0
 11
-7.6478000000000002
 21
2.85433
 31
0.0
  0
LINE
  5
1F68
  8
241
 10
-7.5806100000000001
 20
2.90266
 30
0.0
 11
-7.6143599999999996
 21
2.8787699999999998
 31
0.0
  0
LINE
  5
1F69
  8
241
 10
-7.5465600000000004
 20
2.92598
 30
0.0
 11
-7.5806100000000001
 21
2.90266
 31
0.0
  0
LINE
  5
1F6A
  8
241
 10
-7.5122099999999996
 20
2.948729999999999
 30
0.0
 11
-7.5465600000000004
 21
2.92598
 31
0.0
  0
LINE
  5
1F6B
  8
241
 10
-7.4775600000000004
 20
2.9709099999999991
 30
0.0
 11
-7.5122099999999996
 21
2.948729999999999
 31
0.0
  0
LINE
  5
1F6C
  8
241
 10
-7.442639999999999
 20
2.9925099999999989
 30
0.0
 11
-7.4775600000000004
 21
2.9709099999999991
 31
0.0
  0
LINE
  5
1F6D
  8
241
 10
-7.4074299999999997
 20
3.0135200000000002
 30
0.0
 11
-7.442639999999999
 21
2.9925099999999989
 31
0.0
  0
LINE
  5
1F6E
  8
241
 10
-7.3719599999999996
 20
3.0339299999999989
 30
0.0
 11
-7.4074299999999997
 21
3.0135200000000002
 31
0.0
  0
LINE
  5
1F6F
  8
241
 10
-7.3362199999999991
 20
3.0537499999999991
 30
0.0
 11
-7.3719599999999996
 21
3.0339299999999989
 31
0.0
  0
LINE
  5
1F70
  8
241
 10
-7.3002199999999986
 20
3.0729700000000002
 30
0.0
 11
-7.3362199999999991
 21
3.0537499999999991
 31
0.0
  0
LINE
  5
1F71
  8
241
 10
-7.26396
 20
3.0916099999999989
 30
0.0
 11
-7.3002199999999986
 21
3.0729700000000002
 31
0.0
  0
LINE
  5
1F72
  8
241
 10
-7.2274599999999998
 20
3.1096799999999991
 30
0.0
 11
-7.26396
 21
3.0916099999999989
 31
0.0
  0
LINE
  5
1F73
  8
241
 10
-7.1907199999999989
 20
3.1272000000000002
 30
0.0
 11
-7.2274599999999998
 21
3.1096799999999991
 31
0.0
  0
LINE
  5
1F74
  8
241
 10
-7.1537300000000004
 20
3.144169999999999
 30
0.0
 11
-7.1907199999999989
 21
3.1272000000000002
 31
0.0
  0
LINE
  5
1F75
  8
241
 10
-7.1165099999999999
 20
3.1606200000000002
 30
0.0
 11
-7.1537300000000004
 21
3.144169999999999
 31
0.0
  0
LINE
  5
1F76
  8
241
 10
-7.079060000000001
 20
3.1765500000000002
 30
0.0
 11
-7.1165099999999999
 21
3.1606200000000002
 31
0.0
  0
LINE
  5
1F77
  8
241
 10
-7.0413899999999989
 20
3.19198
 30
0.0
 11
-7.079060000000001
 21
3.1765500000000002
 31
0.0
  0
LINE
  5
1F78
  8
241
 10
-7.0034999999999989
 20
3.2069200000000002
 30
0.0
 11
-7.0413899999999989
 21
3.19198
 31
0.0
  0
LINE
  5
1F79
  8
241
 10
-6.9653899999999993
 20
3.2213899999999991
 30
0.0
 11
-7.0034999999999989
 21
3.2069200000000002
 31
0.0
  0
LINE
  5
1F7A
  8
241
 10
-6.9270800000000001
 20
3.2353999999999989
 30
0.0
 11
-6.9653899999999993
 21
3.2213899999999991
 31
0.0
  0
LINE
  5
1F7B
  8
241
 10
-6.88856
 20
3.248959999999999
 30
0.0
 11
-6.9270800000000001
 21
3.2353999999999989
 31
0.0
  0
LINE
  5
1F7C
  8
241
 10
-6.8498499999999991
 20
3.2620900000000002
 30
0.0
 11
-6.88856
 21
3.248959999999999
 31
0.0
  0
LINE
  5
1F7D
  8
241
 10
-6.8109399999999987
 20
3.274799999999999
 30
0.0
 11
-6.8498499999999991
 21
3.2620900000000002
 31
0.0
  0
LINE
  5
1F7E
  8
241
 10
-6.7718399999999992
 20
3.2871000000000001
 30
0.0
 11
-6.8109399999999987
 21
3.274799999999999
 31
0.0
  0
LINE
  5
1F7F
  8
241
 10
-6.7325600000000003
 20
3.2990099999999991
 30
0.0
 11
-6.7718399999999992
 21
3.2871000000000001
 31
0.0
  0
LINE
  5
1F80
  8
241
 10
-6.6931000000000003
 20
3.31054
 30
0.0
 11
-6.7325600000000003
 21
3.2990099999999991
 31
0.0
  0
LINE
  5
1F81
  8
241
 10
-6.6534599999999999
 20
3.321699999999999
 30
0.0
 11
-6.6931000000000003
 21
3.31054
 31
0.0
  0
LINE
  5
1F82
  8
241
 10
-6.6136600000000003
 20
3.3325199999999988
 30
0.0
 11
-6.6534599999999999
 21
3.321699999999999
 31
0.0
  0
LINE
  5
1F83
  8
241
 10
-6.5736999999999988
 20
3.3429899999999999
 30
0.0
 11
-6.6136600000000003
 21
3.3325199999999988
 31
0.0
  0
LINE
  5
1F84
  8
241
 10
-6.5335700000000001
 20
3.3531399999999998
 30
0.0
 11
-6.5736999999999988
 21
3.3429899999999999
 31
0.0
  0
LINE
  5
1F85
  8
241
 10
-6.4932999999999987
 20
3.3629799999999999
 30
0.0
 11
-6.5335700000000001
 21
3.3531399999999998
 31
0.0
  0
LINE
  5
1F86
  8
241
 10
-6.452869999999999
 20
3.3725199999999989
 30
0.0
 11
-6.4932999999999987
 21
3.3629799999999999
 31
0.0
  0
LINE
  5
1F87
  8
241
 10
-6.4123000000000001
 20
3.38178
 30
0.0
 11
-6.452869999999999
 21
3.3725199999999989
 31
0.0
  0
LINE
  5
1F88
  8
241
 10
-6.371599999999999
 20
3.3907599999999989
 30
0.0
 11
-6.4123000000000001
 21
3.38178
 31
0.0
  0
LINE
  5
1F89
  8
241
 10
-6.3307599999999988
 20
3.3994900000000001
 30
0.0
 11
-6.371599999999999
 21
3.3907599999999989
 31
0.0
  0
LINE
  5
1F8A
  8
241
 10
-6.2897899999999991
 20
3.4079699999999988
 30
0.0
 11
-6.3307599999999988
 21
3.3994900000000001
 31
0.0
  0
LINE
  5
1F8B
  8
241
 10
-6.2487000000000004
 20
3.4162300000000001
 30
0.0
 11
-6.2897899999999991
 21
3.4079699999999988
 31
0.0
  0
LINE
  5
1F8C
  8
241
 10
-6.2074899999999991
 20
3.424269999999999
 30
0.0
 11
-6.2487000000000004
 21
3.4162300000000001
 31
0.0
  0
LINE
  5
1F8D
  8
241
 10
-6.1661700000000002
 20
3.4321000000000002
 30
0.0
 11
-6.2074899999999991
 21
3.424269999999999
 31
0.0
  0
LINE
  5
1F8E
  8
241
 10
-6.1247400000000001
 20
3.4397500000000001
 30
0.0
 11
-6.1661700000000002
 21
3.4321000000000002
 31
0.0
  0
LINE
  5
1F8F
  8
241
 10
-6.0832100000000002
 20
3.4472199999999988
 30
0.0
 11
-6.1247400000000001
 21
3.4397500000000001
 31
0.0
  0
LINE
  5
1F90
  8
241
 10
-6.0415799999999997
 20
3.4545300000000001
 30
0.0
 11
-6.0832100000000002
 21
3.4472199999999988
 31
0.0
  0
LINE
  5
1F91
  8
241
 10
-5.9998599999999991
 20
3.4616799999999999
 30
0.0
 11
-6.0415799999999997
 21
3.4545300000000001
 31
0.0
  0
LINE
  5
1F92
  8
241
 10
-5.9580500000000001
 20
3.4687099999999988
 30
0.0
 11
-5.9998599999999991
 21
3.4616799999999999
 31
0.0
  0
LINE
  5
1F93
  8
241
 10
-5.9161599999999988
 20
3.4756099999999992
 30
0.0
 11
-5.9580500000000001
 21
3.4687099999999988
 31
0.0
  0
LINE
  5
1F94
  8
241
 10
-5.8741899999999996
 20
3.4824000000000002
 30
0.0
 11
-5.9161599999999988
 21
3.4756099999999992
 31
0.0
  0
LINE
  5
1F95
  8
241
 10
-5.832139999999999
 20
3.4891000000000001
 30
0.0
 11
-5.8741899999999996
 21
3.4824000000000002
 31
0.0
  0
LINE
  5
1F96
  8
241
 10
-5.7900299999999998
 20
3.4957199999999991
 30
0.0
 11
-5.832139999999999
 21
3.4891000000000001
 31
0.0
  0
LINE
  5
1F97
  8
241
 10
-5.7478600000000002
 20
3.5022699999999989
 30
0.0
 11
-5.7900299999999998
 21
3.4957199999999991
 31
0.0
  0
LINE
  5
1F98
  8
241
 10
-5.7056300000000002
 20
3.5087699999999988
 30
0.0
 11
-5.7478600000000002
 21
3.5022699999999989
 31
0.0
  0
LINE
  5
1F99
  8
241
 10
-5.6633500000000003
 20
3.5152299999999999
 30
0.0
 11
-5.7056300000000002
 21
3.5087699999999988
 31
0.0
  0
LINE
  5
1F9A
  8
241
 10
-5.6210199999999988
 20
3.5216599999999989
 30
0.0
 11
-5.6633500000000003
 21
3.5152299999999999
 31
0.0
  0
LINE
  5
1F9B
  8
241
 10
-5.5786499999999988
 20
3.5280699999999992
 30
0.0
 11
-5.6210199999999988
 21
3.5216599999999989
 31
0.0
  0
LINE
  5
1F9C
  8
241
 10
-5.5362400000000003
 20
3.5344899999999999
 30
0.0
 11
-5.5786499999999988
 21
3.5280699999999992
 31
0.0
  0
LINE
  5
1F9D
  8
241
 10
-5.4938000000000002
 20
3.540919999999999
 30
0.0
 11
-5.5362400000000003
 21
3.5344899999999999
 31
0.0
  0
LINE
  5
1F9E
  8
241
 10
-5.4513299999999996
 20
3.54738
 30
0.0
 11
-5.4938000000000002
 21
3.540919999999999
 31
0.0
  0
LINE
  5
1F9F
  8
241
 10
-5.4088399999999996
 20
3.5538799999999999
 30
0.0
 11
-5.4513299999999996
 21
3.54738
 31
0.0
  0
LINE
  5
1FA0
  8
241
 10
-5.3663299999999996
 20
3.5604399999999998
 30
0.0
 11
-5.4088399999999996
 21
3.5538799999999999
 31
0.0
  0
LINE
  5
1FA1
  8
241
 10
-5.323809999999999
 20
3.5670599999999988
 30
0.0
 11
-5.3663299999999996
 21
3.5604399999999998
 31
0.0
  0
LINE
  5
1FA2
  8
241
 10
-5.2812799999999998
 20
3.57376
 30
0.0
 11
-5.323809999999999
 21
3.5670599999999988
 31
0.0
  0
LINE
  5
1FA3
  8
241
 10
-5.2387499999999987
 20
3.5805599999999989
 30
0.0
 11
-5.2812799999999998
 21
3.57376
 31
0.0
  0
LINE
  5
1FA4
  8
241
 10
-5.196229999999999
 20
3.5874699999999988
 30
0.0
 11
-5.2387499999999987
 21
3.5805599999999989
 31
0.0
  0
LINE
  5
1FA5
  8
241
 10
-5.1537100000000002
 20
3.5945
 30
0.0
 11
-5.196229999999999
 21
3.5874699999999988
 31
0.0
  0
LINE
  5
1FA6
  8
241
 10
-5.1112000000000002
 20
3.601659999999999
 30
0.0
 11
-5.1537100000000002
 21
3.5945
 31
0.0
  0
LINE
  5
1FA7
  8
241
 10
-5.068719999999999
 20
3.6089799999999999
 30
0.0
 11
-5.1112000000000002
 21
3.601659999999999
 31
0.0
  0
LINE
  5
1FA8
  8
241
 10
-5.0262599999999988
 20
3.61646
 30
0.0
 11
-5.068719999999999
 21
3.6089799999999999
 31
0.0
  0
LINE
  5
1FA9
  8
241
 10
-4.9838199999999988
 20
3.6240499999999991
 30
0.0
 11
-5.0262599999999988
 21
3.61646
 31
0.0
  0
LINE
  5
1FAA
  8
241
 10
-4.9414300000000004
 20
3.6316599999999988
 30
0.0
 11
-4.9838199999999988
 21
3.6240499999999991
 31
0.0
  0
LINE
  5
1FAB
  8
241
 10
-4.8990900000000002
 20
3.6391800000000001
 30
0.0
 11
-4.9414300000000004
 21
3.6316599999999988
 31
0.0
  0
LINE
  5
1FAC
  8
241
 10
-4.8568100000000003
 20
3.6465199999999989
 30
0.0
 11
-4.8990900000000002
 21
3.6391800000000001
 31
0.0
  0
LINE
  5
1FAD
  8
241
 10
-4.814589999999999
 20
3.6535599999999988
 30
0.0
 11
-4.8568100000000003
 21
3.6465199999999989
 31
0.0
  0
LINE
  5
1FAE
  8
241
 10
-4.7724500000000001
 20
3.6602000000000001
 30
0.0
 11
-4.814589999999999
 21
3.6535599999999988
 31
0.0
  0
LINE
  5
1FAF
  8
241
 10
-4.7304000000000004
 20
3.666339999999999
 30
0.0
 11
-4.7724500000000001
 21
3.6602000000000001
 31
0.0
  0
LINE
  5
1FB0
  8
241
 10
-4.6884499999999987
 20
3.6718799999999998
 30
0.0
 11
-4.7304000000000004
 21
3.666339999999999
 31
0.0
  0
LINE
  5
1FB1
  8
241
 10
-4.646609999999999
 20
3.676699999999999
 30
0.0
 11
-4.6884499999999987
 21
3.6718799999999998
 31
0.0
  0
LINE
  5
1FB2
  8
241
 10
-4.6048799999999996
 20
3.6807199999999991
 30
0.0
 11
-4.646609999999999
 21
3.676699999999999
 31
0.0
  0
LINE
  5
1FB3
  8
241
 10
-4.5632699999999993
 20
3.683819999999999
 30
0.0
 11
-4.6048799999999996
 21
3.6807199999999991
 31
0.0
  0
LINE
  5
1FB4
  8
241
 10
-4.5217999999999989
 20
3.6859099999999989
 30
0.0
 11
-4.5632699999999993
 21
3.683819999999999
 31
0.0
  0
LINE
  5
1FB5
  8
241
 10
-4.48048
 20
3.686869999999999
 30
0.0
 11
-4.5217999999999989
 21
3.6859099999999989
 31
0.0
  0
LINE
  5
1FB6
  8
241
 10
-4.439309999999999
 20
3.6866099999999991
 30
0.0
 11
-4.48048
 21
3.686869999999999
 31
0.0
  0
LINE
  5
1FB7
  8
241
 10
-4.398299999999999
 20
3.6850099999999988
 30
0.0
 11
-4.439309999999999
 21
3.6866099999999991
 31
0.0
  0
LINE
  5
1FB8
  8
241
 10
-4.3574699999999993
 20
3.6819899999999999
 30
0.0
 11
-4.398299999999999
 21
3.6850099999999988
 31
0.0
  0
LINE
  5
1FB9
  8
241
 10
-4.316819999999999
 20
3.6774199999999988
 30
0.0
 11
-4.3574699999999993
 21
3.6819899999999999
 31
0.0
  0
LINE
  5
1FBA
  8
241
 10
-4.2763599999999986
 20
3.671219999999999
 30
0.0
 11
-4.316819999999999
 21
3.6774199999999988
 31
0.0
  0
LINE
  5
1FBB
  8
241
 10
-4.2361000000000004
 20
3.6632799999999999
 30
0.0
 11
-4.2763599999999986
 21
3.671219999999999
 31
0.0
  0
LINE
  5
1FBC
  8
241
 10
-4.1960499999999987
 20
3.65354
 30
0.0
 11
-4.2361000000000004
 21
3.6632799999999999
 31
0.0
  0
LINE
  5
1FBD
  8
241
 10
-4.1561799999999991
 20
3.6422500000000002
 30
0.0
 11
-4.1960499999999987
 21
3.65354
 31
0.0
  0
LINE
  5
1FBE
  8
241
 10
-4.1164500000000004
 20
3.6297000000000001
 30
0.0
 11
-4.1561799999999991
 21
3.6422500000000002
 31
0.0
  0
LINE
  5
1FBF
  8
241
 10
-4.0768300000000002
 20
3.6162199999999989
 30
0.0
 11
-4.1164500000000004
 21
3.6297000000000001
 31
0.0
  0
LINE
  5
1FC0
  8
241
 10
-4.0372799999999991
 20
3.6021099999999988
 30
0.0
 11
-4.0768300000000002
 21
3.6162199999999989
 31
0.0
  0
LINE
  5
1FC1
  8
241
 10
-3.9977599999999991
 20
3.5876899999999998
 30
0.0
 11
-4.0372799999999991
 21
3.6021099999999988
 31
0.0
  0
LINE
  5
1FC2
  8
241
 10
-3.880517774022251
 20
3.7049321185675961
 30
0.0
 11
-6.8467175414540957
 21
0.7387302286450961
 31
0.0
  0
ARC
  5
1FC3
  8
240
 10
-3.452607385149717
 20
-2.6553821539871749
 30
0.0
 40
0.2
 50
224.99997950035279
 51
314.99998770020937
1001
GENIUS_GENODEF_13
1002
{
1000
HIER
1070
     0
1002
}
1002
{
1000
MANEDIT
1070
     0
1002
}
1002
{
1000
NOSEL
1070
     0
1002
}
1002
{
1000
BEHIND
1070
     0
1002
}
1002
{
1000
OTHER
1070
     0
1002
}
1002
{
1000
REACTOR
1002
}
1001
GENIUS_GENOBJ-N-FIL_13
1002
{
1000
OWNER
1000
GEN
1002
}
  0
ARC
  5
1FC4
  8
240
 10
-0.1999149116452372
 20
0.5973089230054712
 30
0.0
 40
0.2
 50
314.99998770021853
 51
45.000012299380678
1001
GENIUS_GENODEF_13
1002
{
1000
HIER
1070
     0
1002
}
1002
{
1000
MANEDIT
1070
     0
1002
}
1002
{
1000
NOSEL
1070
     0
1002
}
1002
{
1000
BEHIND
1070
     0
1002
}
1002
{
1000
OTHER
1070
     0
1002
}
1002
{
1000
REACTOR
1002
}
1001
GENIUS_GENOBJ-N-FIL_13
1002
{
1000
OWNER
1000
GEN
1002
}
  0
ARC
  5
1FC5
  8
240
 10
-3.4526073851149861
 20
3.850000000000021
 30
0.0
 40
0.2
 50
45.000012299781382
 51
135.00002049964721
1001
GENIUS_GENODEF_13
1002
{
1000
HIER
1070
     0
1002
}
1002
{
1000
MANEDIT
1070
     0
1002
}
1002
{
1000
NOSEL
1070
     0
1002
}
1002
{
1000
BEHIND
1070
     0
1002
}
1002
{
1000
OTHER
1070
     0
1002
}
1002
{
1000
REACTOR
1002
}
1001
GENIUS_GENOBJ-N-FIL_13
1002
{
1000
OWNER
1000
GEN
1002
}
  0
ARC
  5
1FC6
  8
241
 10
-6.7052961346181803
 20
0.5973089230064375
 30
0.0
 40
0.2
 50
135.00002049964721
 51
224.99997950035279
1001
GENIUS_GENOBJ-N-FIL_13
1002
{
1000
OWNER
1000
GEN
1002
}
1001
GENIUS_GENODEF_13
1002
{
1000
HIER
1070
     0
1002
}
1002
{
1000
MANEDIT
1070
     0
1002
}
1002
{
1000
NOSEL
1070
     0
1002
}
1002
{
1000
BEHIND
1070
     0
1002
}
1002
{
1000
OTHER
1070
     0
1002
}
1002
{
1000
REACTOR
1002
}
  0
LINE
  5
1FC7
  8
240
 10
-0.0584935857661151
 20
0.7387303096009532
 30
0.0
 11
-3.3111860592368312
 21
3.9914213865964991
 31
0.0
  0
LINE
  5
1FC8
  8
240
 10
-3.5940287919509042
 20
3.9914213056386809
 30
0.0
 11
-3.880517774022251
 21
3.7049321185675961
 31
0.0
  0
LINE
  5
1FC9
  8
240
 10
-0.0584935857670814
 20
0.4558875364089944
 30
0.0
 11
-3.31118605927159
 21
-2.7968035405836522
 31
0.0
  0
LINE
  5
1FCA
  8
241
 10
-3.5940287919856351
 20
-2.796803459625834
 30
0.0
 11
-6.8467175414540957
 21
0.455887617367779
 31
0.0
  0
CIRCLE
  5
1FCB
  8
246
 10
-3.4526064541459771
 20
0.5973089230064659
 30
0.0
 40
2.499999753065393
  0
ARC
  5
1FCC
  8
240
 10
-4.4738846794848541
 20
2.8999999999999759
 30
0.0
 40
0.9999999999999945
 50
53.603700151636453
 51
90.0
  0
LINE
  5
1FCD
  8
240
 10
-37.128203230275517
 20
4.4358983848621829
 30
0.0
 11
-38.105255888325807
 21
5.0
 31
0.0
  0
ARC
  5
1FCE
  8
240
 10
-35.128203230275517
 20
7.8999999999999773
 30
0.0
 40
4.0
 50
240.0000000000002
 51
270.0
  0
LINE
  5
1FCF
  8
240
 10
-4.4738846794848541
 20
3.8999999999998631
 30
0.0
 11
-35.128203230275517
 21
3.8999999999998631
 31
0.0
  0
LINE
  5
1FD0
  8
240
 10
-4.5999999999992811
 20
-3.9000000000000892
 30
0.0
 11
-3.6006845224621311
 21
-2.790147724386685
 31
0.0
  0
LINE
  5
1FD1
  8
240
 10
-38.105255888325807
 20
-5.0
 30
0.0
 11
-37.128203230274039
 21
-4.4358983848592271
 31
0.0
  0
LINE
  5
1FD2
  8
241
 10
-38.105255888325807
 20
-5.0
 30
0.0
 11
-38.105255888325807
 21
0.0
 31
0.0
  0
ARC
  5
1FD3
  8
240
 10
-35.128203230275517
 20
-7.9000000000000332
 30
0.0
 40
4.0
 50
90.0
 51
120.0000000000005
  0
LINE
  5
1FD4
  8
240
 10
-35.128203230275631
 20
-3.9000000000000892
 30
0.0
 11
-4.5999999999992811
 21
-3.9000000000000892
 31
0.0
  0
LINE
  5
1FD5
  8
241
 10
-38.105255888325807
 20
0.0
 30
0.0
 11
-38.105255888325807
 21
5.0
 31
0.0
  0
LINE
  5
1FD6
  8
241
 10
-35.128203230275631
 20
-3.9000000000000892
 30
0.0
 11
-35.128203230275631
 21
3.8999999999998631
 31
0.0
  0
ARC
  5
1FD7
  8
240
 10
-95.200000000000031
 20
4.0
 30
0.0
 40
1.0
 50
90.0
 51
180.0
  0
LINE
  5
1FD8
  8
240
 10
-96.200000000000045
 20
-4.0
 30
0.0
 11
-96.200000000000045
 21
0.0
 31
0.0
  0
ARC
  5
1FD9
  8
240
 10
-95.200000000000031
 20
-4.0
 30
0.0
 40
1.0000000000000271
 50
180.0
 51
270.0
  0
LINE
  5
1FDA
  8
240
 10
-96.200000000000045
 20
0.0
 30
0.0
 11
-96.200000000000045
 21
4.0
 31
0.0
  0
LINE
  5
1FDB
  8
240
 10
-38.105255888325807
 20
5.0
 30
0.0
 11
-95.200000000000031
 21
5.0
 31
0.0
  0
LINE
  5
1FDC
  8
240
 10
-95.200000000000031
 20
-5.0
 30
0.0
 11
-38.105255888325807
 21
-5.0
 31
0.0
  0
LINE
  5
1FDD
  8
245
 10
-98.961149962323475
 20
0.0
 30
0.0
 11
0.8341068001294614
 21
0.0
 31
0.0
  0
ARC
  5
1FDE
  8
247
 10
-87.795255732447401
 20
-1.9409922594321409
 30
0.0
 40
0.7566075439453125
 50
53.444012197057717
 51
164.00018438768541
  0
LINE
  5
1FDF
  8
247
 10
-88.222114130884904
 20
-2.7117051500571621
 30
0.0
 11
-87.908362177759884
 21
-1.6175283922446571
 31
0.0
  0
ARC
  5
1FE0
  8
247
 10
-87.987138544947399
 20
-2.779082103182168
 30
0.0
 40
0.2444446334838867
 50
164.00027305718231
 51
344.00027305718248
  0
ARC
  5
1FE1
  8
247
 10
-86.725117060572416
 20
-2.5627832750571482
 30
0.0
 40
1.9799648437499999
 50
155.20517736984061
 51
172.79482596205199
  0
ARC
  5
1FE2
  8
247
 10
-86.760079951197412
 20
-2.406601634432155
 30
0.0
 40
0.9894138793945311
 50
110.8721834020734
 51
132.54194893738719
  0
ARC
  5
1FE3
  8
247
 10
-87.673386591822407
 20
-1.684914134432155
 30
0.0
 40
0.2444448051452637
 50
1.7101213820627339
 51
163.998398354447
  0
ARC
  5
1FE4
  8
247
 10
-86.760079951197412
 20
-2.406601634432155
 30
0.0
 40
1.222216369628905
 50
110.22964506332001
 51
118.57168892371639
  0
LINE
  5
1FE5
  8
247
 10
-87.112591669947392
 20
-1.4821153063071559
 30
0.0
 11
-87.182702021509897
 21
-1.2597783922446191
 31
0.0
  0
LINE
  5
1FE6
  8
247
 10
-87.001577021509902
 20
-1.4471084703696491
 30
0.0
 11
-87.071687373072393
 21
-1.2247715563071671
 31
0.0
  0
LINE
  5
1FE7
  8
247
 10
-87.391995966822407
 20
-3.2796106981528279
 30
0.0
 11
-87.051542841822396
 21
-2.09231354849465
 31
0.0
  0
LINE
  5
1FE8
  8
247
 10
-87.729662959009914
 20
-2.09231354849465
 30
0.0
 11
-87.051542841822396
 21
-2.09231354849465
 31
0.0
  0
LINE
  5
1FE9
  8
247
 10
-87.796415888697396
 20
-2.3251182359946441
 30
0.0
 11
-87.729662959009914
 21
-2.09231354849465
 31
0.0
  0
LINE
  5
1FEA
  8
247
 10
-87.528560419947397
 20
-3.1430550340903718
 30
0.0
 11
-87.391995966822407
 21
-3.2796106981528279
 31
0.0
  0
LINE
  5
1FEB
  8
247
 10
-87.796415888697396
 20
-2.3251182359946441
 30
0.0
 11
-87.602669794947388
 21
-2.3251182359946441
 31
0.0
  0
LINE
  5
1FEC
  8
247
 10
-87.752162959009922
 20
-2.846459056307145
 30
0.0
 11
-87.602669794947388
 21
-2.3251182359946441
 31
0.0
  0
ARC
  5
1FED
  8
247
 10
-86.760079951197412
 20
-2.406601634432155
 30
0.0
 40
0.9894111328124999
 50
270.0
 51
104.12743649641099
  0
ARC
  5
1FEE
  8
247
 10
-86.760079951197412
 20
-2.406601634432155
 30
0.0
 40
1.2222158203124971
 50
270.0
 51
104.77079396609309
  0
LINE
  5
1FEF
  8
247
 10
-91.363826044947373
 20
-3.2796106981528279
 30
0.0
 11
-90.829785029322608
 21
-1.417190501620389
 31
0.0
  0
LINE
  5
1FF0
  8
247
 10
-91.095733827835645
 20
-2.34466310972096
 30
0.0
 11
-90.280820750931085
 21
-1.529750032816487
 31
0.0
  0
ARC
  5
1FF1
  8
247
 10
-90.390437373072402
 20
-1.743115306307178
 30
0.0
 40
0.349197280883789
 50
261.66260168792928
 51
66.338155095189919
  0
LINE
  5
1FF2
  8
247
 10
-90.250290332636126
 20
-1.4232754275653641
 30
0.0
 11
-90.441071156839584
 21
-2.088622123776906
 31
0.0
  0
LINE
  5
1FF3
  8
247
 10
-89.692752802759898
 20
-3.2796106981528279
 30
0.0
 11
-89.165382685572368
 21
-1.4404639391196441
 31
0.0
  0
LINE
  5
1FF4
  8
247
 10
-90.40658508405734
 20
-2.4314084948031001
 30
0.0
 11
-89.573498460620769
 21
-1.5983218713664711
 31
0.0
  0
LINE
  5
1FF5
  8
247
 10
-90.991757670387685
 20
-1.982055575986271
 30
0.0
 11
-90.194087908521183
 21
-1.1843858141197421
 31
0.0
  0
ARC
  5
1FF6
  8
247
 10
-90.130711787134899
 20
-1.7663887438071431
 30
0.0
 40
0.5820078735351563
 50
287.669577547399
 51
90.236159842671412
  0
LINE
  5
1FF7
  8
247
 10
-90.048695536241624
 20
-1.814887570700541
 30
0.0
 11
-89.659119366590943
 21
-1.425311401049818
 31
0.0
  0
LINE
  5
1FF8
  8
247
 10
-90.887781512939796
 20
-1.6194480422515261
 30
0.0
 11
-90.452719284807955
 21
-1.1843858141197141
 31
0.0
  0
LINE
  5
1FF9
  8
247
 10
-91.485985224634845
 20
-1.4171905016196491
 30
0.0
 11
-91.071967646509833
 21
-1.4171905016196491
 31
0.0
  0
LINE
  5
1FFA
  8
247
 10
-90.950880732447644
 20
-1.4171905016196491
 30
0.0
 11
-90.829785029322608
 21
-1.417190501620389
 31
0.0
  0
LINE
  5
1FFB
  8
247
 10
-90.078534487390826
 20
-1.586095145562985
 30
0.0
 11
-89.788244247229741
 21
-1.295804905401843
 31
0.0
  0
LINE
  5
1FFC
  8
247
 10
-91.485985224634845
 20
-1.184385814119657
 30
0.0
 11
-91.00521471682238
 21
-1.184385814119657
 31
0.0
  0
LINE
  5
1FFD
  8
247
 10
-90.884127802759735
 20
-1.184385814119657
 30
0.0
 11
-90.133110681081988
 21
-1.1843858141197421
 31
0.0
  0
LINE
  5
1FFE
  8
247
 10
-90.884127802759735
 20
-1.184385814119657
 30
0.0
 11
-90.950880732447644
 21
-1.4171905016196491
 31
0.0
  0
LINE
  5
1FFF
  8
247
 10
-91.00521471682238
 20
-1.184385814119657
 30
0.0
 11
-91.071967646509833
 21
-1.4171905016196491
 31
0.0
  0
LINE
  5
2000
  8
247
 10
-90.944155348594705
 20
-1.4171905016197071
 30
0.0
 11
-90.711350661094684
 21
-1.1843858141197141
 31
0.0
  0
LINE
  5
2001
  8
247
 10
-90.200902451152686
 20
-1.4498317330380299
 30
0.0
 11
-89.960804546793511
 21
-1.209733828678857
 31
0.0
  0
LINE
  5
2002
  8
247
 10
-89.250153193384904
 20
-1.4404639391196441
 30
0.0
 11
-89.165382685572368
 21
-1.4404639391196441
 31
0.0
  0
LINE
  5
2003
  8
247
 10
-89.250153193384904
 20
-1.4404639391196441
 30
0.0
 11
-89.176720576197397
 21
-1.184385814119657
 31
0.0
  0
LINE
  5
2004
  8
247
 10
-90.316304495396764
 20
-2.5997592824292681
 30
0.0
 11
-89.55292810428142
 21
-1.836382891313924
 31
0.0
  0
ARC
  5
2005
  8
247
 10
-90.397732294947389
 20
-2.6976074938071721
 30
0.0
 40
0.5820029296875
 50
270.0
 51
40.329840654167469
  0
LINE
  5
2006
  8
247
 10
-91.199709985283505
 20
-2.7072706434557059
 30
0.0
 11
-90.384793476411986
 21
-1.8923541345840871
 31
0.0
  0
LINE
  5
2007
  8
247
 10
-91.303686142731451
 20
-3.0698781771903949
 30
0.0
 11
-90.318665108679056
 21
-2.0848571431379579
 31
0.0
  0
LINE
  5
2008
  8
247
 10
-91.363826044947373
 20
-3.2796106981528279
 30
0.0
 11
-90.397732294947389
 21
-3.2796106981528279
 31
0.0
  0
LINE
  5
2009
  8
247
 10
-90.737524534833554
 20
-3.2796106981528279
 30
0.0
 11
-89.883311205022849
 21
-2.425397368342181
 31
0.0
  0
ARC
  5
200A
  8
247
 10
-90.657457880884905
 20
-2.6743252672446278
 30
0.0
 40
0.3492072715759277
 50
261.66285421114787
 51
66.338192159113575
  0
LINE
  5
200B
  8
247
 10
-90.517308061882062
 20
-2.354475698298621
 30
0.0
 11
-90.708092024671217
 21
-3.0198421293578179
 31
0.0
  0
LINE
  5
200C
  8
247
 10
-90.478893158546782
 20
-3.2796106981528581
 30
0.0
 11
-89.82073350361506
 21
-2.6214510432211351
 31
0.0
  0
LINE
  5
200D
  8
247
 10
-90.996155911120397
 20
-3.2796106981528279
 30
0.0
 11
-90.696717199026907
 21
-2.9801719860594229
 31
0.0
  0
LINE
  5
200E
  8
247
 10
-91.254787287407083
 20
-3.2796106981528279
 30
0.0
 11
-90.592746399074102
 21
-2.617569809819861
 31
0.0
  0
LINE
  5
200F
  8
247
 10
-90.176625898090634
 20
-3.235974813983495
 30
0.0
 11
-89.859364974771054
 21
-2.9187138906639301
 31
0.0
  0
LINE
  5
2010
  8
247
 10
-89.692752802759898
 20
-3.2796106981528279
 30
0.0
 11
-89.172053584009888
 21
-3.2796106981528279
 31
0.0
  0
ARC
  5
2011
  8
247
 10
-91.485985224634845
 20
-2.4066016344321519
 30
0.0
 40
1.2222158203124971
 50
89.999999999999986
 51
270.0
  0
ARC
  5
2012
  8
247
 10
-91.485985224634845
 20
-2.4066016344321519
 30
0.0
 40
0.9894111328124999
 50
89.999999999999986
 51
270.0
  0
ARC
  5
2013
  8
247
 10
-87.962142451197394
 20
-2.5230039781821518
 30
0.0
 40
0.756615234375
 50
163.99975070172911
 51
304.96387329163008
  0
LINE
  5
2014
  8
247
 10
-91.485985224634845
 20
-3.3960130419028531
 30
0.0
 11
-86.760079951197412
 21
-3.3960130419028531
 31
0.0
  0
LINE
  5
2015
  8
247
 10
-91.485985224634845
 20
-3.628817723411351
 30
0.0
 11
-86.760079951197412
 21
-3.628817723411351
 31
0.0
  0
LINE
  5
2016
  8
247
 10
-89.172053584009888
 20
-3.2796106981528279
 30
0.0
 11
-88.571259638697384
 21
-1.184385814119657
 31
0.0
  0
LINE
  5
2017
  8
247
 10
-89.176720576197397
 20
-1.184385814119657
 30
0.0
 11
-88.571259638697384
 21
-1.184385814119657
 31
0.0
  0
TEXT
  5
2018
  8
247
 10
-84.508972049171604
 20
-3.3320289994871142
 30
0.0
 40
2.0
  1
ST10-C0207-45-35
 41
0.7
  7
YOKO
 11
-84.508972049171604
 21
-3.3320289994871142
 31
0.0
 73
     1
  0
ENDBLK
  5
201A
  8
0
  0
ENDSEC
  0
SECTION
  2
ENTITIES
  0
TEXT
  5
13E5
  8
241
 10
-98.0
 20
20.74027816734429
 30
0.0
 40
5.0
  1
ST10-C0207-45-35
  7
YOKO
 11
-98.0
 21
20.74027816734429
 31
0.0
 73
     1
  0
LINE
  5
161A
  8
250
 10
-2.3197644616588482
 20
3.5
 30
0.0
 11
14.98096205531988
 21
3.4999999999999951
 31
0.0
  0
LINE
  5
161B
  8
250
 10
13.98096205531988
 20
1.269999999999994
 30
0.0
 11
13.98096205531988
 21
-3.357142857142859
 31
0.0
  0
LINE
  5
161E
  8
250
 10
0.1802366116640996
 20
0.9999999999999714
 30
0.0
 11
8.0
 21
0.999999999999969
 31
0.0
  0
LINE
  5
161F
  8
250
 10
7.0
 20
5.4599999999999671
 30
0.0
 11
7.0
 21
3.229999999999968
 31
0.0
  0
LINE
  5
1620
  8
250
 10
7.0
 20
0.9999999999999694
 30
0.0
 11
7.0
 21
-6.0871428571428412
 31
0.0
  0
LINE
  5
1623
  8
250
 10
-35.128203230275631
 20
-4.4000000000000892
 30
0.0
 11
-35.128203230275631
 21
-15.0
 31
0.0
  0
LINE
  5
1624
  8
250
  6
CONTINUOUS
 10
0.0
 20
0.0635471774563143
 30
0.0
 11
-0.000000000000001
 21
-15.0
 31
0.0
  0
LINE
  5
1625
  8
250
 10
-32.898203230275627
 20
-14.0
 30
0.0
 11
-2.2299999999999991
 21
-14.0
 31
0.0
  0
LINE
  5
1629
  8
250
  6
CONTINUOUS
 10
-96.200000000000045
 20
-4.5
 30
0.0
 11
-96.200000000000045
 21
-22.0
 31
0.0
  0
LINE
  5
162A
  8
250
 10
0.0000000000001421
 20
0.06354717745171
 30
0.0
 11
0.0000000000001407
 21
-22.0
 31
0.0
  0
LINE
  5
162B
  8
250
 10
-93.970000000000027
 20
-21.0
 30
0.0
 11
-2.2299999999998592
 21
-21.0
 31
0.0
  0
LINE
  5
162F
  8
250
 10
0.0000850883547514
 20
1.1801516606296081
 30
0.0
 11
0.0000850883547518
 21
9.8117747597683849
 31
0.0
  0
LINE
  5
1630
  8
250
 10
-3.664739525725472
 20
4.3449747012943902
 30
0.0
 11
-6.4569489143817798
 21
7.137182891174267
 31
0.0
  0
ARC
  5
1631
  8
250
 10
0.0000850883547514
 20
0.6801516606296099
 30
0.0
 40
8.1316230991387748
 50
105.7623382005622
 51
119.2376740988099
  0
LINE
  5
1635
  8
250
 10
13.60929538865321
 20
1.269999999999994
 30
0.0
 11
13.98096205531988
 21
3.4999999999999951
 31
0.0
  0
LINE
  5
1636
  8
250
 10
14.352628721986539
 20
1.269999999999994
 30
0.0
 11
13.98096205531988
 21
3.4999999999999951
 31
0.0
  0
LINE
  5
1637
  8
250
 10
13.98096205531988
 20
3.4999999999999951
 30
0.0
 11
13.98096205531988
 21
1.269999999999994
 31
0.0
  0
TEXT
  5
1638
  8
250
 10
12.98096205531988
 20
-2.6428571428571419
 30
0.0
 40
3.0
  1
\U+2205
 50
90.0
  0
TEXT
  5
1639
  8
250
 10
12.98096205531988
 20
0.0714285714285703
 30
0.0
 40
3.0
  1
7
 50
90.0
  0
LINE
  5
163A
  8
250
 10
-95.700000000000031
 20
-5.0
 30
0.0
 11
-106.9451305299326
 21
-4.9999999999999947
 31
0.0
  0
LINE
  5
163B
  8
250
 10
-95.700000000000031
 20
5.0
 30
0.0
 11
-106.9451305299326
 21
5.0000000000000018
 31
0.0
  0
LINE
  5
163C
  8
250
 10
-105.9451305299326
 20
-2.769999999999996
 30
0.0
 11
-105.9451305299326
 21
2.7700000000000031
 31
0.0
  0
TEXT
  5
1640
  8
250
 10
-106.9451305299326
 20
-4.0714285714285809
 30
0.0
 40
3.0
  1
\U+2205
 50
90.0
  0
TEXT
  5
1641
  8
250
 10
-106.9451305299326
 20
-1.3571428571428681
 30
0.0
 40
3.0
  1
10
 50
90.0
  0
LINE
  5
1642
  8
250
 10
-106.3167971965992
 20
2.7700000000000031
 30
0.0
 11
-105.9451305299326
 21
5.0000000000000018
 31
0.0
  0
LINE
  5
1643
  8
250
 10
-105.5734638632659
 20
2.7700000000000031
 30
0.0
 11
-105.9451305299326
 21
5.0000000000000018
 31
0.0
  0
LINE
  5
1644
  8
250
 10
-105.9451305299326
 20
5.0000000000000018
 30
0.0
 11
-105.9451305299326
 21
2.7700000000000031
 31
0.0
  0
LINE
  5
1645
  8
250
 10
-105.5734638632659
 20
-2.769999999999996
 30
0.0
 11
-105.9451305299326
 21
-4.9999999999999947
 31
0.0
  0
LINE
  5
1646
  8
250
 10
-106.3167971965992
 20
-2.769999999999996
 30
0.0
 11
-105.9451305299326
 21
-4.9999999999999947
 31
0.0
  0
LINE
  5
1647
  8
250
 10
-105.9451305299326
 20
-4.9999999999999947
 30
0.0
 11
-105.9451305299326
 21
-2.769999999999996
 31
0.0
  0
TEXT
  5
1648
  8
250
 10
-58.028571428571382
 20
-20.0
 30
0.0
 40
3.0
  1
96
  0
LINE
  5
1649
  8
250
 10
-2.2299999999998592
 20
-20.62833333333333
 30
0.0
 11
0.0000000000001408
 21
-21.0
 31
0.0
  0
LINE
  5
164A
  8
250
 10
-2.2299999999998592
 20
-21.371666666666648
 30
0.0
 11
0.0000000000001408
 21
-21.0
 31
0.0
  0
LINE
  5
164B
  8
250
 10
0.0000000000001408
 20
-21.0
 30
0.0
 11
-2.2299999999998592
 21
-21.0
 31
0.0
  0
LINE
  5
164C
  8
250
 10
-93.970000000000027
 20
-21.371666666666648
 30
0.0
 11
-96.200000000000045
 21
-21.0
 31
0.0
  0
LINE
  5
164D
  8
250
 10
-93.970000000000027
 20
-20.62833333333333
 30
0.0
 11
-96.200000000000045
 21
-21.0
 31
0.0
  0
LINE
  5
164E
  8
250
 10
-96.200000000000045
 20
-21.0
 30
0.0
 11
-93.970000000000027
 21
-21.0
 31
0.0
  0
LINE
  5
164F
  8
250
 10
-2.2299999999999991
 20
-13.62833333333333
 30
0.0
 11
-0.0000000000000009
 21
-14.0
 31
0.0
  0
LINE
  5
1650
  8
250
 10
-2.2299999999999991
 20
-14.371666666666661
 30
0.0
 11
-0.0000000000000009
 21
-14.0
 31
0.0
  0
LINE
  5
1651
  8
250
 10
-0.0000000000000009
 20
-14.0
 30
0.0
 11
-2.2299999999999991
 21
-14.0
 31
0.0
  0
LINE
  5
1652
  8
250
 10
-32.898203230275627
 20
-14.371666666666661
 30
0.0
 11
-35.128203230275631
 21
-14.0
 31
0.0
  0
LINE
  5
1653
  8
250
 10
-32.898203230275627
 20
-13.62833333333333
 30
0.0
 11
-35.128203230275631
 21
-14.0
 31
0.0
  0
LINE
  5
1654
  8
250
 10
-35.128203230275631
 20
-14.0
 30
0.0
 11
-32.898203230275627
 21
-14.0
 31
0.0
  0
TEXT
  5
1655
  8
250
 10
5.9999999999999982
 20
-5.6207119280425264
 30
0.0
 40
3.0
  1
\U+2205
 50
90.0
  0
TEXT
  5
1656
  8
250
 10
5.9999999999999982
 20
-2.9064262137568111
 30
0.0
 40
3.0
  1
2
 50
90.0
  0
LINE
  5
1657
  8
250
 10
7.371666666666667
 20
3.229999999999968
 30
0.0
 11
7.0
 21
0.9999999999999694
 31
0.0
  0
LINE
  5
1658
  8
250
 10
6.628333333333333
 20
3.229999999999968
 30
0.0
 11
7.0
 21
0.9999999999999694
 31
0.0
  0
LINE
  5
1659
  8
250
 10
7.0
 20
0.9999999999999694
 30
0.0
 11
7.0
 21
3.229999999999968
 31
0.0
  0
TEXT
  5
165A
  8
250
 10
-7.0542358948641111
 20
8.7040067401738117
 30
0.0
 40
3.0
  1
45üï
 50
14.194210650417141
  0
LINE
  5
165B
  8
250
 10
-3.7473825245060008
 20
7.4794533315626941
 30
0.0
 11
-5.7498419814044972
 21
6.4300762617784883
 31
0.0
  0
LINE
  5
165C
  8
250
 10
-4.1959620853494481
 20
8.0721765570549522
 30
0.0
 11
-5.7498419814044972
 21
6.4300762617784883
 31
0.0
  0
LINE
  5
165D
  8
250
 10
-5.7498419814044972
 20
6.4300762617784883
 30
0.0
 11
-3.9716723049277229
 21
7.7758149443088218
 31
0.0
  0
LINE
  5
165E
  8
250
 10
-2.2598141908646312
 20
8.8741555171765896
 30
0.0
 11
0.0000850883547523
 21
8.8117747597683831
 31
0.0
  0
LINE
  5
165F
  8
250
 10
-2.1578890700662439
 20
8.1378432775698588
 30
0.0
 11
0.0000850883547523
 21
8.8117747597683831
 31
0.0
  0
LINE
  5
1660
  8
250
 10
0.0000850883547523
 20
8.8117747597683831
 30
0.0
 11
-2.2088516304654382
 21
8.5059993973732251
 31
0.0
  0
TEXT
  5
1C61
  8
250
 10
-20.50173756806522
 20
-13.0
 30
0.0
 40
3.0
  1
35
  0
INSERT
  5
201C
  8
240
  2
A$C074263DB
 10
0.0
 20
0.0
 30
0.0
  0
VIEWPORT
  5
22
 67
     1
  8
0
 10
261.51769911504419
 20
148.5
 30
0.0
 40
523.0353982300885
 41
297.0
 68
     1
 69
     1
1001
ACAD
1000
MVIEW
1002
{
1070
    16
1010
0.0
1020
0.0
1030
0.0
1010
0.0
1020
0.0
1030
1.0
1040
0.0
1040
297.0
1040
261.51769911504419
1040
148.5
1040
50.0
1040
0.0
1040
0.0
1070
     0
1070
   100
1070
     1
1070
     1
1070
     0
1070
     0
1070
     0
1070
     0
1040
0.0
1040
0.0
1040
0.0
1040
1.0
1040
1.0
1040
10.0
1040
10.0
1070
     0
1002
{
1002
}
1002
}
1001
GENIUS_GENODEF_13
1002
{
1000
HIER
1070
     0
1002
}
1002
{
1000
MANEDIT
1070
     0
1002
}
1002
{
1000
NOSEL
1070
     0
1002
}
1002
{
1000
BEHIND
1070
     0
1002
}
1002
{
1000
OTHER
1070
     0
1002
}
1002
{
1000
REACTOR
1002
}
1001
GENIUS_GENOBJ-N-SDF_13
1002
{
1000
OWNER
1000
GEN
1002
}
1001
GENIUS_GENSCREG_15
1000
PF
1040
1.0
1000
DF
1040
1.0
1000
MIN
1011
0.0
1021
6.0659880026981984E+067
1031
2.5638146364231921E+112
1021
0.0
1031
0.0
1000
MAX
1011
523.0353982300885
1021
6.0659880026981984E+067
1031
2.5638146364231921E+112
1021
297.0
1031
0.0
1000
FLAGS
1070
     2
  0
ENDSEC
  0
EOF
