  0
SECTION
  2
HEADER
  9
$ACADVER
  1
AC1009
  9
$INSBASE
 10
0.0
 20
0.0
 30
0.0
  9
$EXTMIN
 10
-94.963498004066196
 20
-22.011321147427282
 30
-0.0000000349181948
  9
$EXTMAX
 10
14.991778416744291
 20
23.744520022613301
 30
0.0000000814935746
  9
$LIMMIN
 10
0.0
 20
0.0
  9
$LIMMAX
 10
297.0
 20
210.0
  9
$ORTHOMODE
 70
     1
  9
$REGENMODE
 70
     1
  9
$FILLMODE
 70
     1
  9
$QTEXTMODE
 70
     0
  9
$MIRRTEXT
 70
     1
  9
$DRAGMODE
 70
     2
  9
$LTSCALE
 40
10.0
  9
$OSMODE
 70
  2597
  9
$ATTMODE
 70
     1
  9
$TEXTSIZE
 40
3.0
  9
$TRACEWID
 40
1.0
  9
$TEXTSTYLE
  7
YOKO
  9
$CLAYER
  8
240
  9
$CELTYPE
  6
BYLAYER
  9
$CECOLOR
 62
   256
  9
$DIMSCALE
 40
1.0
  9
$DIMASZ
 40
2.2299999999999991
  9
$DIMEXO
 40
0.5
  9
$DIMDLI
 40
7.0
  9
$DIMRND
 40
0.0
  9
$DIMDLE
 40
0.0
  9
$DIMEXE
 40
1.0
  9
$DIMTP
 40
0.0
  9
$DIMTM
 40
0.01
  9
$DIMTXT
 40
2.7999999999999989
  9
$DIMCEN
 40
0.0
  9
$DIMTSZ
 40
0.0
  9
$DIMTOL
 70
     0
  9
$DIMLIM
 70
     0
  9
$DIMTIH
 70
     0
  9
$DIMTOH
 70
     0
  9
$DIMSE1
 70
     0
  9
$DIMSE2
 70
     0
  9
$DIMTAD
 70
     3
  9
$DIMZIN
 70
     9
  9
$DIMBLK
  1
OPEN
  9
$DIMASO
 70
     1
  9
$DIMSHO
 70
     1
  9
$DIMPOST
  1

  9
$DIMAPOST
  1

  9
$DIMALT
 70
     0
  9
$DIMALTD
 70
     2
  9
$DIMALTF
 40
25.399999999999999
  9
$DIMLFAC
 40
1.0
  9
$DIMTOFL
 70
     1
  9
$DIMTVP
 40
0.0
  9
$DIMTIX
 70
     1
  9
$DIMSOXD
 70
     0
  9
$DIMSAH
 70
     0
  9
$DIMBLK1
  1

  9
$DIMBLK2
  1

  9
$DIMSTYLE
  2
BIGT
  9
$DIMCLRD
 70
   256
  9
$DIMCLRE
 70
   256
  9
$DIMCLRT
 70
    40
  9
$DIMTFAC
 40
1.0
  9
$DIMGAP
 40
1.0
  9
$LUNITS
 70
     2
  9
$LUPREC
 70
     3
  9
$SKETCHINC
 40
1.0
  9
$FILLETRAD
 40
0.0
  9
$AUNITS
 70
     0
  9
$AUPREC
 70
     3
  9
$MENU
  1
.
  9
$ELEVATION
 40
0.0
  9
$PELEVATION
 40
0.0
  9
$THICKNESS
 40
0.0
  9
$LIMCHECK
 70
     0
  9
$BLIPMODE
 70
     0
  9
$CHAMFERA
 40
0.25
  9
$CHAMFERB
 40
0.25
  9
$SKPOLY
 70
     0
  9
$TDCREATE
 40
2454089.7755458802
  9
$TDUPDATE
 40
2454090.378008171
  9
$TDINDWG
 40
0.0113348148
  9
$TDUSRTIMER
 40
0.0113348148
  9
$USRTIMER
 70
     1
  9
$ANGBASE
 50
0.0
  9
$ANGDIR
 70
     0
  9
$PDMODE
 70
     1
  9
$PDSIZE
 40
0.0
  9
$PLINEWID
 40
0.0
  9
$COORDS
 70
     0
  9
$SPLFRAME
 70
     0
  9
$SPLINETYPE
 70
     6
  9
$SPLINESEGS
 70
     4
  9
$ATTDIA
 70
     1
  9
$ATTREQ
 70
     1
  9
$HANDLING
 70
     1
  9
$HANDSEED
  5
1987
  9
$SURFTAB1
 70
     6
  9
$SURFTAB2
 70
     6
  9
$SURFTYPE
 70
     6
  9
$SURFU
 70
     6
  9
$SURFV
 70
     6
  9
$UCSNAME
  2

  9
$UCSORG
 10
0.0
 20
0.0
 30
0.0
  9
$UCSXDIR
 10
1.0
 20
0.0
 30
0.0
  9
$UCSYDIR
 10
0.0
 20
1.0
 30
0.0
  9
$PUCSNAME
  2

  9
$PUCSORG
 10
0.0
 20
0.0
 30
0.0
  9
$PUCSXDIR
 10
1.0
 20
0.0
 30
0.0
  9
$PUCSYDIR
 10
0.0
 20
1.0
 30
0.0
  9
$USERI1
 70
     1
  9
$USERI2
 70
     0
  9
$USERI3
 70
     0
  9
$USERI4
 70
     0
  9
$USERI5
 70
     0
  9
$USERR1
 40
0.0
  9
$USERR2
 40
0.0
  9
$USERR3
 40
0.0
  9
$USERR4
 40
0.0
  9
$USERR5
 40
0.0
  9
$WORLDVIEW
 70
     1
  9
$SHADEDGE
 70
     3
  9
$SHADEDIF
 70
    70
  9
$TILEMODE
 70
     1
  9
$MAXACTVP
 70
    16
  9
$PLIMCHECK
 70
     0
  9
$PEXTMIN
 10
1.0000000000000000E+020
 20
1.0000000000000000E+020
 30
1.0000000000000000E+020
  9
$PEXTMAX
 10
-1.0000000000000000E+020
 20
-1.0000000000000000E+020
 30
-1.0000000000000000E+020
  9
$PLIMMIN
 10
0.0
 20
0.0
  9
$PLIMMAX
 10
420.0
 20
297.0
  9
$UNITMODE
 70
     0
  9
$VISRETAIN
 70
     1
  9
$PLINEGEN
 70
     0
  9
$PSLTSCALE
 70
     1
  0
ENDSEC
  0
SECTION
  2
TABLES
  0
TABLE
  2
VPORT
 70
     3
  0
VPORT
  2
*ACTIVE
 70
     0
 10
0.0
 20
0.0
 11
1.0
 21
1.0
 12
-39.98585979366095
 22
0.8665994375930097
 13
0.0
 23
0.0
 14
7.0
 24
7.0
 15
7.0
 25
7.0
 16
0.0
 26
0.0
 36
1.0
 17
0.0
 27
0.0
 37
0.0
 40
74.705033479362754
 41
1.4791666666666661
 42
50.0
 43
0.0
 44
0.0
 50
0.0
 51
0.0
 71
     0
 72
  2000
 73
     1
 74
     0
 75
     0
 76
     0
 77
     0
 78
     0
  0
ENDTAB
  0
TABLE
  2
LTYPE
 70
    15
  0
LTYPE
  2
CONTINUOUS
 70
     0
  3
Solid line
 72
    65
 73
     0
 40
0.0
  0
LTYPE
  2
CENTER2
 70
     0
  3
___ _ ___ _ ___ _ ___ _ ___ _ ___ _ ___ _ ___ _
 72
    65
 73
     4
 40
1.125
 49
0.75
 49
-0.125
 49
0.125
 49
-0.125
  0
LTYPE
  2
HIDDEN2
 70
     0
  3
_ _ _ _ _ _ _ _ _ _ _ _ _ _ _ _ _ _ _ _ _ _ _ _
 72
    65
 73
     2
 40
0.1875
 49
0.125
 49
-0.0625
  0
LTYPE
  2
PHANTOM2
 70
     0
  3
___ _ _ ___ _ _ ___ _ _ ___ _ _ ___ _ _ ___ _ _
 72
    65
 73
     6
 40
1.25
 49
0.625
 49
-0.125
 49
0.125
 49
-0.125
 49
0.125
 49
-0.125
  0
LTYPE
  2
CENTER
 70
     0
  3
____ _ ____ _ ____ _ ____ _ ____ _ ____ _ ____ 
 72
    65
 73
     4
 40
2.0
 49
1.25
 49
-0.25
 49
0.25
 49
-0.25
  0
LTYPE
  2
AM_ISO02W050
 70
     0
  3
__ __ __ __ __ __ __ __ __ __ __ __ __ __ __
 72
    65
 73
     2
 40
7.5
 49
6.0
 49
-1.5
  0
LTYPE
  2
AMCONSTR
 70
     0
  3
_______________________
 72
    65
 73
     2
 40
9999.0
 49
9999.0
 49
0.0
  0
LTYPE
  2
ACISOWELD
 70
     0
  3
_ _ _ _ _
 72
    65
 73
     2
 40
2.0
 49
2.0
 49
-1.0
  0
LTYPE
  2
ACISOTGB
 70
     0
  3
__ . . __ . .
 72
    65
 73
     6
 40
9.0
 49
4.0
 49
-1.0
 49
1.0
 49
-1.0
 49
1.0
 49
-1.0
  0
LTYPE
  2
ACISOTGL
 70
     0
  3
_ _ _ _ _
 72
    65
 73
     2
 40
3.0
 49
2.0
 49
-1.0
  0
LTYPE
  2
ACJISTGB
 70
     0
  3
__ . . __ . .
 72
    65
 73
     6
 40
9.0
 49
4.0
 49
-1.0
 49
1.0
 49
-1.0
 49
1.0
 49
-1.0
  0
LTYPE
  2
ACJISTGL
 70
     0
  3
_ _ _ _ _
 72
    65
 73
     2
 40
3.0
 49
2.0
 49
-1.0
  0
LTYPE
  2
HIDDEN
 70
     0
  3
Hidden __ __ __ __ __ __ __ __ __ __ __ __ __ _
 72
    65
 73
     2
 40
9.5249999999999986
 49
6.3499999999999988
 49
-3.1749999999999989
  0
ENDTAB
  0
TABLE
  2
LAYER
 70
     8
  0
LAYER
  2
0
 70
     0
 62
     7
  6
CONTINUOUS
  0
LAYER
  2
DEFPOINTS
 70
     0
 62
     7
  6
CONTINUOUS
  0
LAYER
  2
245
 70
     0
 62
     2
  6
CENTER2
  0
LAYER
  2
240
 70
     0
 62
     4
  6
CONTINUOUS
  0
LAYER
  2
241
 70
     0
 62
   211
  6
CONTINUOUS
  0
LAYER
  2
246
 70
     0
 62
     3
  6
PHANTOM2
  0
LAYER
  2
247
 70
     0
 62
    60
  6
CONTINUOUS
  0
LAYER
  2
250
 70
     0
 62
     3
  6
CONTINUOUS
  0
ENDTAB
  0
TABLE
  2
STYLE
 70
     8
  0
STYLE
  2
STANDARD
 70
     0
 40
0.0
 41
1.0
 50
0.0
 71
     0
 42
3.0
  3
romans.shx
  4
extfont.shx
  0
STYLE
  2
ACISOTS
 70
     0
 40
1.0
 41
1.0
 50
0.0
 71
     0
 42
3.0
  3
amgdt.shx
  4
extfont.shx
  0
STYLE
  2
ACISOGDT
 70
     0
 40
0.0
 41
1.0
 50
0.0
 71
     0
 42
3.0
  3
amgdt.shx
  4
extfont.shx
  0
STYLE
  2
ACJISTS
 70
     0
 40
1.0
 41
1.0
 50
0.0
 71
     0
 42
3.0
  3
amgdt.shx
  4
extfont.shx
  0
STYLE
  2
ACJISGDT
 70
     0
 40
0.0
 41
1.0
 50
0.0
 71
     0
 42
3.0
  3
amgdt.shx
  4
extfont.shx
  0
STYLE
  2
YOKO
 70
     0
 40
0.0
 41
1.0
 50
0.0
 71
     0
 42
3.0
  3
romans.shx
  4
extfont.shx
  0
ENDTAB
  0
TABLE
  2
VIEW
 70
     0
  0
ENDTAB
  0
TABLE
  2
UCS
 70
     0
  0
ENDTAB
  0
TABLE
  2
APPID
 70
    31
  0
APPID
  2
ACAD
 70
     0
  0
APPID
  2
GLOBAL
 70
     0
  0
APPID
  2
DETAIL
 70
     0
  0
APPID
  2
GRPNAME
 70
     0
  0
APPID
  2
GPARA
 70
     0
  0
APPID
  2
MCAD_NO_VIS
 70
     0
  0
APPID
  2
ACAD_TEMP_GRAPHIC
 70
     0
  0
APPID
  2
ACATTRIBSERVICES
 70
     0
  0
APPID
  2
GENIUS_GENSCREG_15
 70
     0
  0
APPID
  2
GENIUS_GENODEF_13
 70
     0
  0
APPID
  2
GENIUS_GENOBJ-N-SDF_13
 70
     0
  0
APPID
  2
GENIUS_GENREC_14
 70
     0
  0
APPID
  2
GENIUS_GENOBJ-N-REC_13
 70
     0
  0
APPID
  2
GENIUS_GENDIMSH_14
 70
     0
  0
APPID
  2
GENIUS_GENOBJ-N-DIM_13
 70
     0
  0
APPID
  2
GENIUS_GENDIM_13
 70
     0
  0
APPID
  2
GENIUS_GENDTOL_13
 70
     0
  0
APPID
  2
GENIUS_GENOLIS_13
 70
     0
  0
APPID
  2
GENIUS_GENOENT_13
 70
     0
  0
APPID
  2
GENIUS_GENOBJ-F-FEM_13
 70
     0
  0
APPID
  2
GENIUS_GENOREF_13
 70
     0
  0
APPID
  2
GENIUS_GEFFEM_13
 70
     0
  0
APPID
  2
GENIUS_GEFFEMP_13
 70
     0
  0
APPID
  2
AD_DRAW
 70
     0
  0
APPID
  2
DESIGNERASSEMBLIES
 70
     0
  0
APPID
  2
ACADM_DIM_EDIT
 70
     0
  0
APPID
  2
AMDT_DM_ADJ
 70
     0
  0
APPID
  2
GENIUS_GENOBJ-N-FIL_13
 70
     0
  0
APPID
  2
HATCH_TYPE
 70
     0
  0
APPID
  2
HATCH_DISPLAY
 70
     0
  0
APPID
  2
HATCH_DISTANCE
 70
     0
  0
ENDTAB
  0
TABLE
  2
DIMSTYLE
 70
    29
  0
DIMSTYLE
  2
BIGT
 70
     0
  3

  4

  5
OPEN
  6

  7

 40
1.0
 41
2.2299999999999991
 42
0.5
 43
7.0
 44
1.0
 45
0.0
 46
0.0
 47
0.0
 48
0.01
140
2.7999999999999989
141
0.0
142
0.0
143
25.399999999999999
144
1.0
145
0.0
146
1.0
147
1.0
 71
     0
 72
     0
 73
     0
 74
     0
 75
     0
 76
     0
 77
     3
 78
     9
170
     0
171
     2
172
     1
173
     0
174
     1
175
     0
176
   256
177
   256
178
    40
  0
DIMSTYLE
  2
AM_ISO
 70
     0
  3

  4
"
  5

  6

  7

 40
1.0
 41
2.5
 42
1.0
 43
10.0
 44
1.0
 45
0.0
 46
0.0
 47
0.1
 48
0.1
140
3.5
141
0.0
142
0.0
143
0.0393701
144
1.0
145
0.0
146
0.71
147
1.5
 71
     0
 72
     0
 73
     0
 74
     0
 75
     0
 76
     0
 77
     1
 78
     8
170
     0
171
     2
172
     1
173
     0
174
     0
175
     0
176
   256
177
   256
178
     2
  0
DIMSTYLE
  2
AM_ISO$3
 70
     0
  3

  4
"
  5

  6

  7

 40
1.0
 41
2.5
 42
1.0
 43
10.0
 44
1.0
 45
0.0
 46
0.0
 47
0.1
 48
0.1
140
3.5
141
0.0
142
0.0
143
0.0393701
144
1.0
145
0.0
146
0.71
147
1.5
 71
     0
 72
     0
 73
     0
 74
     1
 75
     0
 76
     0
 77
     1
 78
     8
170
     0
171
     2
172
     0
173
     0
174
     0
175
     0
176
   256
177
   256
178
     2
  0
DIMSTYLE
  2
AM_ISO$4
 70
     0
  3

  4
"
  5

  6

  7

 40
1.0
 41
2.5
 42
1.0
 43
10.0
 44
1.0
 45
0.0
 46
0.0
 47
0.1
 48
0.1
140
3.5
141
0.0
142
0.0
143
0.0393701
144
1.0
145
0.0
146
0.71
147
1.5
 71
     0
 72
     0
 73
     0
 74
     1
 75
     0
 76
     0
 77
     1
 78
     8
170
     0
171
     2
172
     0
173
     0
174
     0
175
     0
176
   256
177
   256
178
     2
  0
DIMSTYLE
  2
AM_ISO$6
 70
     0
  3

  4
"
  5

  6

  7

 40
1.0
 41
2.5
 42
1.0
 43
10.0
 44
1.0
 45
0.0
 46
0.0
 47
0.1
 48
0.1
140
3.5
141
0.0
142
0.0
143
0.0393701
144
1.0
145
0.0
146
0.71
147
1.5
 71
     0
 72
     0
 73
     0
 74
     0
 75
     0
 76
     0
 77
     0
 78
     8
170
     0
171
     2
172
     1
173
     0
174
     0
175
     0
176
   256
177
   256
178
     2
  0
DIMSTYLE
  2
AM_ISO$7
 70
     0
  3

  4
"
  5

  6

  7

 40
1.0
 41
2.5
 42
1.0
 43
10.0
 44
1.0
 45
0.0
 46
0.0
 47
0.1
 48
0.1
140
5.0
141
0.0
142
0.0
143
0.0393701
144
1.0
145
0.0
146
0.71
147
1.5
 71
     0
 72
     0
 73
     0
 74
     0
 75
     0
 76
     0
 77
     1
 78
     8
170
     0
171
     2
172
     1
173
     0
174
     0
175
     0
176
   256
177
   256
178
     2
  0
DIMSTYLE
  2
AM_ISO$SF
 70
     0
  3

  4
"
  5

  6

  7

 40
1.0
 41
2.5
 42
1.0
 43
10.0
 44
1.0
 45
0.0
 46
0.0
 47
0.1
 48
0.1
140
3.5
141
0.0
142
0.0
143
0.0393701
144
1.0
145
0.0
146
0.71
147
1.5
 71
     0
 72
     0
 73
     0
 74
     0
 75
     1
 76
     1
 77
     1
 78
     8
170
     0
171
     2
172
     1
173
     0
174
     0
175
     0
176
   256
177
   256
178
     2
  0
DIMSTYLE
  2
AM_ISO$SH
 70
     0
  3

  4
"
  5

  6
GENAXEH
  7

 40
1.0
 41
2.5
 42
1.0
 43
10.0
 44
1.0
 45
0.0
 46
0.0
 47
0.1
 48
0.1
140
3.5
141
0.0
142
0.0
143
0.0393701
144
2.0
145
0.0
146
0.71
147
1.5
 71
     0
 72
     0
 73
     0
 74
     0
 75
     1
 76
     1
 77
     1
 78
     8
170
     0
171
     2
172
     1
173
     1
174
     0
175
     0
176
   256
177
   256
178
     2
  0
DIMSTYLE
  2
BIGT$2
 70
     0
  3

  4

  5
OPEN
  6

  7

 40
1.0
 41
2.2299999999999991
 42
0.5
 43
7.0
 44
1.0
 45
0.0
 46
0.0
 47
0.0
 48
0.01
140
2.7999999999999989
141
0.0
142
0.0
143
25.399999999999999
144
1.0
145
0.0
146
1.0
147
1.0
 71
     0
 72
     0
 73
     0
 74
     0
 75
     0
 76
     0
 77
     3
 78
     9
170
     0
171
     2
172
     1
173
     0
174
     0
175
     0
176
   256
177
   256
178
    40
  0
DIMSTYLE
  2
BIGT$3
 70
     0
  3

  4

  5
OPEN
  6

  7

 40
1.0
 41
2.2299999999999991
 42
0.5
 43
2.5
 44
1.0
 45
0.0
 46
0.0
 47
0.0
 48
0.01
140
2.7999999999999989
141
0.0
142
0.0
143
25.399999999999999
144
1.0
145
0.0
146
1.0
147
1.0
 71
     0
 72
     0
 73
     0
 74
     0
 75
     0
 76
     0
 77
     3
 78
     9
170
     0
171
     2
172
     1
173
     0
174
     0
175
     0
176
   256
177
   256
178
    40
  0
DIMSTYLE
  2
BIGT$7
 70
     0
  3

  4

  5
OPEN
  6

  7

 40
0.0
 41
2.2299999999999991
 42
0.5
 43
7.0
 44
1.0
 45
0.0
 46
0.0
 47
0.0
 48
0.01
140
2.7999999999999989
141
0.0
142
0.0
143
25.399999999999999
144
1.0
145
0.0
146
1.0
147
1.0
 71
     0
 72
     0
 73
     0
 74
     0
 75
     0
 76
     0
 77
     3
 78
     9
170
     0
171
     2
172
     0
173
     0
174
     0
175
     0
176
   256
177
   256
178
    40
  0
DIMSTYLE
  2
BIGT$6
 70
     0
  3

  4

  5
OPEN
  6

  7

 40
1.0
 41
2.2299999999999991
 42
0.5
 43
2.5
 44
1.0
 45
0.0
 46
0.0
 47
0.0
 48
0.01
140
2.7999999999999989
141
0.0
142
0.0
143
25.399999999999999
144
1.0
145
0.0
146
1.0
147
1.0
 71
     0
 72
     0
 73
     0
 74
     0
 75
     0
 76
     0
 77
     3
 78
     9
170
     0
171
     2
172
     1
173
     0
174
     0
175
     0
176
   256
177
   256
178
    40
  0
DIMSTYLE
  2
BIGT$0
 70
     0
  3

  4

  5
OPEN
  6

  7

 40
1.0
 41
2.2299999999999991
 42
0.5
 43
7.0
 44
1.0
 45
0.0
 46
0.0
 47
0.0
 48
0.01
140
2.7999999999999989
141
0.0
142
0.0
143
25.399999999999999
144
1.0
145
0.0
146
1.0
147
1.0
 71
     0
 72
     0
 73
     0
 74
     0
 75
     0
 76
     0
 77
     3
 78
     9
170
     0
171
     2
172
     1
173
     0
174
     0
175
     0
176
   256
177
   256
178
    40
  0
DIMSTYLE
  2
BIGT$4
 70
     0
  3

  4

  5
OPEN
  6

  7

 40
1.0
 41
2.2299999999999991
 42
0.5
 43
2.5
 44
1.0
 45
0.0
 46
0.0
 47
0.0
 48
0.01
140
2.7999999999999989
141
0.0
142
0.0
143
25.399999999999999
144
1.0
145
0.0
146
1.0
147
1.0
 71
     0
 72
     0
 73
     0
 74
     0
 75
     0
 76
     0
 77
     3
 78
     9
170
     0
171
     2
172
     1
173
     0
174
     0
175
     0
176
   256
177
   256
178
    40
  0
DIMSTYLE
  2
BIGT$SH
 70
     0
  3

  4

  5
OPEN
  6

  7

 40
1.0
 41
2.2299999999999991
 42
0.5
 43
7.0
 44
1.0
 45
0.0
 46
0.0
 47
0.0
 48
0.0
140
2.7999999999999989
141
0.0
142
0.0
143
25.399999999999999
144
1.0
145
0.0
146
1.0
147
1.0
 71
     0
 72
     0
 73
     0
 74
     0
 75
     0
 76
     0
 77
     3
 78
     9
170
     0
171
     2
172
     1
173
     0
174
     0
175
     0
176
   256
177
   256
178
    40
  0
DIMSTYLE
  2
BIGT$SF
 70
     0
  3

  4

  5
OPEN
  6

  7

 40
1.0
 41
2.2299999999999991
 42
0.5
 43
7.0
 44
1.0
 45
0.0
 46
0.0
 47
0.0
 48
0.0
140
2.7999999999999989
141
0.0
142
0.0
143
25.399999999999999
144
1.0
145
0.0
146
1.0
147
1.0
 71
     0
 72
     0
 73
     0
 74
     0
 75
     0
 76
     0
 77
     3
 78
     9
170
     0
171
     2
172
     1
173
     0
174
     0
175
     0
176
   256
177
   256
178
    40
  0
DIMSTYLE
  2
TECHNICAL_OSAKA
 70
     0
  3

  4
"
  5
OPEN30
  6

  7

 40
1.0
 41
2.5
 42
1.0
 43
10.0
 44
1.0
 45
0.0
 46
0.0
 47
0.1
 48
0.1
140
2.7999999999999989
141
0.0
142
0.0
143
0.0393701
144
1.0
145
0.0
146
0.71
147
1.5
 71
     0
 72
     0
 73
     0
 74
     0
 75
     0
 76
     0
 77
     3
 78
     8
170
     0
171
     2
172
     1
173
     0
174
     0
175
     0
176
   256
177
   256
178
    40
  0
DIMSTYLE
  2
TECHNICAL_OSAKA$3
 70
     0
  3

  4
"
  5
OPEN30
  6

  7

 40
1.0
 41
2.5
 42
1.0
 43
10.0
 44
1.0
 45
0.0
 46
0.0
 47
0.1
 48
0.1
140
2.7999999999999989
141
0.0
142
0.0
143
0.0393701
144
1.0
145
0.0
146
0.71
147
1.5
 71
     0
 72
     0
 73
     0
 74
     1
 75
     0
 76
     0
 77
     3
 78
     8
170
     0
171
     2
172
     0
173
     0
174
     0
175
     0
176
   256
177
   256
178
    40
  0
DIMSTYLE
  2
TECHNICAL_OSAKA$4
 70
     0
  3

  4
"
  5
OPEN30
  6

  7

 40
1.0
 41
2.5
 42
1.0
 43
10.0
 44
1.0
 45
0.0
 46
0.0
 47
0.1
 48
0.1
140
2.7999999999999989
141
0.0
142
0.0
143
0.0393701
144
1.0
145
0.0
146
0.71
147
1.5
 71
     0
 72
     0
 73
     0
 74
     1
 75
     0
 76
     0
 77
     3
 78
     8
170
     0
171
     2
172
     0
173
     0
174
     0
175
     0
176
   256
177
   256
178
    40
  0
DIMSTYLE
  2
TECHNICAL_OSAKA$6
 70
     0
  3

  4
"
  5
OPEN30
  6

  7

 40
1.0
 41
2.5
 42
1.0
 43
10.0
 44
1.0
 45
0.0
 46
0.0
 47
0.1
 48
0.1
140
2.7999999999999989
141
0.0
142
0.0
143
0.0393701
144
1.0
145
0.0
146
0.71
147
1.5
 71
     0
 72
     0
 73
     0
 74
     0
 75
     0
 76
     0
 77
     0
 78
     8
170
     0
171
     2
172
     1
173
     0
174
     0
175
     0
176
   256
177
   256
178
    40
  0
DIMSTYLE
  2
TECHNICAL_OSAKA$7
 70
     0
  3

  4
"
  5
OPEN30
  6

  7

 40
1.0
 41
2.5
 42
1.0
 43
10.0
 44
1.0
 45
0.0
 46
0.0
 47
0.1
 48
0.1
140
2.7999999999999989
141
0.0
142
0.0
143
0.0393701
144
1.0
145
0.0
146
0.71
147
1.5
 71
     0
 72
     0
 73
     0
 74
     0
 75
     0
 76
     0
 77
     3
 78
     8
170
     0
171
     2
172
     1
173
     0
174
     0
175
     0
176
   256
177
   256
178
    40
  0
DIMSTYLE
  2
TECHNICAL_OSAKA$SF
 70
     0
  3

  4
"
  5
OPEN30
  6
OPEN30
  7
OPEN30
 40
1.0
 41
2.5
 42
1.0
 43
10.0
 44
1.0
 45
0.0
 46
0.0
 47
0.1
 48
0.1
140
3.5
141
0.0
142
0.0
143
0.0393701
144
1.0
145
0.0
146
0.71
147
1.5
 71
     0
 72
     0
 73
     0
 74
     0
 75
     1
 76
     1
 77
     3
 78
     8
170
     0
171
     2
172
     1
173
     0
174
     0
175
     0
176
   256
177
   256
178
    40
  0
DIMSTYLE
  2
TECHNICAL_OSAKA$SH
 70
     0
  3

  4
"
  5
OPEN30
  6
GENAXEH
  7
OPEN30
 40
1.0
 41
2.5
 42
1.0
 43
10.0
 44
1.0
 45
0.0
 46
0.0
 47
0.1
 48
0.1
140
3.5
141
0.0
142
0.0
143
0.0393701
144
2.0
145
0.0
146
0.71
147
1.5
 71
     0
 72
     0
 73
     0
 74
     0
 75
     1
 76
     1
 77
     3
 78
     8
170
     0
171
     2
172
     1
173
     1
174
     0
175
     0
176
   256
177
   256
178
    40
  0
ENDTAB
  0
ENDSEC
  0
SECTION
  2
BLOCKS
  0
BLOCK
  8
0
  2
$MODEL_SPACE
 70
     0
 10
0.0
 20
0.0
 30
0.0
  3
$MODEL_SPACE
  1

  0
ENDBLK
  5
1C
  8
0
  0
BLOCK
 67
     1
  8
0
  2
$PAPER_SPACE
 70
     0
 10
0.0
 20
0.0
 30
0.0
  3
$PAPER_SPACE
  1

  0
ENDBLK
  5
19
 67
     1
  8
0
  0
BLOCK
  8
0
  2
_OPEN
 70
     0
 10
0.0
 20
0.0
 30
0.0
  3
_OPEN
  1

  0
LINE
  5
17D6
  8
0
  6
BYBLOCK
 62
     0
 10
-1.0
 20
0.1666666666666666
 30
0.0
 11
0.0
 21
0.0
 31
0.0
  0
LINE
  5
17D7
  8
0
  6
BYBLOCK
 62
     0
 10
-1.0
 20
-0.1666666666666666
 30
0.0
 11
0.0
 21
0.0
 31
0.0
  0
LINE
  5
17D8
  8
0
  6
BYBLOCK
 62
     0
 10
0.0
 20
0.0
 30
0.0
 11
-1.0
 21
0.0
 31
0.0
  0
ENDBLK
  5
17D9
  8
0
  0
BLOCK
  8
0
  2
GENAXEH
 70
     0
 10
0.0
 20
0.0
 30
0.0
  3
GENAXEH
  1

  0
LINE
  5
1801
  8
0
 10
-1.0
 20
0.0
 30
0.0
 11
1.0
 21
0.0
 31
0.0
  0
ENDBLK
  5
1802
  8
0
  0
BLOCK
  8
0
  2
_OPEN30
 70
     0
 10
0.0
 20
0.0
 30
0.0
  3
_OPEN30
  1

  0
LINE
  5
1826
  8
0
  6
BYBLOCK
 62
     0
 10
-1.0
 20
0.26794919
 30
0.0
 11
0.0
 21
0.0
 31
0.0
  0
LINE
  5
1827
  8
0
  6
BYBLOCK
 62
     0
 10
0.0
 20
0.0
 30
0.0
 11
-1.0
 21
-0.26794919
 31
0.0
  0
LINE
  5
1828
  8
0
  6
BYBLOCK
 62
     0
 10
0.0
 20
0.0
 30
0.0
 11
-1.0
 21
0.0
 31
0.0
  0
ENDBLK
  5
1829
  8
0
  0
BLOCK
  8
0
  2
*X3
 70
     1
 10
0.0
 20
0.0
 30
0.0
  3
*X3
  1

  0
LINE
  5
1675
  8
0
 62
     0
 10
4.2731626460786947
 20
-5.8571670211471272
 30
0.0
 11
3.510115154589633
 21
-5.094119529658065
 31
0.0
  0
LINE
  5
1676
  8
0
 62
     0
 10
3.4940719416106631
 20
-5.336707692965879
 30
0.0
 11
3.1883917659254011
 21
-5.03102751728062
 31
0.0
  0
LINE
  5
1677
  8
0
 62
     0
 10
4.3362546584561468
 20
-6.1788904098113662
 30
0.0
 11
4.0305744827708789
 21
-5.8732102341260974
 31
0.0
  0
LINE
  5
1678
  8
0
 62
     0
 10
3.1614668723394019
 20
-5.2627339999814282
 30
0.0
 11
2.9403393877385029
 21
-5.0416065153805292
 31
0.0
  0
LINE
  5
1679
  8
0
 62
     0
 10
4.3383903626899851
 20
-6.4396574903320092
 30
0.0
 11
4.1045481757553324
 21
-6.2058153033973582
 31
0.0
  0
LINE
  5
167A
  8
0
 62
     0
 10
2.9211994892945921
 20
-5.281097993223403
 30
0.0
 11
2.7312050109658861
 21
-5.091103514894697
 31
0.0
  0
LINE
  5
167B
  8
0
 62
     0
 10
4.338390362689978
 20
-6.6982888666187881
 30
0.0
 11
4.1055856811814859
 21
-6.4654841851102969
 31
0.0
  0
LINE
  5
167C
  8
0
 62
     0
 10
2.7241461983551201
 20
-5.342676078570725
 30
0.0
 11
2.549611000613679
 21
-5.1681408808292844
 31
0.0
  0
LINE
  5
167D
  8
0
 62
     0
 10
4.338390362689978
 20
-6.9569202429055821
 30
0.0
 11
4.1055856811814859
 21
-6.7241155613970891
 31
0.0
  0
LINE
  5
167E
  8
0
 62
     0
 10
2.5574155323842751
 20
-5.4345767888866652
 30
0.0
 11
2.3904879894348241
 21
-5.2676492459372142
 31
0.0
  0
LINE
  5
167F
  8
0
 62
     0
 10
4.3383903626899851
 20
-7.2155516191923743
 30
0.0
 11
4.1055856811814859
 21
-6.982746937683876
 31
0.0
  0
LINE
  5
1680
  8
0
 62
     0
 10
2.4161255819181511
 20
-5.5519182147073352
 30
0.0
 11
2.2515077835827939
 21
-5.3873004163719713
 31
0.0
  0
LINE
  5
1681
  8
0
 62
     0
 10
4.3383903626899851
 20
-7.4741829954791612
 30
0.0
 11
4.105585681181493
 21
-7.2413783139706691
 31
0.0
  0
LINE
  5
1682
  8
0
 62
     0
 10
2.2989457159389901
 20
-5.6933697250149731
 30
0.0
 11
2.1319866093836382
 21
-5.5264106184596198
 31
0.0
  0
LINE
  5
1683
  8
0
 62
     0
 10
4.3383903626899851
 20
-7.7328143717659659
 30
0.0
 11
4.1055856811814788
 21
-7.5000096902574631
 31
0.0
  0
LINE
  5
1684
  8
0
 62
     0
 10
2.2072252078153962
 20
-5.8602805931781683
 30
0.0
 11
2.0326176602498318
 21
-5.6856730456126021
 31
0.0
  0
LINE
  5
1685
  8
0
 62
     0
 10
4.338390362689978
 20
-7.9914457480527474
 30
0.0
 11
4.1055856811814859
 21
-7.758641066544258
 31
0.0
  0
LINE
  5
1686
  8
0
 62
     0
 10
2.1458777492053529
 20
-6.0575645108549079
 30
0.0
 11
1.955742399326019
 21
-5.8674291609755747
 31
0.0
  0
LINE
  5
1687
  8
0
 62
     0
 10
4.338390362689978
 20
-8.2500771243395334
 30
0.0
 11
4.1055856811814859
 21
-8.0172724428310431
 31
0.0
  0
LINE
  5
1688
  8
0
 62
     0
 10
2.127884606905837
 20
-6.298202744842186
 30
0.0
 11
1.9064556573934921
 21
-6.0767737953298484
 31
0.0
  0
LINE
  5
1689
  8
0
 62
     0
 10
4.3383903626899851
 20
-8.5087085006263337
 30
0.0
 11
4.1055856811814859
 21
-8.2759038191178362
 31
0.0
  0
LINE
  5
168A
  8
0
 62
     0
 10
2.0859571237484991
 20
-6.5149066379716469
 30
0.0
 11
1.896203437136684
 21
-6.325152951359831
 31
0.0
  0
LINE
  5
168B
  8
0
 62
     0
 10
4.338390362689978
 20
-8.7673398769131268
 30
0.0
 11
4.1055856811814859
 21
-8.5345351954046365
 31
0.0
  0
LINE
  5
168C
  8
0
 62
     0
 10
4.338390362689978
 20
-9.0259712531999217
 30
0.0
 11
4.1055856811814859
 21
-8.7931665716914225
 31
0.0
  0
LINE
  5
168D
  8
0
 62
     0
 10
4.338390362689978
 20
-9.2846026294867041
 30
0.0
 11
4.1055856811814859
 21
-9.0517979479782156
 31
0.0
  0
LINE
  5
168E
  8
0
 62
     0
 10
4.338390362689978
 20
-9.5432340057735008
 30
0.0
 11
4.1055856811814859
 21
-9.3104293242649998
 31
0.0
  0
LINE
  5
168F
  8
0
 62
     0
 10
4.3383903626899851
 20
-9.8018653820602903
 30
0.0
 11
4.1055856811814859
 21
-9.5690607005517911
 31
0.0
  0
LINE
  5
1690
  8
0
 62
     0
 10
4.3383903626899851
 20
-10.06049675834708
 30
0.0
 11
4.105585681181493
 21
-9.8276920768385896
 31
0.0
  0
LINE
  5
1691
  8
0
 62
     0
 10
4.338390362689978
 20
-10.31912813463388
 30
0.0
 11
4.1055856811814859
 21
-10.086323453125379
 31
0.0
  0
LINE
  5
1692
  8
0
 62
     0
 10
4.338390362689978
 20
-10.577759510920661
 30
0.0
 11
4.1055856811814859
 21
-10.34495482941217
 31
0.0
  0
LINE
  5
1693
  8
0
 62
     0
 10
4.338390362689978
 20
-10.836390887207459
 30
0.0
 11
4.1055856811814859
 21
-10.60358620569896
 31
0.0
  0
LINE
  5
1694
  8
0
 62
     0
 10
4.3331743680063184
 20
-11.08980626881058
 30
0.0
 11
4.1055856811814859
 21
-10.862217581985741
 31
0.0
  0
LINE
  5
1695
  8
0
 62
     0
 10
4.2927234683474307
 20
-11.30798674543848
 30
0.0
 11
4.0963826280125399
 21
-11.11164590510359
 31
0.0
  0
LINE
  5
1696
  8
0
 62
     0
 10
4.2225300722551111
 20
-11.496424725632959
 30
0.0
 11
4.0447379717610357
 21
-11.31863262513888
 31
0.0
  0
LINE
  5
1697
  8
0
 62
     0
 10
4.1288343457024572
 20
-11.661360375367099
 30
0.0
 11
3.9604188359354979
 21
-11.492944865600141
 31
0.0
  0
LINE
  5
1698
  8
0
 62
     0
 10
4.0145495478446014
 20
-11.80570695379603
 30
0.0
 11
3.8497662771754819
 21
-11.640923683126911
 31
0.0
  0
LINE
  5
1699
  8
0
 62
     0
 10
3.8807570971703012
 20
-11.93054587940852
 30
0.0
 11
3.7149104705198961
 21
-11.76469925275811
 31
0.0
  0
LINE
  5
169A
  8
0
 62
     0
 10
3.7271431977453049
 20
-12.03556335627032
 30
0.0
 11
3.555244829520197
 21
-11.86366498804521
 31
0.0
  0
LINE
  5
169B
  8
0
 62
     0
 10
2.1267631408982761
 20
-10.69381467571009
 30
0.0
 11
1.9433546960822801
 21
-10.51040623089408
 31
0.0
  0
LINE
  5
169C
  8
0
 62
     0
 10
3.551878254361716
 20
-12.11892978917353
 30
0.0
 11
3.367040741413724
 21
-11.93409227622552
 31
0.0
  0
LINE
  5
169D
  8
0
 62
     0
 10
2.1267631408982761
 20
-10.95244605199688
 30
0.0
 11
1.8939584533982821
 21
-10.719641364496891
 31
0.0
  0
LINE
  5
169E
  8
0
 62
     0
 10
3.3508120748548631
 20
-12.17649498595347
 30
0.0
 11
3.1404436980890349
 21
-11.96612660918764
 31
0.0
  0
LINE
  5
169F
  8
0
 62
     0
 10
2.1649602340683511
 20
-11.24927452145374
 30
0.0
 11
1.8939591030962699
 21
-10.978273390481659
 31
0.0
  0
LINE
  5
16A0
  8
0
 62
     0
 10
3.1149140586925621
 20
-12.19922834607795
 30
0.0
 11
2.84391292772048
 21
-11.928227215105871
 31
0.0
  0
LINE
  5
16A1
  8
0
 62
     0
 10
2.819806896892358
 20
-12.162752560564529
 30
0.0
 11
1.930434888609696
 21
-11.27338055228187
 31
0.0
  0
ENDBLK
  5
16A2
  8
0
  0
BLOCK
  8
0
  2
*X4
 70
     1
 10
0.0
 20
0.0
 30
0.0
  3
*X4
  1

  0
LINE
  5
16A5
  8
0
 62
     0
 10
3.9891833374314549
 20
-8.6767642279413906
 30
0.0
 11
3.9699999022341199
 21
-8.6575807927440565
 31
0.0
  0
LINE
  5
16A6
  8
0
 62
     0
 10
3.9891833374314549
 20
-8.9353956042281801
 30
0.0
 11
3.6073930521298849
 21
-8.5536053189266141
 31
0.0
  0
LINE
  5
16A7
  8
0
 62
     0
 10
3.9748178468112911
 20
-9.179661489894805
 30
0.0
 11
3.2447862020256362
 21
-8.4496298451091505
 31
0.0
  0
LINE
  5
16A8
  8
0
 62
     0
 10
3.61220957775957
 20
-9.0756845971298841
 30
0.0
 11
2.8821793519213941
 21
-8.3456543712917011
 31
0.0
  0
LINE
  5
16A9
  8
0
 62
     0
 10
3.249601308707851
 20
-8.9717077043649454
 30
0.0
 11
2.5195725018171511
 21
-8.2416788974742428
 31
0.0
  0
LINE
  5
16AA
  8
0
 62
     0
 10
2.886993039656117
 20
-8.8677308116000102
 30
0.0
 11
2.1569656517129001
 21
-8.1377034236567951
 31
0.0
  0
LINE
  5
16AB
  8
0
 62
     0
 10
2.5243847706043909
 20
-8.7637539188350786
 30
0.0
 11
1.8939584533982821
 21
-8.1333276016289702
 31
0.0
  0
LINE
  5
16AC
  8
0
 62
     0
 10
2.1617765015526582
 20
-8.659777026070131
 30
0.0
 11
1.8939584533982901
 21
-8.3919589779157633
 31
0.0
  0
LINE
  5
16AD
  8
0
 62
     0
 10
1.918015068738405
 20
-8.674646969542664
 30
0.0
 11
1.8939584533982821
 21
-8.6505903542025422
 31
0.0
  0
ENDBLK
  5
16AE
  8
0
  0
BLOCK
  8
0
  2
*X5
 70
     1
 10
0.0
 20
0.0
 30
0.0
  3
*X5
  1

  0
LINE
  5
16B1
  8
0
 62
     0
 10
3.8682112041804739
 20
-7.0040038369696571
 30
0.0
 11
3.6499603235052889
 21
-6.7857529562944654
 31
0.0
  0
LINE
  5
16B2
  8
0
 62
     0
 10
3.9856529491582999
 20
-7.380076958234282
 30
0.0
 11
3.2873524678243831
 21
-6.6817764769003682
 31
0.0
  0
LINE
  5
16B3
  8
0
 62
     0
 10
3.617185728354428
 20
-7.2702411137172032
 30
0.0
 11
2.924744612143483
 21
-6.5777999975062542
 31
0.0
  0
LINE
  5
16B4
  8
0
 62
     0
 10
3.9698966386926511
 20
-7.6229520240554223
 30
0.0
 11
3.6965801245195551
 21
-7.3496355098823241
 31
0.0
  0
LINE
  5
16B5
  8
0
 62
     0
 10
3.2412377906756031
 20
-7.1529245523251603
 30
0.0
 11
2.8018861877732841
 21
-6.7135729494228391
 31
0.0
  0
LINE
  5
16B6
  8
0
 62
     0
 10
3.8992580266775061
 20
-7.8109447883270624
 30
0.0
 11
3.6959786603753511
 21
-7.6076654220249154
 31
0.0
  0
LINE
  5
16B7
  8
0
 62
     0
 10
3.034690875273276
 20
-7.2050090132096241
 30
0.0
 11
2.8018861877732761
 21
-6.9722043257096251
 31
0.0
  0
LINE
  5
16B8
  8
0
 62
     0
 10
3.792131315773708
 20
-7.9624494537100619
 30
0.0
 11
3.5455738235496881
 21
-7.715891961486034
 31
0.0
  0
LINE
  5
16B9
  8
0
 62
     0
 10
2.2029885065044099
 20
-6.6319380207275591
 30
0.0
 11
2.1787499076577741
 21
-6.6076994218809233
 31
0.0
  0
LINE
  5
16BA
  8
0
 62
     0
 10
3.6531656331833759
 20
-8.082115147406526
 30
0.0
 11
3.2290805876554312
 21
-7.6580301018785786
 31
0.0
  0
LINE
  5
16BB
  8
0
 62
     0
 10
2.2677871082174681
 20
-6.9553679987274011
 30
0.0
 11
1.982121972154764
 21
-6.6697028626646979
 31
0.0
  0
LINE
  5
16BC
  8
0
 62
     0
 10
3.4804499382598579
 20
-8.168030828769794
 30
0.0
 11
2.8664723785437469
 21
-7.5540532690536812
 31
0.0
  0
LINE
  5
16BD
  8
0
 62
     0
 10
2.1576583608831101
 20
-7.1038706276798393
 30
0.0
 11
1.98333579740042
 21
-6.9295480641971476
 31
0.0
  0
LINE
  5
16BE
  8
0
 62
     0
 10
3.262962952369413
 20
-8.2091752191661413
 30
0.0
 11
2.5038641694320689
 21
-7.4500764362287981
 31
0.0
  0
LINE
  5
16BF
  8
0
 62
     0
 10
2.9676848492862362
 20
-8.1725284923697501
 30
0.0
 11
1.912955328823172
 21
-7.1177989719066872
 31
0.0
  0
LINE
  5
16C0
  8
0
 62
     0
 10
2.6231897125881769
 20
-8.0866647319584857
 30
0.0
 11
1.8976699797883041
 21
-7.3611449991586113
 31
0.0
  0
ENDBLK
  5
16C1
  8
0
  0
BLOCK
  8
0
  2
A$C1EB97502
 70
     0
 10
0.0
 20
0.0
 30
0.0
  3
A$C1EB97502
  1

  0
TEXT
  5
16C3
  8
247
 10
-69.508972049171604
 20
-3.3320289994871142
 30
0.0
 40
2.0
  1
ST10-C0207-45-20
 41
0.7
  7
YOKO
 11
-69.508972049171604
 21
-3.3320289994871142
 31
0.0
 73
     1
  0
INSERT
  5
16C4
  8
247
  6
CONTINUOUS
  2
*X3
 10
-65.508972049171433
 20
0.7095726392786262
 30
0.0
 50
270.0
1001
ACAD
1000
HATCH
1002
{
1070
    19
1000
ANSI31
1040
0.0576
1040
6.2831853071795853
1002
}
  0
INSERT
  5
16C5
  8
247
  6
CONTINUOUS
  2
*X4
 10
-65.508972049171433
 20
0.7095726392786262
 30
0.0
 50
270.0
1001
ACAD
1000
HATCH
1002
{
1070
    19
1000
ANSI31
1040
0.0576
1040
6.2831853071795853
1002
}
  0
INSERT
  5
16C6
  8
247
  6
CONTINUOUS
  2
*X5
 10
-65.508972049171433
 20
0.7095726392786262
 30
0.0
 50
270.0
1001
ACAD
1000
HATCH
1002
{
1070
    19
1000
ANSI31
1040
0.0576
1040
6.2831853071795853
1002
}
  0
LINE
  5
16C7
  8
247
 10
-74.176720576197397
 20
-1.184385814119657
 30
0.0
 11
-73.571259638697398
 21
-1.184385814119657
 31
0.0
  0
POLYLINE
  5
16C8
  8
247
 66
     1
 10
0.0
 20
0.0
 30
0.0
 70
     1
1001
HATCH_DISTANCE
1040
1.0
1001
HATCH_DISPLAY
1070
     0
1001
HATCH_TYPE
1070
     7
  0
VERTEX
  5
16C9
  8
247
 10
-74.176720576197397
 20
-1.184385814119657
 30
0.0
  0
VERTEX
  5
16CA
  8
247
 10
-74.25015319338489
 20
-1.440463939119645
 30
0.0
  0
VERTEX
  5
16CB
  8
247
 10
-74.165382685572396
 20
-1.440463939119645
 30
0.0
  0
VERTEX
  5
16CC
  8
247
 10
-74.692752802759927
 20
-3.2796106981528288
 30
0.0
  0
VERTEX
  5
16CD
  8
247
 10
-74.172053584009902
 20
-3.2796106981528288
 30
0.0
  0
VERTEX
  5
16CE
  8
247
 10
-73.571259638697398
 20
-1.184385814119657
 30
0.0
  0
SEQEND
  5
16CF
  8
247
  0
POLYLINE
  5
16D0
  8
247
 66
     1
 10
0.0
 20
0.0
 30
0.0
 70
     1
  0
VERTEX
  5
16D1
  8
247
 10
-74.176720576197397
 20
-1.184385814119657
 30
0.0
  0
VERTEX
  5
16D2
  8
247
 10
-74.25015319338489
 20
-1.440463939119645
 30
0.0
  0
VERTEX
  5
16D3
  8
247
 10
-74.165382685572396
 20
-1.440463939119645
 30
0.0
  0
VERTEX
  5
16D4
  8
247
 10
-74.692752802759927
 20
-3.2796106981528288
 30
0.0
  0
VERTEX
  5
16D5
  8
247
 10
-74.172053584009902
 20
-3.2796106981528288
 30
0.0
  0
VERTEX
  5
16D6
  8
247
 10
-73.571259638697398
 20
-1.184385814119657
 30
0.0
  0
SEQEND
  5
16D7
  8
247
  0
LINE
  5
16D8
  8
247
 10
-74.172053584009902
 20
-3.2796106981528288
 30
0.0
 11
-73.571259638697398
 21
-1.184385814119657
 31
0.0
  0
LINE
  5
16D9
  8
247
 10
-76.485985224634874
 20
-3.628817723411351
 30
0.0
 11
-71.760079951197412
 21
-3.628817723411351
 31
0.0
  0
LINE
  5
16DA
  8
247
 10
-76.485985224634874
 20
-3.396013041902854
 30
0.0
 11
-71.760079951197412
 21
-3.396013041902854
 31
0.0
  0
ARC
  5
16DB
  8
247
 10
-72.962142451197394
 20
-2.5230039781821532
 30
0.0
 40
0.756615234375
 50
163.9997507017292
 51
304.96387329163008
  0
ARC
  5
16DC
  8
247
 10
-76.485985224634874
 20
-2.4066016344321528
 30
0.0
 40
0.9894111328124999
 50
89.999999999999986
 51
270.0
  0
ARC
  5
16DD
  8
247
 10
-76.485985224634874
 20
-2.4066016344321528
 30
0.0
 40
1.2222158203124971
 50
89.999999999999986
 51
270.0
  0
LINE
  5
16DE
  8
247
 10
-74.692752802759912
 20
-3.2796106981528288
 30
0.0
 11
-74.172053584009902
 21
-3.2796106981528288
 31
0.0
  0
LINE
  5
16DF
  8
247
 10
-75.17662589809062
 20
-3.2359748139834958
 30
0.0
 11
-74.859364974771054
 21
-2.9187138906639301
 31
0.0
  0
LINE
  5
16E0
  8
247
 10
-76.254787287407112
 20
-3.2796106981528288
 30
0.0
 11
-75.592746399074116
 21
-2.6175698098198619
 31
0.0
  0
LINE
  5
16E1
  8
247
 10
-75.996155911120383
 20
-3.2796106981528288
 30
0.0
 11
-75.696717199026921
 21
-2.9801719860594238
 31
0.0
  0
LINE
  5
16E2
  8
247
 10
-75.478893158546782
 20
-3.2796106981528581
 30
0.0
 11
-74.82073350361506
 21
-2.6214510432211351
 31
0.0
  0
LINE
  5
16E3
  8
247
 10
-75.517308061882062
 20
-2.354475698298621
 30
0.0
 11
-75.708092024671245
 21
-3.0198421293578188
 31
0.0
  0
ARC
  5
16E4
  8
247
 10
-75.657457880884905
 20
-2.6743252672446292
 30
0.0
 40
0.3492072715759277
 50
261.66285421114787
 51
66.338192159113575
  0
LINE
  5
16E5
  8
247
 10
-75.737524534833582
 20
-3.2796106981528288
 30
0.0
 11
-74.883311205022864
 21
-2.425397368342181
 31
0.0
  0
LINE
  5
16E6
  8
247
 10
-76.363826044947373
 20
-3.2796106981528288
 30
0.0
 11
-75.397732294947389
 21
-3.2796106981528288
 31
0.0
  0
LINE
  5
16E7
  8
247
 10
-76.303686142731465
 20
-3.0698781771903958
 30
0.0
 11
-75.318665108679028
 21
-2.0848571431379588
 31
0.0
  0
LINE
  5
16E8
  8
247
 10
-76.199709985283505
 20
-2.7072706434557068
 30
0.0
 11
-75.384793476411986
 21
-1.892354134584088
 31
0.0
  0
ARC
  5
16E9
  8
247
 10
-75.397732294947389
 20
-2.6976074938071721
 30
0.0
 40
0.5820029296875
 50
270.0
 51
40.329840654167477
  0
LINE
  5
16EA
  8
247
 10
-75.316304495396764
 20
-2.5997592824292681
 30
0.0
 11
-74.552928104281435
 21
-1.836382891313924
 31
0.0
  0
LINE
  5
16EB
  8
247
 10
-74.25015319338489
 20
-1.440463939119645
 30
0.0
 11
-74.176720576197397
 21
-1.184385814119657
 31
0.0
  0
LINE
  5
16EC
  8
247
 10
-74.25015319338489
 20
-1.440463939119645
 30
0.0
 11
-74.165382685572396
 21
-1.440463939119645
 31
0.0
  0
LINE
  5
16ED
  8
247
 10
-75.200902451152686
 20
-1.449831733038031
 30
0.0
 11
-74.960804546793526
 21
-1.209733828678857
 31
0.0
  0
LINE
  5
16EE
  8
247
 10
-75.944155348594705
 20
-1.4171905016197071
 30
0.0
 11
-75.711350661094713
 21
-1.1843858141197141
 31
0.0
  0
LINE
  5
16EF
  8
247
 10
-76.005214716822366
 20
-1.184385814119657
 30
0.0
 11
-76.071967646509847
 21
-1.41719050161965
 31
0.0
  0
LINE
  5
16F0
  8
247
 10
-75.884127802759735
 20
-1.184385814119657
 30
0.0
 11
-75.950880732447644
 21
-1.41719050161965
 31
0.0
  0
LINE
  5
16F1
  8
247
 10
-75.884127802759735
 20
-1.184385814119657
 30
0.0
 11
-75.133110681082002
 21
-1.1843858141197421
 31
0.0
  0
LINE
  5
16F2
  8
247
 10
-76.485985224634874
 20
-1.184385814119657
 30
0.0
 11
-76.005214716822366
 21
-1.184385814119657
 31
0.0
  0
LINE
  5
16F3
  8
247
 10
-75.078534487390812
 20
-1.586095145562985
 30
0.0
 11
-74.788244247229756
 21
-1.2958049054018439
 31
0.0
  0
LINE
  5
16F4
  8
247
 10
-75.950880732447644
 20
-1.41719050161965
 30
0.0
 11
-75.829785029322636
 21
-1.417190501620389
 31
0.0
  0
LINE
  5
16F5
  8
247
 10
-76.485985224634874
 20
-1.41719050161965
 30
0.0
 11
-76.071967646509847
 21
-1.41719050161965
 31
0.0
  0
LINE
  5
16F6
  8
247
 10
-75.887781512939796
 20
-1.6194480422515261
 30
0.0
 11
-75.452719284807955
 21
-1.1843858141197141
 31
0.0
  0
LINE
  5
16F7
  8
247
 10
-75.048695536241624
 20
-1.814887570700541
 30
0.0
 11
-74.659119366590929
 21
-1.425311401049818
 31
0.0
  0
ARC
  5
16F8
  8
247
 10
-75.130711787134899
 20
-1.7663887438071439
 30
0.0
 40
0.5820078735351563
 50
287.669577547399
 51
90.236159842671427
  0
LINE
  5
16F9
  8
247
 10
-75.991757670387685
 20
-1.9820555759862719
 30
0.0
 11
-75.194087908521198
 21
-1.1843858141197421
 31
0.0
  0
LINE
  5
16FA
  8
247
 10
-75.406585084057355
 20
-2.4314084948031001
 30
0.0
 11
-74.573498460620783
 21
-1.598321871366472
 31
0.0
  0
LINE
  5
16FB
  8
247
 10
-74.692752802759912
 20
-3.2796106981528288
 30
0.0
 11
-74.165382685572396
 21
-1.440463939119645
 31
0.0
  0
LINE
  5
16FC
  8
247
 10
-75.250290332636126
 20
-1.4232754275653641
 30
0.0
 11
-75.441071156839598
 21
-2.0886221237769069
 31
0.0
  0
ARC
  5
16FD
  8
247
 10
-75.390437373072402
 20
-1.743115306307178
 30
0.0
 40
0.349197280883789
 50
261.66260168792923
 51
66.338155095189919
  0
LINE
  5
16FE
  8
247
 10
-76.09573382783563
 20
-2.3446631097209609
 30
0.0
 11
-75.280820750931113
 21
-1.529750032816487
 31
0.0
  0
LINE
  5
16FF
  8
247
 10
-76.363826044947373
 20
-3.2796106981528288
 30
0.0
 11
-75.829785029322636
 21
-1.417190501620389
 31
0.0
  0
ARC
  5
1700
  8
247
 10
-71.760079951197412
 20
-2.4066016344321559
 30
0.0
 40
1.2222158203124971
 50
270.0
 51
104.77079396609309
  0
ARC
  5
1701
  8
247
 10
-71.760079951197412
 20
-2.4066016344321559
 30
0.0
 40
0.9894111328124999
 50
270.0
 51
104.12743649641099
  0
LINE
  5
1702
  8
247
 10
-72.752162959009908
 20
-2.8464590563071459
 30
0.0
 11
-72.602669794947403
 21
-2.3251182359946441
 31
0.0
  0
LINE
  5
1703
  8
247
 10
-72.796415888697396
 20
-2.3251182359946441
 30
0.0
 11
-72.602669794947403
 21
-2.3251182359946441
 31
0.0
  0
LINE
  5
1704
  8
247
 10
-72.528560419947397
 20
-3.1430550340903731
 30
0.0
 11
-72.391995966822407
 21
-3.2796106981528288
 31
0.0
  0
LINE
  5
1705
  8
247
 10
-72.796415888697396
 20
-2.3251182359946441
 30
0.0
 11
-72.729662959009914
 21
-2.0923135484946509
 31
0.0
  0
LINE
  5
1706
  8
247
 10
-72.729662959009914
 20
-2.0923135484946509
 30
0.0
 11
-72.051542841822396
 21
-2.0923135484946509
 31
0.0
  0
LINE
  5
1707
  8
247
 10
-72.391995966822407
 20
-3.2796106981528288
 30
0.0
 11
-72.051542841822396
 21
-2.0923135484946509
 31
0.0
  0
POLYLINE
  5
1708
  8
247
 66
     1
 10
0.0
 20
0.0
 30
0.0
 70
     1
1001
HATCH_DISTANCE
1040
1.0
1001
HATCH_DISPLAY
1070
     0
1001
HATCH_TYPE
1070
     7
  0
VERTEX
  5
1709
  8
247
 10
-72.001577021509902
 20
-1.4471084703696491
 30
0.0
  0
VERTEX
  5
170A
  8
247
 10
-72.071687373072407
 20
-1.2247715563071671
 30
0.0
  0
VERTEX
  5
170B
  8
247
 10
-72.071687373072407
 20
-1.2247715563071671
 30
0.0
  0
VERTEX
  5
170C
  8
247
 10
-72.001577021509902
 20
-1.4471084703696491
 30
0.0
  0
SEQEND
  5
170D
  8
247
  0
POLYLINE
  5
170E
  8
247
 66
     1
 10
0.0
 20
0.0
 30
0.0
 70
     1
  0
VERTEX
  5
170F
  8
247
 10
-72.001577021509902
 20
-1.4471084703696491
 30
0.0
  0
VERTEX
  5
1710
  8
247
 10
-72.071687373072407
 20
-1.2247715563071671
 30
0.0
  0
VERTEX
  5
1711
  8
247
 10
-72.071687373072407
 20
-1.2247715563071671
 30
0.0
  0
VERTEX
  5
1712
  8
247
 10
-72.001577021509902
 20
-1.4471084703696491
 30
0.0
  0
SEQEND
  5
1713
  8
247
  0
LINE
  5
1714
  8
247
 10
-72.001577021509902
 20
-1.4471084703696491
 30
0.0
 11
-72.071687373072407
 21
-1.2247715563071671
 31
0.0
  0
POLYLINE
  5
1715
  8
247
 66
     1
 10
0.0
 20
0.0
 30
0.0
 70
     1
1001
HATCH_DISTANCE
1040
1.0
1001
HATCH_DISPLAY
1070
     0
1001
HATCH_TYPE
1070
     7
  0
VERTEX
  5
1716
  8
247
 10
-72.001577021509902
 20
-1.4471084703696491
 30
0.0
  0
VERTEX
  5
1717
  8
247
 10
-72.071687373072407
 20
-1.2247715563071671
 30
0.0
  0
VERTEX
  5
1718
  8
247
 10
-72.071687373072407
 20
-1.2247715563071671
 30
0.0
  0
VERTEX
  5
1719
  8
247
 10
-72.001577021509902
 20
-1.4471084703696491
 30
0.0
  0
SEQEND
  5
171A
  8
247
  0
POLYLINE
  5
171B
  8
247
 66
     1
 10
0.0
 20
0.0
 30
0.0
 70
     1
  0
VERTEX
  5
171C
  8
247
 10
-72.001577021509902
 20
-1.4471084703696491
 30
0.0
  0
VERTEX
  5
171D
  8
247
 10
-72.071687373072407
 20
-1.2247715563071671
 30
0.0
  0
VERTEX
  5
171E
  8
247
 10
-72.071687373072407
 20
-1.2247715563071671
 30
0.0
  0
VERTEX
  5
171F
  8
247
 10
-72.001577021509902
 20
-1.4471084703696491
 30
0.0
  0
SEQEND
  5
1720
  8
247
  0
LINE
  5
1721
  8
247
 10
-72.112591669947406
 20
-1.482115306307157
 30
0.0
 11
-72.182702021509897
 21
-1.2597783922446191
 31
0.0
  0
ARC
  5
1722
  8
247
 10
-71.760079951197412
 20
-2.4066016344321559
 30
0.0
 40
1.222216369628905
 50
110.22964506332001
 51
118.57168892371639
  0
ARC
  5
1723
  8
247
 10
-72.673386591822407
 20
-1.684914134432155
 30
0.0
 40
0.2444448051452637
 50
1.7101213820627339
 51
163.998398354447
  0
ARC
  5
1724
  8
247
 10
-71.760079951197412
 20
-2.4066016344321559
 30
0.0
 40
0.9894138793945311
 50
110.8721834020735
 51
132.54194893738719
  0
ARC
  5
1725
  8
247
 10
-71.725117060572401
 20
-2.5627832750571491
 30
0.0
 40
1.9799648437499999
 50
155.20517736984061
 51
172.7948259620521
  0
ARC
  5
1726
  8
247
 10
-72.987138544947413
 20
-2.7790821031821689
 30
0.0
 40
0.2444446334838867
 50
164.00027305718231
 51
344.00027305718243
  0
LINE
  5
1727
  8
247
 10
-73.222114130884904
 20
-2.7117051500571629
 30
0.0
 11
-72.908362177759884
 21
-1.6175283922446579
 31
0.0
  0
ARC
  5
1728
  8
247
 10
-72.795255732447401
 20
-1.940992259432142
 30
0.0
 40
0.7566075439453125
 50
53.444012197057731
 51
164.00018438768549
  0
LINE
  5
1729
  8
245
 10
-83.961149962323475
 20
0.0
 30
0.0
 11
0.8341068001294615
 21
0.0
 31
0.0
  0
LINE
  5
172A
  8
240
 10
-80.200000000000045
 20
-5.0
 30
0.0
 11
-23.105255888325811
 21
-5.0
 31
0.0
  0
LINE
  5
172B
  8
240
 10
-23.105255888325811
 20
5.0
 30
0.0
 11
-80.200000000000045
 21
5.0
 31
0.0
  0
LINE
  5
172C
  8
240
 10
-81.200000000000045
 20
0.0
 30
0.0
 11
-81.200000000000045
 21
4.0
 31
0.0
  0
ARC
  5
172D
  8
240
 10
-80.200000000000045
 20
-4.0
 30
0.0
 40
1.000000000000028
 50
180.0
 51
270.0
  0
LINE
  5
172E
  8
240
 10
-81.200000000000045
 20
-4.0
 30
0.0
 11
-81.200000000000045
 21
0.0
 31
0.0
  0
ARC
  5
172F
  8
240
 10
-80.200000000000045
 20
4.0
 30
0.0
 40
1.0
 50
90.0
 51
180.0
  0
LINE
  5
1730
  8
241
 10
-20.128203230275631
 20
-3.9000000000000901
 30
0.0
 11
-20.128203230275631
 21
3.8999999999998631
 31
0.0
  0
LINE
  5
1731
  8
241
 10
-23.105255888325811
 20
0.0
 30
0.0
 11
-23.105255888325811
 21
5.0
 31
0.0
  0
LINE
  5
1732
  8
240
 10
-20.128203230275631
 20
-3.9000000000000901
 30
0.0
 11
-4.5999999999992829
 21
-3.9000000000000901
 31
0.0
  0
ARC
  5
1733
  8
240
 10
-20.12820323027552
 20
-7.9000000000000341
 30
0.0
 40
4.0
 50
90.0
 51
120.0000000000005
  0
LINE
  5
1734
  8
241
 10
-23.105255888325811
 20
-5.0
 30
0.0
 11
-23.105255888325811
 21
0.0
 31
0.0
  0
LINE
  5
1735
  8
240
 10
-23.105255888325811
 20
-5.0
 30
0.0
 11
-22.128203230274039
 21
-4.4358983848592279
 31
0.0
  0
LINE
  5
1736
  8
240
 10
-4.5999999999992829
 20
-3.9000000000000901
 30
0.0
 11
-3.6006845224621311
 21
-2.790147724386685
 31
0.0
  0
LINE
  5
1737
  8
240
 10
-4.4738846794848541
 20
3.8999999999998631
 30
0.0
 11
-20.12820323027552
 21
3.8999999999998631
 31
0.0
  0
ARC
  5
1738
  8
240
 10
-20.12820323027552
 20
7.8999999999999773
 30
0.0
 40
4.0
 50
240.0000000000002
 51
270.0
  0
LINE
  5
1739
  8
240
 10
-22.12820323027552
 20
4.4358983848621838
 30
0.0
 11
-23.105255888325811
 21
5.0
 31
0.0
  0
ARC
  5
173A
  8
240
 10
-4.4738846794848541
 20
2.8999999999999768
 30
0.0
 40
0.9999999999999945
 50
53.603700151636453
 51
90.0
  0
CIRCLE
  5
173B
  8
246
 10
-3.452606454145978
 20
0.5973089230064659
 30
0.0
 40
2.4999997530653939
  0
LINE
  5
173C
  8
241
 10
-3.5940287919856351
 20
-2.796803459625834
 30
0.0
 11
-6.8467175414540966
 21
0.4558876173677789
 31
0.0
  0
LINE
  5
173D
  8
240
 10
-0.0584935857670814
 20
0.4558875364089943
 30
0.0
 11
-3.3111860592715909
 21
-2.7968035405836531
 31
0.0
  0
LINE
  5
173E
  8
240
 10
-3.5940287919509042
 20
3.9914213056386809
 30
0.0
 11
-3.880517774022251
 21
3.704932118567597
 31
0.0
  0
LINE
  5
173F
  8
240
 10
-0.0584935857661151
 20
0.7387303096009532
 30
0.0
 11
-3.3111860592368312
 21
3.9914213865964991
 31
0.0
  0
ARC
  5
1740
  8
241
 10
-6.7052961346181803
 20
0.5973089230064375
 30
0.0
 40
0.2
 50
135.00002049964721
 51
224.99997950035279
1001
GENIUS_GENOBJ-N-FIL_13
1002
{
1000
OWNER
1000
GEN
1002
}
1001
GENIUS_GENODEF_13
1002
{
1000
HIER
1070
     0
1002
}
1002
{
1000
MANEDIT
1070
     0
1002
}
1002
{
1000
NOSEL
1070
     0
1002
}
1002
{
1000
BEHIND
1070
     0
1002
}
1002
{
1000
OTHER
1070
     0
1002
}
1002
{
1000
REACTOR
1002
}
  0
ARC
  5
1741
  8
240
 10
-3.452607385114987
 20
3.8500000000000218
 30
0.0
 40
0.2
 50
45.000012299781403
 51
135.00002049964721
1001
GENIUS_GENODEF_13
1002
{
1000
HIER
1070
     0
1002
}
1002
{
1000
MANEDIT
1070
     0
1002
}
1002
{
1000
NOSEL
1070
     0
1002
}
1002
{
1000
BEHIND
1070
     0
1002
}
1002
{
1000
OTHER
1070
     0
1002
}
1002
{
1000
REACTOR
1002
}
1001
GENIUS_GENOBJ-N-FIL_13
1002
{
1000
OWNER
1000
GEN
1002
}
  0
ARC
  5
1742
  8
240
 10
-0.1999149116452372
 20
0.5973089230054712
 30
0.0
 40
0.2
 50
314.99998770021858
 51
45.000012299380678
1001
GENIUS_GENODEF_13
1002
{
1000
HIER
1070
     0
1002
}
1002
{
1000
MANEDIT
1070
     0
1002
}
1002
{
1000
NOSEL
1070
     0
1002
}
1002
{
1000
BEHIND
1070
     0
1002
}
1002
{
1000
OTHER
1070
     0
1002
}
1002
{
1000
REACTOR
1002
}
1001
GENIUS_GENOBJ-N-FIL_13
1002
{
1000
OWNER
1000
GEN
1002
}
  0
ARC
  5
1743
  8
240
 10
-3.4526073851497179
 20
-2.6553821539871758
 30
0.0
 40
0.2
 50
224.99997950035279
 51
314.99998770020937
1001
GENIUS_GENODEF_13
1002
{
1000
HIER
1070
     0
1002
}
1002
{
1000
MANEDIT
1070
     0
1002
}
1002
{
1000
NOSEL
1070
     0
1002
}
1002
{
1000
BEHIND
1070
     0
1002
}
1002
{
1000
OTHER
1070
     0
1002
}
1002
{
1000
REACTOR
1002
}
1001
GENIUS_GENOBJ-N-FIL_13
1002
{
1000
OWNER
1000
GEN
1002
}
  0
POLYLINE
  8
241
  5
1845
  66
     1
 10
0.000000
 20
0.000000
 30
0.000000
  70
     8
  0
VERTEX
  8
241
  5
1846
 10
-3.99776
 20
3.58769
 30
0.000000
  70
    32
  0
VERTEX
  8
241
  5
1847
 10
-4.03728
 20
3.60211
 30
0.000000
  70
    32
  0
VERTEX
  8
241
  5
1848
 10
-4.07683
 20
3.61622
 30
0.000000
  70
    32
  0
VERTEX
  8
241
  5
1849
 10
-4.11645
 20
3.62970
 30
0.000000
  70
    32
  0
VERTEX
  8
241
  5
184A
 10
-4.15618
 20
3.64225
 30
0.000000
  70
    32
  0
VERTEX
  8
241
  5
184B
 10
-4.19605
 20
3.65354
 30
0.000000
  70
    32
  0
VERTEX
  8
241
  5
184C
 10
-4.23610
 20
3.66328
 30
0.000000
  70
    32
  0
VERTEX
  8
241
  5
184D
 10
-4.27636
 20
3.67122
 30
0.000000
  70
    32
  0
VERTEX
  8
241
  5
184E
 10
-4.31682
 20
3.67742
 30
0.000000
  70
    32
  0
VERTEX
  8
241
  5
184F
 10
-4.35747
 20
3.68199
 30
0.000000
  70
    32
  0
VERTEX
  8
241
  5
1850
 10
-4.39830
 20
3.68501
 30
0.000000
  70
    32
  0
VERTEX
  8
241
  5
1851
 10
-4.43931
 20
3.68661
 30
0.000000
  70
    32
  0
VERTEX
  8
241
  5
1852
 10
-4.48048
 20
3.68687
 30
0.000000
  70
    32
  0
VERTEX
  8
241
  5
1853
 10
-4.52180
 20
3.68591
 30
0.000000
  70
    32
  0
VERTEX
  8
241
  5
1854
 10
-4.56327
 20
3.68382
 30
0.000000
  70
    32
  0
VERTEX
  8
241
  5
1855
 10
-4.60488
 20
3.68072
 30
0.000000
  70
    32
  0
VERTEX
  8
241
  5
1856
 10
-4.64661
 20
3.67670
 30
0.000000
  70
    32
  0
VERTEX
  8
241
  5
1857
 10
-4.68845
 20
3.67188
 30
0.000000
  70
    32
  0
VERTEX
  8
241
  5
1858
 10
-4.73040
 20
3.66634
 30
0.000000
  70
    32
  0
VERTEX
  8
241
  5
1859
 10
-4.77245
 20
3.66020
 30
0.000000
  70
    32
  0
VERTEX
  8
241
  5
185A
 10
-4.81459
 20
3.65356
 30
0.000000
  70
    32
  0
VERTEX
  8
241
  5
185B
 10
-4.85681
 20
3.64652
 30
0.000000
  70
    32
  0
VERTEX
  8
241
  5
185C
 10
-4.89909
 20
3.63918
 30
0.000000
  70
    32
  0
VERTEX
  8
241
  5
185D
 10
-4.94143
 20
3.63166
 30
0.000000
  70
    32
  0
VERTEX
  8
241
  5
185E
 10
-4.98382
 20
3.62405
 30
0.000000
  70
    32
  0
VERTEX
  8
241
  5
185F
 10
-5.02626
 20
3.61646
 30
0.000000
  70
    32
  0
VERTEX
  8
241
  5
1860
 10
-5.06872
 20
3.60898
 30
0.000000
  70
    32
  0
VERTEX
  8
241
  5
1861
 10
-5.11120
 20
3.60166
 30
0.000000
  70
    32
  0
VERTEX
  8
241
  5
1862
 10
-5.15371
 20
3.59450
 30
0.000000
  70
    32
  0
VERTEX
  8
241
  5
1863
 10
-5.19623
 20
3.58747
 30
0.000000
  70
    32
  0
VERTEX
  8
241
  5
1864
 10
-5.23875
 20
3.58056
 30
0.000000
  70
    32
  0
VERTEX
  8
241
  5
1865
 10
-5.28128
 20
3.57376
 30
0.000000
  70
    32
  0
VERTEX
  8
241
  5
1866
 10
-5.32381
 20
3.56706
 30
0.000000
  70
    32
  0
VERTEX
  8
241
  5
1867
 10
-5.36633
 20
3.56044
 30
0.000000
  70
    32
  0
VERTEX
  8
241
  5
1868
 10
-5.40884
 20
3.55388
 30
0.000000
  70
    32
  0
VERTEX
  8
241
  5
1869
 10
-5.45133
 20
3.54738
 30
0.000000
  70
    32
  0
VERTEX
  8
241
  5
186A
 10
-5.49380
 20
3.54092
 30
0.000000
  70
    32
  0
VERTEX
  8
241
  5
186B
 10
-5.53624
 20
3.53449
 30
0.000000
  70
    32
  0
VERTEX
  8
241
  5
186C
 10
-5.57865
 20
3.52807
 30
0.000000
  70
    32
  0
VERTEX
  8
241
  5
186D
 10
-5.62102
 20
3.52166
 30
0.000000
  70
    32
  0
VERTEX
  8
241
  5
186E
 10
-5.66335
 20
3.51523
 30
0.000000
  70
    32
  0
VERTEX
  8
241
  5
186F
 10
-5.70563
 20
3.50877
 30
0.000000
  70
    32
  0
VERTEX
  8
241
  5
1870
 10
-5.74786
 20
3.50227
 30
0.000000
  70
    32
  0
VERTEX
  8
241
  5
1871
 10
-5.79003
 20
3.49572
 30
0.000000
  70
    32
  0
VERTEX
  8
241
  5
1872
 10
-5.83214
 20
3.48910
 30
0.000000
  70
    32
  0
VERTEX
  8
241
  5
1873
 10
-5.87419
 20
3.48240
 30
0.000000
  70
    32
  0
VERTEX
  8
241
  5
1874
 10
-5.91616
 20
3.47561
 30
0.000000
  70
    32
  0
VERTEX
  8
241
  5
1875
 10
-5.95805
 20
3.46871
 30
0.000000
  70
    32
  0
VERTEX
  8
241
  5
1876
 10
-5.99986
 20
3.46168
 30
0.000000
  70
    32
  0
VERTEX
  8
241
  5
1877
 10
-6.04158
 20
3.45453
 30
0.000000
  70
    32
  0
VERTEX
  8
241
  5
1878
 10
-6.08321
 20
3.44722
 30
0.000000
  70
    32
  0
VERTEX
  8
241
  5
1879
 10
-6.12474
 20
3.43975
 30
0.000000
  70
    32
  0
VERTEX
  8
241
  5
187A
 10
-6.16617
 20
3.43210
 30
0.000000
  70
    32
  0
VERTEX
  8
241
  5
187B
 10
-6.20749
 20
3.42427
 30
0.000000
  70
    32
  0
VERTEX
  8
241
  5
187C
 10
-6.24870
 20
3.41623
 30
0.000000
  70
    32
  0
VERTEX
  8
241
  5
187D
 10
-6.28979
 20
3.40797
 30
0.000000
  70
    32
  0
VERTEX
  8
241
  5
187E
 10
-6.33076
 20
3.39949
 30
0.000000
  70
    32
  0
VERTEX
  8
241
  5
187F
 10
-6.37160
 20
3.39076
 30
0.000000
  70
    32
  0
VERTEX
  8
241
  5
1880
 10
-6.41230
 20
3.38178
 30
0.000000
  70
    32
  0
VERTEX
  8
241
  5
1881
 10
-6.45287
 20
3.37252
 30
0.000000
  70
    32
  0
VERTEX
  8
241
  5
1882
 10
-6.49330
 20
3.36298
 30
0.000000
  70
    32
  0
VERTEX
  8
241
  5
1883
 10
-6.53357
 20
3.35314
 30
0.000000
  70
    32
  0
VERTEX
  8
241
  5
1884
 10
-6.57370
 20
3.34299
 30
0.000000
  70
    32
  0
VERTEX
  8
241
  5
1885
 10
-6.61366
 20
3.33252
 30
0.000000
  70
    32
  0
VERTEX
  8
241
  5
1886
 10
-6.65346
 20
3.32170
 30
0.000000
  70
    32
  0
VERTEX
  8
241
  5
1887
 10
-6.69310
 20
3.31054
 30
0.000000
  70
    32
  0
VERTEX
  8
241
  5
1888
 10
-6.73256
 20
3.29901
 30
0.000000
  70
    32
  0
VERTEX
  8
241
  5
1889
 10
-6.77184
 20
3.28710
 30
0.000000
  70
    32
  0
VERTEX
  8
241
  5
188A
 10
-6.81094
 20
3.27480
 30
0.000000
  70
    32
  0
VERTEX
  8
241
  5
188B
 10
-6.84985
 20
3.26209
 30
0.000000
  70
    32
  0
VERTEX
  8
241
  5
188C
 10
-6.88856
 20
3.24896
 30
0.000000
  70
    32
  0
VERTEX
  8
241
  5
188D
 10
-6.92708
 20
3.23540
 30
0.000000
  70
    32
  0
VERTEX
  8
241
  5
188E
 10
-6.96539
 20
3.22139
 30
0.000000
  70
    32
  0
VERTEX
  8
241
  5
188F
 10
-7.00350
 20
3.20692
 30
0.000000
  70
    32
  0
VERTEX
  8
241
  5
1890
 10
-7.04139
 20
3.19198
 30
0.000000
  70
    32
  0
VERTEX
  8
241
  5
1891
 10
-7.07906
 20
3.17655
 30
0.000000
  70
    32
  0
VERTEX
  8
241
  5
1892
 10
-7.11651
 20
3.16062
 30
0.000000
  70
    32
  0
VERTEX
  8
241
  5
1893
 10
-7.15373
 20
3.14417
 30
0.000000
  70
    32
  0
VERTEX
  8
241
  5
1894
 10
-7.19072
 20
3.12720
 30
0.000000
  70
    32
  0
VERTEX
  8
241
  5
1895
 10
-7.22746
 20
3.10968
 30
0.000000
  70
    32
  0
VERTEX
  8
241
  5
1896
 10
-7.26396
 20
3.09161
 30
0.000000
  70
    32
  0
VERTEX
  8
241
  5
1897
 10
-7.30022
 20
3.07297
 30
0.000000
  70
    32
  0
VERTEX
  8
241
  5
1898
 10
-7.33622
 20
3.05375
 30
0.000000
  70
    32
  0
VERTEX
  8
241
  5
1899
 10
-7.37196
 20
3.03393
 30
0.000000
  70
    32
  0
VERTEX
  8
241
  5
189A
 10
-7.40743
 20
3.01352
 30
0.000000
  70
    32
  0
VERTEX
  8
241
  5
189B
 10
-7.44264
 20
2.99251
 30
0.000000
  70
    32
  0
VERTEX
  8
241
  5
189C
 10
-7.47756
 20
2.97091
 30
0.000000
  70
    32
  0
VERTEX
  8
241
  5
189D
 10
-7.51221
 20
2.94873
 30
0.000000
  70
    32
  0
VERTEX
  8
241
  5
189E
 10
-7.54656
 20
2.92598
 30
0.000000
  70
    32
  0
VERTEX
  8
241
  5
189F
 10
-7.58061
 20
2.90266
 30
0.000000
  70
    32
  0
VERTEX
  8
241
  5
18A0
 10
-7.61436
 20
2.87877
 30
0.000000
  70
    32
  0
VERTEX
  8
241
  5
18A1
 10
-7.64780
 20
2.85433
 30
0.000000
  70
    32
  0
VERTEX
  8
241
  5
18A2
 10
-7.68092
 20
2.82934
 30
0.000000
  70
    32
  0
VERTEX
  8
241
  5
18A3
 10
-7.71372
 20
2.80380
 30
0.000000
  70
    32
  0
VERTEX
  8
241
  5
18A4
 10
-7.74619
 20
2.77772
 30
0.000000
  70
    32
  0
VERTEX
  8
241
  5
18A5
 10
-7.77832
 20
2.75111
 30
0.000000
  70
    32
  0
VERTEX
  8
241
  5
18A6
 10
-7.81011
 20
2.72397
 30
0.000000
  70
    32
  0
VERTEX
  8
241
  5
18A7
 10
-7.84155
 20
2.69631
 30
0.000000
  70
    32
  0
VERTEX
  8
241
  5
18A8
 10
-7.87264
 20
2.66813
 30
0.000000
  70
    32
  0
VERTEX
  8
241
  5
18A9
 10
-7.90336
 20
2.63944
 30
0.000000
  70
    32
  0
VERTEX
  8
241
  5
18AA
 10
-7.93371
 20
2.61025
 30
0.000000
  70
    32
  0
VERTEX
  8
241
  5
18AB
 10
-7.96369
 20
2.58056
 30
0.000000
  70
    32
  0
VERTEX
  8
241
  5
18AC
 10
-7.99329
 20
2.55038
 30
0.000000
  70
    32
  0
VERTEX
  8
241
  5
18AD
 10
-8.02250
 20
2.51971
 30
0.000000
  70
    32
  0
VERTEX
  8
241
  5
18AE
 10
-8.05131
 20
2.48856
 30
0.000000
  70
    32
  0
VERTEX
  8
241
  5
18AF
 10
-8.07973
 20
2.45694
 30
0.000000
  70
    32
  0
VERTEX
  8
241
  5
18B0
 10
-8.10773
 20
2.42485
 30
0.000000
  70
    32
  0
VERTEX
  8
241
  5
18B1
 10
-8.13532
 20
2.39230
 30
0.000000
  70
    32
  0
VERTEX
  8
241
  5
18B2
 10
-8.16249
 20
2.35929
 30
0.000000
  70
    32
  0
VERTEX
  8
241
  5
18B3
 10
-8.18924
 20
2.32583
 30
0.000000
  70
    32
  0
VERTEX
  8
241
  5
18B4
 10
-8.21555
 20
2.29192
 30
0.000000
  70
    32
  0
VERTEX
  8
241
  5
18B5
 10
-8.24142
 20
2.25758
 30
0.000000
  70
    32
  0
VERTEX
  8
241
  5
18B6
 10
-8.26684
 20
2.22280
 30
0.000000
  70
    32
  0
VERTEX
  8
241
  5
18B7
 10
-8.29182
 20
2.18760
 30
0.000000
  70
    32
  0
VERTEX
  8
241
  5
18B8
 10
-8.31633
 20
2.15198
 30
0.000000
  70
    32
  0
VERTEX
  8
241
  5
18B9
 10
-8.34037
 20
2.11594
 30
0.000000
  70
    32
  0
VERTEX
  8
241
  5
18BA
 10
-8.36395
 20
2.07949
 30
0.000000
  70
    32
  0
VERTEX
  8
241
  5
18BB
 10
-8.38704
 20
2.04264
 30
0.000000
  70
    32
  0
VERTEX
  8
241
  5
18BC
 10
-8.40966
 20
2.00539
 30
0.000000
  70
    32
  0
VERTEX
  8
241
  5
18BD
 10
-8.43179
 20
1.96776
 30
0.000000
  70
    32
  0
VERTEX
  8
241
  5
18BE
 10
-8.45345
 20
1.92975
 30
0.000000
  70
    32
  0
VERTEX
  8
241
  5
18BF
 10
-8.47463
 20
1.89137
 30
0.000000
  70
    32
  0
VERTEX
  8
241
  5
18C0
 10
-8.49533
 20
1.85263
 30
0.000000
  70
    32
  0
VERTEX
  8
241
  5
18C1
 10
-8.51555
 20
1.81354
 30
0.000000
  70
    32
  0
VERTEX
  8
241
  5
18C2
 10
-8.53529
 20
1.77410
 30
0.000000
  70
    32
  0
VERTEX
  8
241
  5
18C3
 10
-8.55456
 20
1.73433
 30
0.000000
  70
    32
  0
VERTEX
  8
241
  5
18C4
 10
-8.57334
 20
1.69423
 30
0.000000
  70
    32
  0
VERTEX
  8
241
  5
18C5
 10
-8.59165
 20
1.65381
 30
0.000000
  70
    32
  0
VERTEX
  8
241
  5
18C6
 10
-8.60948
 20
1.61308
 30
0.000000
  70
    32
  0
VERTEX
  8
241
  5
18C7
 10
-8.62683
 20
1.57205
 30
0.000000
  70
    32
  0
VERTEX
  8
241
  5
18C8
 10
-8.64370
 20
1.53073
 30
0.000000
  70
    32
  0
VERTEX
  8
241
  5
18C9
 10
-8.66010
 20
1.48912
 30
0.000000
  70
    32
  0
VERTEX
  8
241
  5
18CA
 10
-8.67602
 20
1.44724
 30
0.000000
  70
    32
  0
VERTEX
  8
241
  5
18CB
 10
-8.69146
 20
1.40508
 30
0.000000
  70
    32
  0
VERTEX
  8
241
  5
18CC
 10
-8.70642
 20
1.36267
 30
0.000000
  70
    32
  0
VERTEX
  8
241
  5
18CD
 10
-8.72091
 20
1.32001
 30
0.000000
  70
    32
  0
VERTEX
  8
241
  5
18CE
 10
-8.73492
 20
1.27710
 30
0.000000
  70
    32
  0
VERTEX
  8
241
  5
18CF
 10
-8.74845
 20
1.23396
 30
0.000000
  70
    32
  0
VERTEX
  8
241
  5
18D0
 10
-8.76151
 20
1.19060
 30
0.000000
  70
    32
  0
VERTEX
  8
241
  5
18D1
 10
-8.77409
 20
1.14701
 30
0.000000
  70
    32
  0
VERTEX
  8
241
  5
18D2
 10
-8.78619
 20
1.10322
 30
0.000000
  70
    32
  0
VERTEX
  8
241
  5
18D3
 10
-8.79782
 20
1.05923
 30
0.000000
  70
    32
  0
VERTEX
  8
241
  5
18D4
 10
-8.80897
 20
1.01505
 30
0.000000
  70
    32
  0
VERTEX
  8
241
  5
18D5
 10
-8.81965
 20
0.970682
 30
0.000000
  70
    32
  0
VERTEX
  8
241
  5
18D6
 10
-8.82985
 20
0.926140
 30
0.000000
  70
    32
  0
VERTEX
  8
241
  5
18D7
 10
-8.83957
 20
0.881433
 30
0.000000
  70
    32
  0
VERTEX
  8
241
  5
18D8
 10
-8.84882
 20
0.836567
 30
0.000000
  70
    32
  0
VERTEX
  8
241
  5
18D9
 10
-8.85759
 20
0.791552
 30
0.000000
  70
    32
  0
VERTEX
  8
241
  5
18DA
 10
-8.86589
 20
0.746396
 30
0.000000
  70
    32
  0
VERTEX
  8
241
  5
18DB
 10
-8.87371
 20
0.701107
 30
0.000000
  70
    32
  0
VERTEX
  8
241
  5
18DC
 10
-8.88106
 20
0.655694
 30
0.000000
  70
    32
  0
VERTEX
  8
241
  5
18DD
 10
-8.88793
 20
0.610166
 30
0.000000
  70
    32
  0
VERTEX
  8
241
  5
18DE
 10
-8.89433
 20
0.564531
 30
0.000000
  70
    32
  0
VERTEX
  8
241
  5
18DF
 10
-8.90026
 20
0.518796
 30
0.000000
  70
    32
  0
VERTEX
  8
241
  5
18E0
 10
-8.90571
 20
0.472972
 30
0.000000
  70
    32
  0
VERTEX
  8
241
  5
18E1
 10
-8.91068
 20
0.427066
 30
0.000000
  70
    32
  0
VERTEX
  8
241
  5
18E2
 10
-8.91518
 20
0.381087
 30
0.000000
  70
    32
  0
VERTEX
  8
241
  5
18E3
 10
-8.91921
 20
0.335043
 30
0.000000
  70
    32
  0
VERTEX
  8
241
  5
18E4
 10
-8.92276
 20
0.288942
 30
0.000000
  70
    32
  0
VERTEX
  8
241
  5
18E5
 10
-8.92584
 20
0.242794
 30
0.000000
  70
    32
  0
VERTEX
  8
241
  5
18E6
 10
-8.92845
 20
0.196606
 30
0.000000
  70
    32
  0
VERTEX
  8
241
  5
18E7
 10
-8.93058
 20
0.150388
 30
0.000000
  70
    32
  0
VERTEX
  8
241
  5
18E8
 10
-8.93224
 20
0.104146
 30
0.000000
  70
    32
  0
VERTEX
  8
241
  5
18E9
 10
-8.93343
 20
0.0578911
 30
0.000000
  70
    32
  0
VERTEX
  8
241
  5
18EA
 10
-8.93414
 20
0.0116303
 30
0.000000
  70
    32
  0
VERTEX
  8
241
  5
18EB
 10
-8.93438
 20
-0.0346276
 30
0.000000
  70
    32
  0
VERTEX
  8
241
  5
18EC
 10
-8.93415
 20
-0.0808742
 30
0.000000
  70
    32
  0
VERTEX
  8
241
  5
18ED
 10
-8.93344
 20
-0.127101
 30
0.000000
  70
    32
  0
VERTEX
  8
241
  5
18EE
 10
-8.93226
 20
-0.173299
 30
0.000000
  70
    32
  0
VERTEX
  8
241
  5
18EF
 10
-8.93061
 20
-0.219461
 30
0.000000
  70
    32
  0
VERTEX
  8
241
  5
18F0
 10
-8.92849
 20
-0.265578
 30
0.000000
  70
    32
  0
VERTEX
  8
241
  5
18F1
 10
-8.92590
 20
-0.311640
 30
0.000000
  70
    32
  0
VERTEX
  8
241
  5
18F2
 10
-8.92283
 20
-0.357641
 30
0.000000
  70
    32
  0
VERTEX
  8
241
  5
18F3
 10
-8.91929
 20
-0.403571
 30
0.000000
  70
    32
  0
VERTEX
  8
241
  5
18F4
 10
-8.91528
 20
-0.449422
 30
0.000000
  70
    32
  0
VERTEX
  8
241
  5
18F5
 10
-8.91080
 20
-0.495186
 30
0.000000
  70
    32
  0
VERTEX
  8
241
  5
18F6
 10
-8.90585
 20
-0.540853
 30
0.000000
  70
    32
  0
VERTEX
  8
241
  5
18F7
 10
-8.90043
 20
-0.586416
 30
0.000000
  70
    32
  0
VERTEX
  8
241
  5
18F8
 10
-8.89453
 20
-0.631867
 30
0.000000
  70
    32
  0
VERTEX
  8
241
  5
18F9
 10
-8.88816
 20
-0.677195
 30
0.000000
  70
    32
  0
VERTEX
  8
241
  5
18FA
 10
-8.88133
 20
-0.722394
 30
0.000000
  70
    32
  0
VERTEX
  8
241
  5
18FB
 10
-8.87402
 20
-0.767455
 30
0.000000
  70
    32
  0
VERTEX
  8
241
  5
18FC
 10
-8.86624
 20
-0.812369
 30
0.000000
  70
    32
  0
VERTEX
  8
241
  5
18FD
 10
-8.85800
 20
-0.857127
 30
0.000000
  70
    32
  0
VERTEX
  8
241
  5
18FE
 10
-8.84928
 20
-0.901722
 30
0.000000
  70
    32
  0
VERTEX
  8
241
  5
18FF
 10
-8.84009
 20
-0.946145
 30
0.000000
  70
    32
  0
VERTEX
  8
241
  5
1900
 10
-8.83043
 20
-0.990387
 30
0.000000
  70
    32
  0
VERTEX
  8
241
  5
1901
 10
-8.82030
 20
-1.03444
 30
0.000000
  70
    32
  0
VERTEX
  8
241
  5
1902
 10
-8.80971
 20
-1.07830
 30
0.000000
  70
    32
  0
VERTEX
  8
241
  5
1903
 10
-8.79864
 20
-1.12195
 30
0.000000
  70
    32
  0
VERTEX
  8
241
  5
1904
 10
-8.78710
 20
-1.16538
 30
0.000000
  70
    32
  0
VERTEX
  8
241
  5
1905
 10
-8.77510
 20
-1.20859
 30
0.000000
  70
    32
  0
VERTEX
  8
241
  5
1906
 10
-8.76262
 20
-1.25157
 30
0.000000
  70
    32
  0
VERTEX
  8
241
  5
1907
 10
-8.74968
 20
-1.29431
 30
0.000000
  70
    32
  0
VERTEX
  8
241
  5
1908
 10
-8.73626
 20
-1.33681
 30
0.000000
  70
    32
  0
VERTEX
  8
241
  5
1909
 10
-8.72238
 20
-1.37904
 30
0.000000
  70
    32
  0
VERTEX
  8
241
  5
190A
 10
-8.70803
 20
-1.42101
 30
0.000000
  70
    32
  0
VERTEX
  8
241
  5
190B
 10
-8.69321
 20
-1.46271
 30
0.000000
  70
    32
  0
VERTEX
  8
241
  5
190C
 10
-8.67793
 20
-1.50413
 30
0.000000
  70
    32
  0
VERTEX
  8
241
  5
190D
 10
-8.66217
 20
-1.54525
 30
0.000000
  70
    32
  0
VERTEX
  8
241
  5
190E
 10
-8.64595
 20
-1.58607
 30
0.000000
  70
    32
  0
VERTEX
  8
241
  5
190F
 10
-8.62926
 20
-1.62659
 30
0.000000
  70
    32
  0
VERTEX
  8
241
  5
1910
 10
-8.61210
 20
-1.66679
 30
0.000000
  70
    32
  0
VERTEX
  8
241
  5
1911
 10
-8.59447
 20
-1.70667
 30
0.000000
  70
    32
  0
VERTEX
  8
241
  5
1912
 10
-8.57638
 20
-1.74621
 30
0.000000
  70
    32
  0
VERTEX
  8
241
  5
1913
 10
-8.55782
 20
-1.78542
 30
0.000000
  70
    32
  0
VERTEX
  8
241
  5
1914
 10
-8.53879
 20
-1.82427
 30
0.000000
  70
    32
  0
VERTEX
  8
241
  5
1915
 10
-8.51930
 20
-1.86276
 30
0.000000
  70
    32
  0
VERTEX
  8
241
  5
1916
 10
-8.49933
 20
-1.90089
 30
0.000000
  70
    32
  0
VERTEX
  8
241
  5
1917
 10
-8.47891
 20
-1.93864
 30
0.000000
  70
    32
  0
VERTEX
  8
241
  5
1918
 10
-8.45801
 20
-1.97601
 30
0.000000
  70
    32
  0
VERTEX
  8
241
  5
1919
 10
-8.43665
 20
-2.01299
 30
0.000000
  70
    32
  0
VERTEX
  8
241
  5
191A
 10
-8.41482
 20
-2.04956
 30
0.000000
  70
    32
  0
VERTEX
  8
241
  5
191B
 10
-8.39253
 20
-2.08573
 30
0.000000
  70
    32
  0
VERTEX
  8
241
  5
191C
 10
-8.36977
 20
-2.12148
 30
0.000000
  70
    32
  0
VERTEX
  8
241
  5
191D
 10
-8.34654
 20
-2.15680
 30
0.000000
  70
    32
  0
VERTEX
  8
241
  5
191E
 10
-8.32285
 20
-2.19169
 30
0.000000
  70
    32
  0
VERTEX
  8
241
  5
191F
 10
-8.29869
 20
-2.22614
 30
0.000000
  70
    32
  0
VERTEX
  8
241
  5
1920
 10
-8.27407
 20
-2.26013
 30
0.000000
  70
    32
  0
VERTEX
  8
241
  5
1921
 10
-8.24898
 20
-2.29366
 30
0.000000
  70
    32
  0
VERTEX
  8
241
  5
1922
 10
-8.22342
 20
-2.32673
 30
0.000000
  70
    32
  0
VERTEX
  8
241
  5
1923
 10
-8.19740
 20
-2.35932
 30
0.000000
  70
    32
  0
VERTEX
  8
241
  5
1924
 10
-8.17092
 20
-2.39142
 30
0.000000
  70
    32
  0
VERTEX
  8
241
  5
1925
 10
-8.14397
 20
-2.42303
 30
0.000000
  70
    32
  0
VERTEX
  8
241
  5
1926
 10
-8.11656
 20
-2.45414
 30
0.000000
  70
    32
  0
VERTEX
  8
241
  5
1927
 10
-8.08868
 20
-2.48474
 30
0.000000
  70
    32
  0
VERTEX
  8
241
  5
1928
 10
-8.06034
 20
-2.51481
 30
0.000000
  70
    32
  0
VERTEX
  8
241
  5
1929
 10
-8.03153
 20
-2.54437
 30
0.000000
  70
    32
  0
VERTEX
  8
241
  5
192A
 10
-8.00226
 20
-2.57338
 30
0.000000
  70
    32
  0
VERTEX
  8
241
  5
192B
 10
-7.97253
 20
-2.60185
 30
0.000000
  70
    32
  0
VERTEX
  8
241
  5
192C
 10
-7.94234
 20
-2.62979
 30
0.000000
  70
    32
  0
VERTEX
  8
241
  5
192D
 10
-7.91171
 20
-2.65719
 30
0.000000
  70
    32
  0
VERTEX
  8
241
  5
192E
 10
-7.88063
 20
-2.68407
 30
0.000000
  70
    32
  0
VERTEX
  8
241
  5
192F
 10
-7.84913
 20
-2.71042
 30
0.000000
  70
    32
  0
VERTEX
  8
241
  5
1930
 10
-7.81720
 20
-2.73627
 30
0.000000
  70
    32
  0
VERTEX
  8
241
  5
1931
 10
-7.78486
 20
-2.76160
 30
0.000000
  70
    32
  0
VERTEX
  8
241
  5
1932
 10
-7.75211
 20
-2.78643
 30
0.000000
  70
    32
  0
VERTEX
  8
241
  5
1933
 10
-7.71896
 20
-2.81077
 30
0.000000
  70
    32
  0
VERTEX
  8
241
  5
1934
 10
-7.68542
 20
-2.83461
 30
0.000000
  70
    32
  0
VERTEX
  8
241
  5
1935
 10
-7.65151
 20
-2.85797
 30
0.000000
  70
    32
  0
VERTEX
  8
241
  5
1936
 10
-7.61721
 20
-2.88085
 30
0.000000
  70
    32
  0
VERTEX
  8
241
  5
1937
 10
-7.58256
 20
-2.90326
 30
0.000000
  70
    32
  0
VERTEX
  8
241
  5
1938
 10
-7.54754
 20
-2.92520
 30
0.000000
  70
    32
  0
VERTEX
  8
241
  5
1939
 10
-7.51217
 20
-2.94668
 30
0.000000
  70
    32
  0
VERTEX
  8
241
  5
193A
 10
-7.47647
 20
-2.96770
 30
0.000000
  70
    32
  0
VERTEX
  8
241
  5
193B
 10
-7.44043
 20
-2.98828
 30
0.000000
  70
    32
  0
VERTEX
  8
241
  5
193C
 10
-7.40407
 20
-3.00841
 30
0.000000
  70
    32
  0
VERTEX
  8
241
  5
193D
 10
-7.36739
 20
-3.02810
 30
0.000000
  70
    32
  0
VERTEX
  8
241
  5
193E
 10
-7.33040
 20
-3.04736
 30
0.000000
  70
    32
  0
VERTEX
  8
241
  5
193F
 10
-7.29311
 20
-3.06619
 30
0.000000
  70
    32
  0
VERTEX
  8
241
  5
1940
 10
-7.25552
 20
-3.08460
 30
0.000000
  70
    32
  0
VERTEX
  8
241
  5
1941
 10
-7.21766
 20
-3.10260
 30
0.000000
  70
    32
  0
VERTEX
  8
241
  5
1942
 10
-7.17952
 20
-3.12019
 30
0.000000
  70
    32
  0
VERTEX
  8
241
  5
1943
 10
-7.14111
 20
-3.13738
 30
0.000000
  70
    32
  0
VERTEX
  8
241
  5
1944
 10
-7.10244
 20
-3.15417
 30
0.000000
  70
    32
  0
VERTEX
  8
241
  5
1945
 10
-7.06352
 20
-3.17056
 30
0.000000
  70
    32
  0
VERTEX
  8
241
  5
1946
 10
-7.02435
 20
-3.18658
 30
0.000000
  70
    32
  0
VERTEX
  8
241
  5
1947
 10
-6.98495
 20
-3.20221
 30
0.000000
  70
    32
  0
VERTEX
  8
241
  5
1948
 10
-6.94533
 20
-3.21747
 30
0.000000
  70
    32
  0
VERTEX
  8
241
  5
1949
 10
-6.90548
 20
-3.23236
 30
0.000000
  70
    32
  0
VERTEX
  8
241
  5
194A
 10
-6.86543
 20
-3.24689
 30
0.000000
  70
    32
  0
VERTEX
  8
241
  5
194B
 10
-6.82517
 20
-3.26107
 30
0.000000
  70
    32
  0
VERTEX
  8
241
  5
194C
 10
-6.78471
 20
-3.27489
 30
0.000000
  70
    32
  0
VERTEX
  8
241
  5
194D
 10
-6.74407
 20
-3.28837
 30
0.000000
  70
    32
  0
VERTEX
  8
241
  5
194E
 10
-6.70326
 20
-3.30152
 30
0.000000
  70
    32
  0
VERTEX
  8
241
  5
194F
 10
-6.66227
 20
-3.31433
 30
0.000000
  70
    32
  0
VERTEX
  8
241
  5
1950
 10
-6.62112
 20
-3.32681
 30
0.000000
  70
    32
  0
VERTEX
  8
241
  5
1951
 10
-6.57982
 20
-3.33897
 30
0.000000
  70
    32
  0
VERTEX
  8
241
  5
1952
 10
-6.53837
 20
-3.35082
 30
0.000000
  70
    32
  0
VERTEX
  8
241
  5
1953
 10
-6.49678
 20
-3.36236
 30
0.000000
  70
    32
  0
VERTEX
  8
241
  5
1954
 10
-6.45507
 20
-3.37359
 30
0.000000
  70
    32
  0
VERTEX
  8
241
  5
1955
 10
-6.41323
 20
-3.38453
 30
0.000000
  70
    32
  0
VERTEX
  8
241
  5
1956
 10
-6.37128
 20
-3.39518
 30
0.000000
  70
    32
  0
VERTEX
  8
241
  5
1957
 10
-6.32923
 20
-3.40554
 30
0.000000
  70
    32
  0
VERTEX
  8
241
  5
1958
 10
-6.28707
 20
-3.41562
 30
0.000000
  70
    32
  0
VERTEX
  8
241
  5
1959
 10
-6.24484
 20
-3.42542
 30
0.000000
  70
    32
  0
VERTEX
  8
241
  5
195A
 10
-6.20252
 20
-3.43496
 30
0.000000
  70
    32
  0
VERTEX
  8
241
  5
195B
 10
-6.16012
 20
-3.44424
 30
0.000000
  70
    32
  0
VERTEX
  8
241
  5
195C
 10
-6.11767
 20
-3.45326
 30
0.000000
  70
    32
  0
VERTEX
  8
241
  5
195D
 10
-6.07516
 20
-3.46203
 30
0.000000
  70
    32
  0
VERTEX
  8
241
  5
195E
 10
-6.03260
 20
-3.47056
 30
0.000000
  70
    32
  0
VERTEX
  8
241
  5
195F
 10
-5.99000
 20
-3.47884
 30
0.000000
  70
    32
  0
VERTEX
  8
241
  5
1960
 10
-5.94737
 20
-3.48690
 30
0.000000
  70
    32
  0
VERTEX
  8
241
  5
1961
 10
-5.90471
 20
-3.49472
 30
0.000000
  70
    32
  0
VERTEX
  8
241
  5
1962
 10
-5.86204
 20
-3.50233
 30
0.000000
  70
    32
  0
VERTEX
  8
241
  5
1963
 10
-5.81937
 20
-3.50972
 30
0.000000
  70
    32
  0
VERTEX
  8
241
  5
1964
 10
-5.77669
 20
-3.51690
 30
0.000000
  70
    32
  0
VERTEX
  8
241
  5
1965
 10
-5.73403
 20
-3.52388
 30
0.000000
  70
    32
  0
VERTEX
  8
241
  5
1966
 10
-5.69138
 20
-3.53066
 30
0.000000
  70
    32
  0
VERTEX
  8
241
  5
1967
 10
-5.64876
 20
-3.53725
 30
0.000000
  70
    32
  0
VERTEX
  8
241
  5
1968
 10
-5.60617
 20
-3.54365
 30
0.000000
  70
    32
  0
VERTEX
  8
241
  5
1969
 10
-5.56362
 20
-3.54987
 30
0.000000
  70
    32
  0
VERTEX
  8
241
  5
196A
 10
-5.52112
 20
-3.55592
 30
0.000000
  70
    32
  0
VERTEX
  8
241
  5
196B
 10
-5.47868
 20
-3.56180
 30
0.000000
  70
    32
  0
VERTEX
  8
241
  5
196C
 10
-5.43631
 20
-3.56752
 30
0.000000
  70
    32
  0
VERTEX
  8
241
  5
196D
 10
-5.39401
 20
-3.57308
 30
0.000000
  70
    32
  0
VERTEX
  8
241
  5
196E
 10
-5.35180
 20
-3.57849
 30
0.000000
  70
    32
  0
VERTEX
  8
241
  5
196F
 10
-5.30967
 20
-3.58375
 30
0.000000
  70
    32
  0
VERTEX
  8
241
  5
1970
 10
-5.26763
 20
-3.58888
 30
0.000000
  70
    32
  0
VERTEX
  8
241
  5
1971
 10
-5.22568
 20
-3.59387
 30
0.000000
  70
    32
  0
VERTEX
  8
241
  5
1972
 10
-5.18380
 20
-3.59874
 30
0.000000
  70
    32
  0
VERTEX
  8
241
  5
1973
 10
-5.14201
 20
-3.60349
 30
0.000000
  70
    32
  0
VERTEX
  8
241
  5
1974
 10
-5.10028
 20
-3.60812
 30
0.000000
  70
    32
  0
VERTEX
  8
241
  5
1975
 10
-5.05862
 20
-3.61265
 30
0.000000
  70
    32
  0
VERTEX
  8
241
  5
1976
 10
-5.01702
 20
-3.61708
 30
0.000000
  70
    32
  0
VERTEX
  8
241
  5
1977
 10
-4.97548
 20
-3.62141
 30
0.000000
  70
    32
  0
VERTEX
  8
241
  5
1978
 10
-4.93400
 20
-3.62566
 30
0.000000
  70
    32
  0
VERTEX
  8
241
  5
1979
 10
-4.89257
 20
-3.62982
 30
0.000000
  70
    32
  0
VERTEX
  8
241
  5
197A
 10
-4.85119
 20
-3.63390
 30
0.000000
  70
    32
  0
VERTEX
  8
241
  5
197B
 10
-4.80985
 20
-3.63792
 30
0.000000
  70
    32
  0
VERTEX
  8
241
  5
197C
 10
-4.76856
 20
-3.64188
 30
0.000000
  70
    32
  0
VERTEX
  8
241
  5
197D
 10
-4.72729
 20
-3.64577
 30
0.000000
  70
    32
  0
VERTEX
  8
241
  5
197E
 10
-4.68606
 20
-3.64962
 30
0.000000
  70
    32
  0
VERTEX
  8
241
  5
197F
 10
-4.64486
 20
-3.65342
 30
0.000000
  70
    32
  0
VERTEX
  8
241
  5
1980
 10
-4.60368
 20
-3.65719
 30
0.000000
  70
    32
  0
VERTEX
  8
241
  5
1981
 10
-4.56252
 20
-3.66092
 30
0.000000
  70
    32
  0
VERTEX
  8
241
  5
1982
 10
-4.52138
 20
-3.66463
 30
0.000000
  70
    32
  0
VERTEX
  8
241
  5
1983
 10
-4.48025
 20
-3.66832
 30
0.000000
  70
    32
  0
VERTEX
  8
241
  5
1984
 10
-4.43913
 20
-3.67200
 30
0.000000
  70
    32
  0
VERTEX
  8
241
  5
1985
 10
-4.39801
 20
-3.67567
 30
0.000000
  70
    32
  0
SEQEND
  8
241
  5
1986
  0
LINE
  5
1745
  8
241
 10
-3.880517774022251
 20
3.704932118567597
 30
0.0
 11
-6.8467175414540966
 21
0.7387302286450961
 31
0.0
  0
ENDBLK
  5
1748
  8
0
  0
BLOCK
  8
0
  2
*U8
 70
     1
 10
0.0
 20
0.0
 30
0.0
  3
*U8
  1

  0
TEXT
  5
1842
  8
250
 10
-12.921244472280669
 20
-13.0
 30
0.0
 40
3.0
  1
20
  0
ENDBLK
  5
1844
  8
0
  0
ENDSEC
  0
SECTION
  2
ENTITIES
  0
TEXT
  5
13E5
  8
241
 10
-83.078457395307282
 20
20.74027816734429
 30
0.0
 40
3.0
  1
ST10-C0207-45-20
  7
YOKO
 11
-83.078457395307282
 21
20.74027816734429
 31
0.0
 73
     1
  0
LINE
  5
161A
  8
250
 10
-2.3197644616588491
 20
3.5
 30
0.0
 11
14.98096205531988
 21
3.4999999999999951
 31
0.0
  0
LINE
  5
161B
  8
250
 10
13.98096205531988
 20
1.2699999999999949
 30
0.0
 11
13.98096205531988
 21
-3.3571428571428599
 31
0.0
  0
LINE
  5
161E
  8
250
 10
0.1802366116640996
 20
0.9999999999999714
 30
0.0
 11
8.0
 21
0.999999999999969
 31
0.0
  0
LINE
  5
161F
  8
250
 10
7.0000000000000009
 20
5.459999999999968
 30
0.0
 11
7.0000000000000009
 21
3.2299999999999689
 31
0.0
  0
LINE
  5
1620
  8
250
 10
7.0
 20
0.9999999999999694
 30
0.0
 11
7.0
 21
-6.0871428571428421
 31
0.0
  0
LINE
  5
1623
  8
250
 10
-20.128203230275631
 20
-4.4000000000000901
 30
0.0
 11
-20.128203230275631
 21
-15.0
 31
0.0
  0
LINE
  5
1624
  8
250
  6
CONTINUOUS
 10
0.0
 20
0.0635471774563143
 30
0.0
 11
-0.000000000000001
 21
-15.0
 31
0.0
  0
LINE
  5
1625
  8
250
 10
-17.89820323027563
 20
-14.0
 30
0.0
 11
-2.23
 21
-14.0
 31
0.0
  0
INSERT
  5
1628
  8
240
  2
*U8
 10
0.0
 20
0.0
 30
0.0
  0
LINE
  5
1629
  8
250
  6
CONTINUOUS
 10
-81.200000000000045
 20
-4.5
 30
0.0
 11
-81.200000000000045
 21
-22.0
 31
0.0
  0
LINE
  5
162A
  8
250
 10
0.0000000000001421
 20
0.06354717745171
 30
0.0
 11
0.0000000000001407
 21
-22.0
 31
0.0
  0
LINE
  5
162B
  8
250
 10
-78.970000000000041
 20
-21.0
 30
0.0
 11
-2.2299999999998592
 21
-21.0
 31
0.0
  0
LINE
  5
162F
  8
250
 10
0.0000850883547514
 20
1.180151660629609
 30
0.0
 11
0.0000850883547518
 21
9.8117747597683849
 31
0.0
  0
LINE
  5
1630
  8
250
 10
-3.6647395257254729
 20
4.3449747012943902
 30
0.0
 11
-6.4569489143817806
 21
7.137182891174267
 31
0.0
  0
ARC
  5
1631
  8
250
 10
0.0000850883547514
 20
0.6801516606296097
 30
0.0
 40
8.1316230991387748
 50
105.7623382005622
 51
119.2376740988099
  0
LINE
  5
1635
  8
250
 10
13.60929538865321
 20
1.2699999999999949
 30
0.0
 11
13.98096205531988
 21
3.4999999999999951
 31
0.0
  0
LINE
  5
1636
  8
250
 10
14.352628721986539
 20
1.2699999999999949
 30
0.0
 11
13.98096205531988
 21
3.4999999999999951
 31
0.0
  0
LINE
  5
1637
  8
250
 10
13.98096205531988
 20
3.4999999999999951
 30
0.0
 11
13.98096205531988
 21
1.2699999999999949
 31
0.0
  0
TEXT
  5
1638
  8
250
 10
12.98096205531988
 20
-2.6428571428571428
 30
0.0
 40
3.0
  1
\U+2205
 50
90.0
  0
TEXT
  5
1639
  8
250
 10
12.98096205531988
 20
0.0714285714285703
 30
0.0
 40
3.0
  1
7
 50
90.0
  0
LINE
  5
163A
  8
250
 10
-80.700000000000045
 20
-5.0
 30
0.0
 11
-91.945130529932598
 21
-4.9999999999999956
 31
0.0
  0
LINE
  5
163B
  8
250
 10
-80.700000000000045
 20
5.0
 30
0.0
 11
-91.945130529932598
 21
5.0000000000000027
 31
0.0
  0
LINE
  5
163C
  8
250
 10
-90.945130529932598
 20
-2.769999999999996
 30
0.0
 11
-90.945130529932598
 21
2.7700000000000031
 31
0.0
  0
TEXT
  5
1640
  8
250
 10
-91.945130529932598
 20
-4.0714285714285818
 30
0.0
 40
3.0
  1
\U+2205
 50
90.0
  0
TEXT
  5
1641
  8
250
 10
-91.945130529932598
 20
-1.3571428571428681
 30
0.0
 40
3.0
  1
10
 50
90.0
  0
LINE
  5
1642
  8
250
 10
-91.316797196599254
 20
2.7700000000000031
 30
0.0
 11
-90.945130529932598
 21
5.0000000000000027
 31
0.0
  0
LINE
  5
1643
  8
250
 10
-90.573463863265914
 20
2.7700000000000031
 30
0.0
 11
-90.945130529932598
 21
5.0000000000000027
 31
0.0
  0
LINE
  5
1644
  8
250
 10
-90.945130529932598
 20
5.0000000000000027
 30
0.0
 11
-90.945130529932598
 21
2.7700000000000031
 31
0.0
  0
LINE
  5
1645
  8
250
 10
-90.573463863265914
 20
-2.769999999999996
 30
0.0
 11
-90.945130529932598
 21
-4.9999999999999956
 31
0.0
  0
LINE
  5
1646
  8
250
 10
-91.316797196599254
 20
-2.769999999999996
 30
0.0
 11
-90.945130529932598
 21
-4.9999999999999956
 31
0.0
  0
LINE
  5
1647
  8
250
 10
-90.945130529932598
 20
-4.9999999999999956
 30
0.0
 11
-90.945130529932598
 21
-2.769999999999996
 31
0.0
  0
TEXT
  5
1648
  8
250
 10
-43.028571428571382
 20
-20.0
 30
0.0
 40
3.0
  1
81
  0
LINE
  5
1649
  8
250
 10
-2.2299999999998592
 20
-20.62833333333333
 30
0.0
 11
0.0000000000001408
 21
-21.0
 31
0.0
  0
LINE
  5
164A
  8
250
 10
-2.2299999999998592
 20
-21.371666666666659
 30
0.0
 11
0.0000000000001408
 21
-21.0
 31
0.0
  0
LINE
  5
164B
  8
250
 10
0.0000000000001408
 20
-21.0
 30
0.0
 11
-2.2299999999998592
 21
-21.0
 31
0.0
  0
LINE
  5
164C
  8
250
 10
-78.970000000000041
 20
-21.371666666666659
 30
0.0
 11
-81.200000000000045
 21
-21.0
 31
0.0
  0
LINE
  5
164D
  8
250
 10
-78.970000000000041
 20
-20.62833333333333
 30
0.0
 11
-81.200000000000045
 21
-21.0
 31
0.0
  0
LINE
  5
164E
  8
250
 10
-81.200000000000045
 20
-21.0
 30
0.0
 11
-78.970000000000041
 21
-21.0
 31
0.0
  0
LINE
  5
164F
  8
250
 10
-2.23
 20
-13.62833333333333
 30
0.0
 11
-0.0000000000000009
 21
-14.0
 31
0.0
  0
LINE
  5
1650
  8
250
 10
-2.23
 20
-14.371666666666661
 30
0.0
 11
-0.0000000000000009
 21
-14.0
 31
0.0
  0
LINE
  5
1651
  8
250
 10
-0.0000000000000009
 20
-14.0
 30
0.0
 11
-2.23
 21
-14.0
 31
0.0
  0
LINE
  5
1652
  8
250
 10
-17.89820323027563
 20
-14.371666666666661
 30
0.0
 11
-20.128203230275631
 21
-14.0
 31
0.0
  0
LINE
  5
1653
  8
250
 10
-17.89820323027563
 20
-13.62833333333333
 30
0.0
 11
-20.128203230275631
 21
-14.0
 31
0.0
  0
LINE
  5
1654
  8
250
 10
-20.128203230275631
 20
-14.0
 30
0.0
 11
-17.89820323027563
 21
-14.0
 31
0.0
  0
TEXT
  5
1655
  8
250
 10
5.9999999999999982
 20
-5.6207119280425264
 30
0.0
 40
3.0
  1
\U+2205
 50
90.0
  0
TEXT
  5
1656
  8
250
 10
5.9999999999999982
 20
-2.9064262137568111
 30
0.0
 40
3.0
  1
2
 50
90.0
  0
LINE
  5
1657
  8
250
 10
7.371666666666667
 20
3.2299999999999689
 30
0.0
 11
7.0
 21
0.9999999999999694
 31
0.0
  0
LINE
  5
1658
  8
250
 10
6.6283333333333339
 20
3.2299999999999689
 30
0.0
 11
7.0
 21
0.9999999999999694
 31
0.0
  0
LINE
  5
1659
  8
250
 10
7.0
 20
0.9999999999999694
 30
0.0
 11
7.0
 21
3.2299999999999689
 31
0.0
  0
TEXT
  5
165A
  8
250
 10
-7.054235894864112
 20
8.7040067401738117
 30
0.0
 40
3.0
  1
45üï
 50
14.194210650417141
  0
LINE
  5
165B
  8
250
 10
-3.7473825245060022
 20
7.4794533315626941
 30
0.0
 11
-5.7498419814044981
 21
6.4300762617784883
 31
0.0
  0
LINE
  5
165C
  8
250
 10
-4.1959620853494481
 20
8.0721765570549522
 30
0.0
 11
-5.7498419814044981
 21
6.4300762617784883
 31
0.0
  0
LINE
  5
165D
  8
250
 10
-5.7498419814044981
 20
6.4300762617784883
 30
0.0
 11
-3.9716723049277238
 21
7.7758149443088236
 31
0.0
  0
LINE
  5
165E
  8
250
 10
-2.2598141908646312
 20
8.8741555171765896
 30
0.0
 11
0.0000850883547523
 21
8.8117747597683831
 31
0.0
  0
LINE
  5
165F
  8
250
 10
-2.1578890700662452
 20
8.1378432775698606
 30
0.0
 11
0.0000850883547523
 21
8.8117747597683831
 31
0.0
  0
LINE
  5
1660
  8
250
 10
0.0000850883547523
 20
8.8117747597683831
 30
0.0
 11
-2.2088516304654382
 21
8.5059993973732251
 31
0.0
  0
INSERT
  5
1749
  8
240
  2
A$C1EB97502
 10
0.0
 20
0.0
 30
0.0
  0
VIEWPORT
  5
22
 67
     1
  8
0
 10
261.51769911504419
 20
148.5
 30
0.0
 40
523.0353982300885
 41
297.0
 68
     1
 69
     1
1001
ACAD
1000
MVIEW
1002
{
1070
    16
1010
0.0
1020
0.0
1030
0.0
1010
0.0
1020
0.0
1030
1.0
1040
0.0
1040
297.0
1040
261.51769911504419
1040
148.5
1040
50.0
1040
0.0
1040
0.0
1070
     0
1070
   100
1070
     1
1070
     1
1070
     0
1070
     0
1070
     0
1070
     0
1040
0.0
1040
0.0
1040
0.0
1040
1.0
1040
1.0
1040
10.0
1040
10.0
1070
     0
1002
{
1002
}
1002
}
1001
GENIUS_GENODEF_13
1002
{
1000
HIER
1070
     0
1002
}
1002
{
1000
MANEDIT
1070
     0
1002
}
1002
{
1000
NOSEL
1070
     0
1002
}
1002
{
1000
BEHIND
1070
     0
1002
}
1002
{
1000
OTHER
1070
     0
1002
}
1002
{
1000
REACTOR
1002
}
1001
GENIUS_GENOBJ-N-SDF_13
1002
{
1000
OWNER
1000
GEN
1002
}
1001
GENIUS_GENSCREG_15
1000
PF
1040
1.0
1000
DF
1040
1.0
1000
MIN
1011
0.0
1021
-0.0
1031
0.0
1021
0.0
1031
0.0
1000
MAX
1011
523.0353982300885
1021
-0.0
1031
0.0
1021
297.0
1031
0.0
1000
FLAGS
1070
     2
  0
ENDSEC
  0
EOF
