  0
SECTION
  2
HEADER
  9
$ACADVER
  1
AC1009
  9
$INSBASE
 10
0.0
 20
0.0
 30
0.0
  9
$EXTMIN
 10
-2.9301260704027872
 20
-12.344256307228649
 30
0.0
  9
$EXTMAX
 10
94.082337308327325
 20
38.0
 30
0.0
  9
$LIMMIN
 10
0.0
 20
0.0
  9
$LIMMAX
 10
297.0
 20
210.0
  9
$ORTHOMODE
 70
     1
  9
$REGENMODE
 70
     1
  9
$FILLMODE
 70
     1
  9
$QTEXTMODE
 70
     0
  9
$MIRRTEXT
 70
     1
  9
$DRAGMODE
 70
     2
  9
$LTSCALE
 40
10.0
  9
$OSMODE
 70
    37
  9
$ATTMODE
 70
     1
  9
$TEXTSIZE
 40
3.0
  9
$TRACEWID
 40
1.0
  9
$TEXTSTYLE
  7
YOKO
  9
$CLAYER
  8
241
  9
$CELTYPE
  6
BYLAYER
  9
$CECOLOR
 62
   256
  9
$DIMSCALE
 40
1.0
  9
$DIMASZ
 40
2.2299999999999991
  9
$DIMEXO
 40
0.5
  9
$DIMDLI
 40
7.0
  9
$DIMRND
 40
0.0
  9
$DIMDLE
 40
0.0
  9
$DIMEXE
 40
1.0
  9
$DIMTP
 40
0.0
  9
$DIMTM
 40
0.01
  9
$DIMTXT
 40
2.7999999999999989
  9
$DIMCEN
 40
0.0
  9
$DIMTSZ
 40
0.0
  9
$DIMTOL
 70
     0
  9
$DIMLIM
 70
     0
  9
$DIMTIH
 70
     0
  9
$DIMTOH
 70
     0
  9
$DIMSE1
 70
     0
  9
$DIMSE2
 70
     0
  9
$DIMTAD
 70
     3
  9
$DIMZIN
 70
     9
  9
$DIMBLK
  1
OPEN
  9
$DIMASO
 70
     1
  9
$DIMSHO
 70
     1
  9
$DIMPOST
  1

  9
$DIMAPOST
  1

  9
$DIMALT
 70
     0
  9
$DIMALTD
 70
     2
  9
$DIMALTF
 40
25.399999999999999
  9
$DIMLFAC
 40
1.0
  9
$DIMTOFL
 70
     1
  9
$DIMTVP
 40
0.0
  9
$DIMTIX
 70
     1
  9
$DIMSOXD
 70
     0
  9
$DIMSAH
 70
     0
  9
$DIMBLK1
  1

  9
$DIMBLK2
  1

  9
$DIMSTYLE
  2
BIGT
  9
$DIMCLRD
 70
   256
  9
$DIMCLRE
 70
   256
  9
$DIMCLRT
 70
    40
  9
$DIMTFAC
 40
1.0
  9
$DIMGAP
 40
1.0
  9
$LUNITS
 70
     2
  9
$LUPREC
 70
     6
  9
$SKETCHINC
 40
1.0
  9
$FILLETRAD
 40
0.0
  9
$AUNITS
 70
     0
  9
$AUPREC
 70
     6
  9
$MENU
  1
.
  9
$ELEVATION
 40
0.0
  9
$PELEVATION
 40
0.0
  9
$THICKNESS
 40
0.0
  9
$LIMCHECK
 70
     0
  9
$BLIPMODE
 70
     0
  9
$CHAMFERA
 40
0.2
  9
$CHAMFERB
 40
0.2
  9
$SKPOLY
 70
     0
  9
$TDCREATE
 40
2458474.661838993
  9
$TDUPDATE
 40
2458474.6759108221
  9
$TDINDWG
 40
0.0074146412
  9
$TDUSRTIMER
 40
0.0074145833
  9
$USRTIMER
 70
     1
  9
$ANGBASE
 50
0.0
  9
$ANGDIR
 70
     0
  9
$PDMODE
 70
     1
  9
$PDSIZE
 40
0.0
  9
$PLINEWID
 40
0.0
  9
$COORDS
 70
     1
  9
$SPLFRAME
 70
     0
  9
$SPLINETYPE
 70
     6
  9
$SPLINESEGS
 70
     4
  9
$ATTDIA
 70
     1
  9
$ATTREQ
 70
     1
  9
$HANDLING
 70
     1
  9
$HANDSEED
  5
46A6
  9
$SURFTAB1
 70
     6
  9
$SURFTAB2
 70
     6
  9
$SURFTYPE
 70
     6
  9
$SURFU
 70
     6
  9
$SURFV
 70
     6
  9
$UCSNAME
  2

  9
$UCSORG
 10
0.0
 20
0.0
 30
0.0
  9
$UCSXDIR
 10
1.0
 20
0.0
 30
0.0
  9
$UCSYDIR
 10
0.0
 20
1.0
 30
0.0
  9
$PUCSNAME
  2

  9
$PUCSORG
 10
0.0
 20
0.0
 30
0.0
  9
$PUCSXDIR
 10
1.0
 20
0.0
 30
0.0
  9
$PUCSYDIR
 10
0.0
 20
1.0
 30
0.0
  9
$USERI1
 70
     1
  9
$USERI2
 70
     0
  9
$USERI3
 70
     0
  9
$USERI4
 70
     0
  9
$USERI5
 70
     0
  9
$USERR1
 40
0.0
  9
$USERR2
 40
0.0
  9
$USERR3
 40
0.0
  9
$USERR4
 40
0.0
  9
$USERR5
 40
0.0
  9
$WORLDVIEW
 70
     1
  9
$SHADEDGE
 70
     3
  9
$SHADEDIF
 70
    70
  9
$TILEMODE
 70
     1
  9
$MAXACTVP
 70
    16
  9
$PLIMCHECK
 70
     0
  9
$PEXTMIN
 10
1.0000000000000000E+020
 20
1.0000000000000000E+020
 30
1.0000000000000000E+020
  9
$PEXTMAX
 10
-1.0000000000000000E+020
 20
-1.0000000000000000E+020
 30
-1.0000000000000000E+020
  9
$PLIMMIN
 10
0.0
 20
0.0
  9
$PLIMMAX
 10
420.0
 20
297.0
  9
$UNITMODE
 70
     0
  9
$VISRETAIN
 70
     1
  9
$PLINEGEN
 70
     0
  9
$PSLTSCALE
 70
     1
  0
ENDSEC
  0
SECTION
  2
TABLES
  0
TABLE
  2
VPORT
 70
     1
  0
VPORT
  2
*ACTIVE
 70
     0
 10
0.0
 20
0.0
 11
1.0
 21
1.0
 12
52.88016313848086
 22
17.093910664823849
 13
0.0
 23
0.0
 14
7.0
 24
7.0
 15
7.0
 25
7.0
 16
0.0
 26
0.0
 36
1.0
 17
0.0
 27
0.0
 37
0.0
 40
125.745186733656
 41
1.5459770114942519
 42
50.0
 43
0.0
 44
0.0
 50
0.0
 51
0.0
 71
     0
 72
  2000
 73
     1
 74
     0
 75
     0
 76
     1
 77
     0
 78
     0
  0
ENDTAB
  0
TABLE
  2
LTYPE
 70
    21
  0
LTYPE
  2
CONTINUOUS
 70
     0
  3
Solid line
 72
    65
 73
     0
 40
0.0
  0
LTYPE
  2
CENTER2
 70
     0
  3
___ _ ___ _ ___ _ ___ _ ___ _ ___ _ ___ _ ___ _
 72
    65
 73
     4
 40
1.125
 49
0.75
 49
-0.125
 49
0.125
 49
-0.125
  0
LTYPE
  2
AM_ISO02W050
 70
     0
  3
__ __ __ __ __ __ __ __ __ __ __ __ __ __ __
 72
    65
 73
     2
 40
7.5
 49
6.0
 49
-1.5
  0
LTYPE
  2
AMCONSTR
 70
     0
  3
_______________________
 72
    65
 73
     2
 40
9999.0
 49
9999.0
 49
0.0
  0
LTYPE
  2
ACISOWELD
 70
     0
  3
_ _ _ _ _
 72
    65
 73
     2
 40
2.0
 49
2.0
 49
-1.0
  0
LTYPE
  2
ACISOTGB
 70
     0
  3
__ . . __ . .
 72
    65
 73
     6
 40
9.0
 49
4.0
 49
-1.0
 49
1.0
 49
-1.0
 49
1.0
 49
-1.0
  0
LTYPE
  2
ACISOTGL
 70
     0
  3
_ _ _ _ _
 72
    65
 73
     2
 40
3.0
 49
2.0
 49
-1.0
  0
LTYPE
  2
AM_ISO08W050
 70
     0
  3
____ . ____ . ____ . ____ . ____ . ____ . ____
 72
    65
 73
     4
 40
18.0
 49
12.0
 49
-1.5
 49
3.0
 49
-1.5
  0
LTYPE
  2
AM_ISO09W050
 70
     0
  3
_____ . . _____ . . _____ . . ____ .. ____
 72
    65
 73
     6
 40
22.5
 49
12.0
 49
-1.5
 49
3.0
 49
-1.5
 49
3.0
 49
-1.5
  0
LTYPE
  2
AM_ISO08W050X2
 70
     0
  3
__ . __ . __ . __ . __ . __
 72
    65
 73
     4
 40
9.0
 49
6.0
 49
-0.75
 49
1.5
 49
-0.75
  0
LTYPE
  2
AM_ISO02W050X2
 70
     0
  3
 _ _ _ _ _ _ _ _ _ _ _ _
 72
    65
 73
     2
 40
3.75
 49
3.0
 49
-0.75
  0
LTYPE
  2
AMZIGZAG
 70
     0
  3
/\/-/\/-/\/-/\/-/\/-/\/
 72
    65
 73
     2
 40
11.0001
 49
0.0001
 49
-11.0
  0
ENDTAB
  0
TABLE
  2
LAYER
 70
    16
  0
LAYER
  2
0
 70
     0
 62
     7
  6
CONTINUOUS
  0
LAYER
  2
DEFPOINTS
 70
     0
 62
     7
  6
CONTINUOUS
  0
LAYER
  2
245
 70
     0
 62
     2
  6
CENTER2
  0
LAYER
  2
240
 70
     0
 62
     4
  6
CONTINUOUS
  0
LAYER
  2
241
 70
     0
 62
   211
  6
CONTINUOUS
  0
LAYER
  2
247
 70
     0
 62
    60
  6
CONTINUOUS
  0
LAYER
  2
250
 70
     0
 62
     3
  6
CONTINUOUS
  0
ENDTAB
  0
TABLE
  2
STYLE
 70
     9
  0
STYLE
  2
STANDARD
 70
     0
 40
0.0
 41
1.0
 50
0.0
 71
     0
 42
3.0
  3
romans.shx
  4
extfont.shx
  0
STYLE
  2
ACISOGDT
 70
     0
 40
0.0
 41
1.0
 50
0.0
 71
     0
 42
3.0
  3
amgdt.shx
  4
extfont.shx
  0
STYLE
  2
ACJISTS
 70
     0
 40
1.0
 41
1.0
 50
0.0
 71
     0
 42
3.0
  3
amgdt.shx
  4
extfont.shx
  0
STYLE
  2
YOKO
 70
     0
 40
0.0
 41
1.0
 50
0.0
 71
     0
 42
3.0
  3
romans.shx
  4
extfont.shx
  0
STYLE
  2

 70
     1
 40
0.0
 41
1.0
 50
0.0
 71
     0
 42
1.5
  3
ltypeshp.shx
  4

  0
ENDTAB
  0
TABLE
  2
VIEW
 70
     0
  0
ENDTAB
  0
TABLE
  2
UCS
 70
     0
  0
ENDTAB
  0
TABLE
  2
APPID
 70
    42
  0
APPID
  2
ACAD
 70
     0
  0
APPID
  2
GLOBAL
 70
     0
  0
APPID
  2
DETAIL
 70
     0
  0
APPID
  2
GRPNAME
 70
     0
  0
APPID
  2
GPARA
 70
     0
  0
APPID
  2
MCAD_NO_VIS
 70
     0
  0
APPID
  2
ACAD_TEMP_GRAPHIC
 70
     0
  0
APPID
  2
ACATTRIBSERVICES
 70
     0
  0
APPID
  2
GENIUS_GENSCREG_15
 70
     0
  0
APPID
  2
GENIUS_GENODEF_13
 70
     0
  0
APPID
  2
GENIUS_GENOBJ-N-SDF_13
 70
     0
  0
APPID
  2
GENIUS_GENREC_14
 70
     0
  0
APPID
  2
GENIUS_GENOBJ-N-REC_13
 70
     0
  0
APPID
  2
GENIUS_GENDIMSH_14
 70
     0
  0
APPID
  2
GENIUS_GENOBJ-N-DIM_13
 70
     0
  0
APPID
  2
GENIUS_GENDIM_13
 70
     0
  0
APPID
  2
GENIUS_GENDTOL_13
 70
     0
  0
APPID
  2
GENIUS_GENOLIS_13
 70
     0
  0
APPID
  2
GENIUS_GENOENT_13
 70
     0
  0
APPID
  2
GENIUS_GENOBJ-F-FEM_13
 70
     0
  0
APPID
  2
GENIUS_GENOREF_13
 70
     0
  0
APPID
  2
GENIUS_GEFFEM_13
 70
     0
  0
APPID
  2
GENIUS_GEFFEMP_13
 70
     0
  0
APPID
  2
AD_DRAW
 70
     0
  0
APPID
  2
DESIGNERASSEMBLIES
 70
     0
  0
APPID
  2
ACADM_DIM_EDIT
 70
     0
  0
APPID
  2
AMDT_DM_ADJ
 70
     0
  0
APPID
  2
ITEMNAME
 70
     0
  0
APPID
  2
GENIUS_GENOBJ-N-FIL_13
 70
     0
  0
APPID
  2
GENIUS_GENFIL_13
 70
     0
  0
APPID
  2
GENIUS_GENOBJ-N-CHA_13
 70
     0
  0
APPID
  2
ACAECLAYERSTANDARD
 70
     0
  0
APPID
  2
ACAD_NAV_VCDISPLAY
 70
     0
  0
APPID
  2
ACAD_DSTYLE_DIMINSPECT
 70
     0
  0
APPID
  2
ACAD_EXEMPT_FROM_CAD_STANDARDS
 70
     0
  0
APPID
  2
ACAD_DSTYLE_DIMJAG
 70
     0
  0
APPID
  2
ACAD_DSTYLE_DIMBREAK
 70
     0
  0
APPID
  2
ACAD_MLEADERVER
 70
     0
  0
APPID
  2
ACAD_DSTYLE_DIMARC_LENGTH_
 70
     0
  0
APPID
  2
ACAD_DSTYLE_DIM_LINETYPE
 70
     0
  0
APPID
  2
ACAD_DSTYLE_DIM_EXT1_LINETYPE
 70
     0
  0
APPID
  2
ACAD_DSTYLE_DIM_EXT2_LINETYPE
 70
     0
  0
ENDTAB
  0
TABLE
  2
DIMSTYLE
 70
    32
  0
DIMSTYLE
  2
BIGT
 70
     0
  3

  4

  5
OPEN
  6

  7

 40
1.0
 41
2.2299999999999991
 42
0.5
 43
7.0
 44
1.0
 45
0.0
 46
0.0
 47
0.0
 48
0.01
140
2.7999999999999989
141
0.0
142
0.0
143
25.399999999999999
144
1.0
145
0.0
146
1.0
147
1.0
 71
     0
 72
     0
 73
     0
 74
     0
 75
     0
 76
     0
 77
     3
 78
     9
170
     0
171
     2
172
     1
173
     0
174
     1
175
     0
176
   256
177
   256
178
    40
  0
DIMSTYLE
  2
AM_ISO
 70
     0
  3

  4
"
  5

  6

  7

 40
1.0
 41
2.5
 42
1.0
 43
10.0
 44
1.0
 45
0.0
 46
0.0
 47
0.1
 48
0.1
140
3.5
141
0.0
142
0.0
143
0.0393701
144
1.0
145
0.0
146
0.71
147
1.5
 71
     0
 72
     0
 73
     0
 74
     0
 75
     0
 76
     0
 77
     1
 78
     8
170
     0
171
     2
172
     1
173
     0
174
     0
175
     0
176
   256
177
   256
178
     2
  0
DIMSTYLE
  2
AM_ISO$3
 70
     0
  3

  4
"
  5

  6

  7

 40
1.0
 41
2.5
 42
1.0
 43
10.0
 44
1.0
 45
0.0
 46
0.0
 47
0.1
 48
0.1
140
3.5
141
0.0
142
0.0
143
0.0393701
144
1.0
145
0.0
146
0.71
147
1.5
 71
     0
 72
     0
 73
     0
 74
     1
 75
     0
 76
     0
 77
     1
 78
     8
170
     0
171
     2
172
     0
173
     0
174
     0
175
     0
176
   256
177
   256
178
     2
  0
DIMSTYLE
  2
AM_ISO$4
 70
     0
  3

  4
"
  5

  6

  7

 40
1.0
 41
2.5
 42
1.0
 43
10.0
 44
1.0
 45
0.0
 46
0.0
 47
0.1
 48
0.1
140
3.5
141
0.0
142
0.0
143
0.0393701
144
1.0
145
0.0
146
0.71
147
1.5
 71
     0
 72
     0
 73
     0
 74
     1
 75
     0
 76
     0
 77
     1
 78
     8
170
     0
171
     2
172
     0
173
     0
174
     0
175
     0
176
   256
177
   256
178
     2
  0
DIMSTYLE
  2
AM_ISO$6
 70
     0
  3

  4
"
  5

  6

  7

 40
1.0
 41
2.5
 42
1.0
 43
10.0
 44
1.0
 45
0.0
 46
0.0
 47
0.1
 48
0.1
140
3.5
141
0.0
142
0.0
143
0.0393701
144
1.0
145
0.0
146
0.71
147
1.5
 71
     0
 72
     0
 73
     0
 74
     0
 75
     0
 76
     0
 77
     0
 78
     8
170
     0
171
     2
172
     1
173
     0
174
     0
175
     0
176
   256
177
   256
178
     2
  0
DIMSTYLE
  2
AM_ISO$7
 70
     0
  3

  4
"
  5

  6

  7

 40
1.0
 41
2.5
 42
1.0
 43
10.0
 44
1.0
 45
0.0
 46
0.0
 47
0.1
 48
0.1
140
5.0
141
0.0
142
0.0
143
0.0393701
144
1.0
145
0.0
146
0.71
147
1.5
 71
     0
 72
     0
 73
     0
 74
     0
 75
     0
 76
     0
 77
     1
 78
     8
170
     0
171
     2
172
     1
173
     0
174
     0
175
     0
176
   256
177
   256
178
     2
  0
DIMSTYLE
  2
AM_ISO$SF
 70
     0
  3

  4
"
  5

  6

  7

 40
1.0
 41
2.5
 42
1.0
 43
10.0
 44
1.0
 45
0.0
 46
0.0
 47
0.1
 48
0.1
140
3.5
141
0.0
142
0.0
143
0.0393701
144
1.0
145
0.0
146
0.71
147
1.5
 71
     0
 72
     0
 73
     0
 74
     0
 75
     1
 76
     1
 77
     1
 78
     8
170
     0
171
     2
172
     1
173
     0
174
     0
175
     0
176
   256
177
   256
178
     2
  0
DIMSTYLE
  2
AM_ISO$SH
 70
     0
  3

  4
"
  5

  6
GENAXEH
  7

 40
1.0
 41
2.5
 42
1.0
 43
10.0
 44
1.0
 45
0.0
 46
0.0
 47
0.1
 48
0.1
140
3.5
141
0.0
142
0.0
143
0.0393701
144
2.0
145
0.0
146
0.71
147
1.5
 71
     0
 72
     0
 73
     0
 74
     0
 75
     1
 76
     1
 77
     1
 78
     8
170
     0
171
     2
172
     1
173
     1
174
     0
175
     0
176
   256
177
   256
178
     2
  0
ENDTAB
  0
ENDSEC
  0
SECTION
  2
BLOCKS
  0
BLOCK
  8
0
  2
$MODEL_SPACE
 70
     0
 10
0.0
 20
0.0
 30
0.0
  3
$MODEL_SPACE
  1

  0
ENDBLK
  5
1C
  8
0
  0
BLOCK
 67
     1
  8
0
  2
$PAPER_SPACE
 70
     0
 10
0.0
 20
0.0
 30
0.0
  3
$PAPER_SPACE
  1

  0
ENDBLK
  5
19
 67
     1
  8
0
  0
BLOCK
  8
0
  2
_OPEN
 70
     0
 10
0.0
 20
0.0
 30
0.0
  3
_OPEN
  1

  0
LINE
  5
3E1A
  8
0
  6
BYBLOCK
 62
     0
 10
-1.0
 20
0.1666666666666666
 30
0.0
 11
0.0
 21
0.0
 31
0.0
  0
LINE
  5
3E1B
  8
0
  6
BYBLOCK
 62
     0
 10
-1.0
 20
-0.1666666666666666
 30
0.0
 11
0.0
 21
0.0
 31
0.0
  0
LINE
  5
3E1C
  8
0
  6
BYBLOCK
 62
     0
 10
0.0
 20
0.0
 30
0.0
 11
-1.0
 21
0.0
 31
0.0
  0
ENDBLK
  5
3E1D
  8
0
  0
BLOCK
  8
0
  2
GENAXEH
 70
     0
 10
0.0
 20
0.0
 30
0.0
  3
GENAXEH
  1

  0
LINE
  5
3E45
  8
0
 10
-1.0
 20
0.0
 30
0.0
 11
1.0
 21
0.0
 31
0.0
  0
ENDBLK
  5
3E46
  8
0
  0
BLOCK
  8
0
  2
*U18
 70
     1
 10
0.0
 20
0.0
 30
0.0
  3
*U18
  1

  0
TEXT
  5
45F9
  8
241
 62
    40
 10
194.99999999999989
 20
133.69771966757989
 30
0.0
 40
2.799999999999998
  1
\U+22056
 50
90.0
  0
ENDBLK
  5
45FB
  8
0
  0
BLOCK
  8
0
  2
*U19
 70
     1
 10
0.0
 20
0.0
 30
0.0
  3
*U19
  1

  0
TEXT
  5
45FD
  8
241
 62
    40
 10
114.70317799369749
 20
120.0
 30
0.0
 40
2.799999999999998
  1
17
  0
ENDBLK
  5
45FF
  8
0
  0
BLOCK
  8
0
  2
*U20
 70
     1
 10
0.0
 20
0.0
 30
0.0
  3
*U20
  1

  0
TEXT
  5
4601
  8
241
 62
    40
 10
141.4031779936976
 20
113.0
 30
0.0
 40
2.799999999999998
  1
70
  0
ENDBLK
  5
4603
  8
0
  0
BLOCK
  8
0
  2
*U21
 70
     1
 10
0.0
 20
0.0
 30
0.0
  3
*U21
  1

  0
TEXT
  5
4605
  8
241
 62
    40
 10
99.601458843230589
 20
130.3644527938315
 30
0.0
 40
2.799999999999998
  1
\U+22053.75
 50
90.0
  0
ENDBLK
  5
4607
  8
0
  0
BLOCK
  8
0
  2
*U22
 70
     1
 10
0.0
 20
0.0
 30
0.0
  3
*U22
  1

  0
TEXT
  5
4609
  8
241
 62
    40
 10
84.987298896965044
 20
129.5221671990102
 30
0.0
 40
2.799999999999998
  1
1.951
 50
90.0
  0
ENDBLK
  5
460B
  8
0
  0
BLOCK
  8
0
  2
*U23
 70
     1
 10
0.0
 20
0.0
 30
0.0
  3
*U23
  1

  0
TEXT
  5
460D
  8
241
 62
    40
 10
-17.930363794707599
 20
-2.5999999999999961
 30
0.0
 40
2.7999999999999989
  1
\U+22056
 50
90.0
  0
ENDBLK
  5
460F
  8
0
  0
BLOCK
  8
0
  2
*U24
 70
     1
 10
0.0
 20
0.0
 30
0.0
  3
*U24
  1

  0
TEXT
  5
4611
  8
241
 62
    40
 10
77.468177362061795
 20
-5.933399792918272
 30
0.0
 40
2.7999999999999989
  1
\U+22053.75
 50
90.0
  0
ENDBLK
  5
4613
  8
0
  0
BLOCK
  8
0
  2
*U25
 70
     1
 10
0.0
 20
0.0
 30
0.0
  3
*U25
  1

  0
TEXT
  5
4615
  8
241
 62
    40
 10
92.082337308327325
 20
-4.8244475314303088
 30
0.0
 40
2.7999999999999989
  1
1.951
 50
90.0
  0
ENDBLK
  5
4617
  8
0
  0
BLOCK
  8
0
  2
*U26
 70
     1
 10
0.0
 20
0.0
 30
0.0
  3
*U26
  1

  0
TEXT
  5
461D
  8
241
 62
    40
 10
32.333124878261494
 20
25.297719667579909
 30
0.0
 40
2.7999999999999989
  1
70
  0
ENDBLK
  5
461F
  8
0
  0
BLOCK
  8
0
  2
*U27
 70
     1
 10
0.0
 20
0.0
 30
0.0
  3
*U27
  1

  0
TEXT
  5
4621
  8
241
 62
    40
 10
59.132916423189599
 20
18.297719667579901
 30
0.0
 40
2.7999999999999989
  1
16
  0
ENDBLK
  5
4623
  8
0
  0
ENDSEC
  0
SECTION
  2
ENTITIES
  0
LINE
  5
42E5
  8
240
  6
CONTINUOUS
 10
51.875000000000099
 20
2.9999999999999929
 30
0.0
 11
0.0
 21
3.0
 31
0.0
  0
LINE
  5
42E6
  8
240
  6
CONTINUOUS
 10
-0.0000000000000003
 20
-3.0
 30
0.0
 11
51.875000000000099
 21
-3.0000000000000062
 31
0.0
  0
LINE
  5
42E9
  8
240
  6
CONTINUOUS
 10
51.875000000000099
 20
-3.0000000000000062
 30
0.0
 11
53.000000000000099
 21
-1.875000000000006
 31
0.0
  0
LINE
  5
42EA
  8
240
  6
CONTINUOUS
 10
53.000000000000099
 20
1.8749999999999929
 30
0.0
 11
51.875000000000099
 21
2.9999999999999929
 31
0.0
  0
LINE
  5
42EB
  8
240
  6
CONTINUOUS
 10
65.474039761089898
 20
1.874999999999992
 30
0.0
 11
53.000000000000099
 21
1.8749999999999929
 31
0.0
  0
LINE
  5
42EC
  8
240
  6
CONTINUOUS
 10
53.000000000000099
 20
-1.875000000000006
 30
0.0
 11
69.274615197549807
 21
-1.875000000000008
 31
0.0
  0
LINE
  5
42F7
  8
241
  6
CONTINUOUS
 10
51.875000000000099
 20
-0.0000000000000064
 30
0.0
 11
51.875000000000099
 21
-3.0000000000000062
 31
0.0
  0
LINE
  5
42F8
  8
241
  6
CONTINUOUS
 10
51.875000000000099
 20
2.9999999999999929
 30
0.0
 11
51.875000000000099
 21
-0.0000000000000064
 31
0.0
  0
LINE
  5
42F9
  8
240
  6
CONTINUOUS
 10
0.0000000000000004
 20
3.0
 30
0.0
 11
-0.0000000000000003
 21
-3.0
 31
0.0
  0
LINE
  5
42FA
  8
241
  6
CONTINUOUS
 10
53.000000000000099
 20
-0.0000000000000065
 30
0.0
 11
53.000000000000099
 21
-1.875000000000006
 31
0.0
  0
LINE
  5
42FB
  8
241
  6
CONTINUOUS
 10
53.000000000000099
 20
1.8749999999999929
 30
0.0
 11
53.000000000000099
 21
-0.0000000000000065
 31
0.0
  0
LINE
  5
42FC
  8
240
  6
CONTINUOUS
 10
65.499999999999986
 20
1.874867080830106
 30
0.0
 11
65.883006975010304
 21
1.874867080830106
 31
0.0
  0
POLYLINE
  5
42FD
  8
241
  6
CONTINUOUS
 10
65.5
 20
1.8748670808300116
 30
0.0
 66
     1
 70
     8
  0
VERTEX
  8
241
  5
4624
 10
65.5000
 20
1.87487
 30
0.000000
  70
    32
  0
VERTEX
  8
241
  5
4625
 10
65.4539
 20
1.87492
 30
0.000000
  70
    32
  0
VERTEX
  8
241
  5
4626
 10
65.4080
 20
1.87413
 30
0.000000
  70
    32
  0
VERTEX
  8
241
  5
4627
 10
65.3623
 20
1.87250
 30
0.000000
  70
    32
  0
VERTEX
  8
241
  5
4628
 10
65.3169
 20
1.87003
 30
0.000000
  70
    32
  0
VERTEX
  8
241
  5
4629
 10
65.2719
 20
1.86672
 30
0.000000
  70
    32
  0
VERTEX
  8
241
  5
462A
 10
65.2271
 20
1.86257
 30
0.000000
  70
    32
  0
VERTEX
  8
241
  5
462B
 10
65.1827
 20
1.85759
 30
0.000000
  70
    32
  0
VERTEX
  8
241
  5
462C
 10
65.1386
 20
1.85177
 30
0.000000
  70
    32
  0
VERTEX
  8
241
  5
462D
 10
65.0949
 20
1.84512
 30
0.000000
  70
    32
  0
VERTEX
  8
241
  5
462E
 10
65.0516
 20
1.83765
 30
0.000000
  70
    32
  0
VERTEX
  8
241
  5
462F
 10
65.0087
 20
1.82935
 30
0.000000
  70
    32
  0
VERTEX
  8
241
  5
4630
 10
64.9663
 20
1.82023
 30
0.000000
  70
    32
  0
VERTEX
  8
241
  5
4631
 10
64.9243
 20
1.81029
 30
0.000000
  70
    32
  0
VERTEX
  8
241
  5
4632
 10
64.8828
 20
1.79954
 30
0.000000
  70
    32
  0
VERTEX
  8
241
  5
4633
 10
64.8418
 20
1.78798
 30
0.000000
  70
    32
  0
VERTEX
  8
241
  5
4634
 10
64.8012
 20
1.77562
 30
0.000000
  70
    32
  0
VERTEX
  8
241
  5
4635
 10
64.7613
 20
1.76246
 30
0.000000
  70
    32
  0
VERTEX
  8
241
  5
4636
 10
64.7218
 20
1.74851
 30
0.000000
  70
    32
  0
VERTEX
  8
241
  5
4637
 10
64.6829
 20
1.73378
 30
0.000000
  70
    32
  0
VERTEX
  8
241
  5
4638
 10
64.6446
 20
1.71827
 30
0.000000
  70
    32
  0
VERTEX
  8
241
  5
4639
 10
64.6069
 20
1.70198
 30
0.000000
  70
    32
  0
VERTEX
  8
241
  5
463A
 10
64.5698
 20
1.68494
 30
0.000000
  70
    32
  0
VERTEX
  8
241
  5
463B
 10
64.5334
 20
1.66713
 30
0.000000
  70
    32
  0
VERTEX
  8
241
  5
463C
 10
64.4976
 20
1.64858
 30
0.000000
  70
    32
  0
VERTEX
  8
241
  5
463D
 10
64.4624
 20
1.62929
 30
0.000000
  70
    32
  0
VERTEX
  8
241
  5
463E
 10
64.4279
 20
1.60927
 30
0.000000
  70
    32
  0
VERTEX
  8
241
  5
463F
 10
64.3942
 20
1.58853
 30
0.000000
  70
    32
  0
VERTEX
  8
241
  5
4640
 10
64.3611
 20
1.56707
 30
0.000000
  70
    32
  0
VERTEX
  8
241
  5
4641
 10
64.3288
 20
1.54491
 30
0.000000
  70
    32
  0
VERTEX
  8
241
  5
4642
 10
64.2972
 20
1.52206
 30
0.000000
  70
    32
  0
VERTEX
  8
241
  5
4643
 10
64.2663
 20
1.49852
 30
0.000000
  70
    32
  0
VERTEX
  8
241
  5
4644
 10
64.2362
 20
1.47431
 30
0.000000
  70
    32
  0
VERTEX
  8
241
  5
4645
 10
64.2070
 20
1.44944
 30
0.000000
  70
    32
  0
VERTEX
  8
241
  5
4646
 10
64.1784
 20
1.42392
 30
0.000000
  70
    32
  0
VERTEX
  8
241
  5
4647
 10
64.1508
 20
1.39776
 30
0.000000
  70
    32
  0
VERTEX
  8
241
  5
4648
 10
64.1239
 20
1.37098
 30
0.000000
  70
    32
  0
VERTEX
  8
241
  5
4649
 10
64.0978
 20
1.34357
 30
0.000000
  70
    32
  0
VERTEX
  8
241
  5
464A
 10
64.0726
 20
1.31557
 30
0.000000
  70
    32
  0
VERTEX
  8
241
  5
464B
 10
64.0483
 20
1.28697
 30
0.000000
  70
    32
  0
VERTEX
  8
241
  5
464C
 10
64.0248
 20
1.25780
 30
0.000000
  70
    32
  0
VERTEX
  8
241
  5
464D
 10
64.0022
 20
1.22806
 30
0.000000
  70
    32
  0
VERTEX
  8
241
  5
464E
 10
63.9805
 20
1.19777
 30
0.000000
  70
    32
  0
VERTEX
  8
241
  5
464F
 10
63.9597
 20
1.16695
 30
0.000000
  70
    32
  0
VERTEX
  8
241
  5
4650
 10
63.9397
 20
1.13560
 30
0.000000
  70
    32
  0
VERTEX
  8
241
  5
4651
 10
63.9207
 20
1.10374
 30
0.000000
  70
    32
  0
VERTEX
  8
241
  5
4652
 10
63.9027
 20
1.07138
 30
0.000000
  70
    32
  0
VERTEX
  8
241
  5
4653
 10
63.8855
 20
1.03855
 30
0.000000
  70
    32
  0
VERTEX
  8
241
  5
4654
 10
63.8693
 20
1.00524
 30
0.000000
  70
    32
  0
VERTEX
  8
241
  5
4655
 10
63.8540
 20
0.971490
 30
0.000000
  70
    32
  0
VERTEX
  8
241
  5
4656
 10
63.8397
 20
0.937301
 30
0.000000
  70
    32
  0
VERTEX
  8
241
  5
4657
 10
63.8264
 20
0.902692
 30
0.000000
  70
    32
  0
VERTEX
  8
241
  5
4658
 10
63.8140
 20
0.867677
 30
0.000000
  70
    32
  0
VERTEX
  8
241
  5
4659
 10
63.8026
 20
0.832273
 30
0.000000
  70
    32
  0
VERTEX
  8
241
  5
465A
 10
63.7921
 20
0.796495
 30
0.000000
  70
    32
  0
VERTEX
  8
241
  5
465B
 10
63.7827
 20
0.760360
 30
0.000000
  70
    32
  0
VERTEX
  8
241
  5
465C
 10
63.7742
 20
0.723884
 30
0.000000
  70
    32
  0
VERTEX
  8
241
  5
465D
 10
63.7667
 20
0.687083
 30
0.000000
  70
    32
  0
VERTEX
  8
241
  5
465E
 10
63.7602
 20
0.649974
 30
0.000000
  70
    32
  0
VERTEX
  8
241
  5
465F
 10
63.7547
 20
0.612573
 30
0.000000
  70
    32
  0
VERTEX
  8
241
  5
4660
 10
63.7502
 20
0.574896
 30
0.000000
  70
    32
  0
VERTEX
  8
241
  5
4661
 10
63.7467
 20
0.536962
 30
0.000000
  70
    32
  0
VERTEX
  8
241
  5
4662
 10
63.7442
 20
0.498787
 30
0.000000
  70
    32
  0
VERTEX
  8
241
  5
4663
 10
63.7427
 20
0.460389
 30
0.000000
  70
    32
  0
VERTEX
  8
241
  5
4664
 10
63.7422
 20
0.421783
 30
0.000000
  70
    32
  0
VERTEX
  8
241
  5
4665
 10
63.7427
 20
0.382989
 30
0.000000
  70
    32
  0
VERTEX
  8
241
  5
4666
 10
63.7442
 20
0.344022
 30
0.000000
  70
    32
  0
VERTEX
  8
241
  5
4667
 10
63.7467
 20
0.304901
 30
0.000000
  70
    32
  0
VERTEX
  8
241
  5
4668
 10
63.7502
 20
0.265643
 30
0.000000
  70
    32
  0
VERTEX
  8
241
  5
4669
 10
63.7547
 20
0.226266
 30
0.000000
  70
    32
  0
VERTEX
  8
241
  5
466A
 10
63.7602
 20
0.186788
 30
0.000000
  70
    32
  0
VERTEX
  8
241
  5
466B
 10
63.7667
 20
0.147225
 30
0.000000
  70
    32
  0
VERTEX
  8
241
  5
466C
 10
63.7742
 20
0.107597
 30
0.000000
  70
    32
  0
VERTEX
  8
241
  5
466D
 10
63.7827
 20
0.0679200
 30
0.000000
  70
    32
  0
VERTEX
  8
241
  5
466E
 10
63.7921
 20
0.0282128
 30
0.000000
  70
    32
  0
VERTEX
  8
241
  5
466F
 10
63.8026
 20
-0.0115071
 30
0.000000
  70
    32
  0
VERTEX
  8
241
  5
4670
 10
63.8140
 20
-0.0512218
 30
0.000000
  70
    32
  0
VERTEX
  8
241
  5
4671
 10
63.8264
 20
-0.0909136
 30
0.000000
  70
    32
  0
VERTEX
  8
241
  5
4672
 10
63.8397
 20
-0.130565
 30
0.000000
  70
    32
  0
VERTEX
  8
241
  5
4673
 10
63.8540
 20
-0.170157
 30
0.000000
  70
    32
  0
VERTEX
  8
241
  5
4674
 10
63.8693
 20
-0.209673
 30
0.000000
  70
    32
  0
VERTEX
  8
241
  5
4675
 10
63.8855
 20
-0.249095
 30
0.000000
  70
    32
  0
VERTEX
  8
241
  5
4676
 10
63.9027
 20
-0.288405
 30
0.000000
  70
    32
  0
VERTEX
  8
241
  5
4677
 10
63.9207
 20
-0.327585
 30
0.000000
  70
    32
  0
VERTEX
  8
241
  5
4678
 10
63.9397
 20
-0.366619
 30
0.000000
  70
    32
  0
VERTEX
  8
241
  5
4679
 10
63.9597
 20
-0.405488
 30
0.000000
  70
    32
  0
VERTEX
  8
241
  5
467A
 10
63.9805
 20
-0.444175
 30
0.000000
  70
    32
  0
VERTEX
  8
241
  5
467B
 10
64.0022
 20
-0.482663
 30
0.000000
  70
    32
  0
VERTEX
  8
241
  5
467C
 10
64.0248
 20
-0.520934
 30
0.000000
  70
    32
  0
VERTEX
  8
241
  5
467D
 10
64.0483
 20
-0.558972
 30
0.000000
  70
    32
  0
VERTEX
  8
241
  5
467E
 10
64.0726
 20
-0.596759
 30
0.000000
  70
    32
  0
VERTEX
  8
241
  5
467F
 10
64.0978
 20
-0.634277
 30
0.000000
  70
    32
  0
VERTEX
  8
241
  5
4680
 10
64.1239
 20
-0.671511
 30
0.000000
  70
    32
  0
VERTEX
  8
241
  5
4681
 10
64.1508
 20
-0.708444
 30
0.000000
  70
    32
  0
VERTEX
  8
241
  5
4682
 10
64.1784
 20
-0.745059
 30
0.000000
  70
    32
  0
VERTEX
  8
241
  5
4683
 10
64.2070
 20
-0.781340
 30
0.000000
  70
    32
  0
VERTEX
  8
241
  5
4684
 10
64.2362
 20
-0.817270
 30
0.000000
  70
    32
  0
VERTEX
  8
241
  5
4685
 10
64.2663
 20
-0.852833
 30
0.000000
  70
    32
  0
VERTEX
  8
241
  5
4686
 10
64.2972
 20
-0.888013
 30
0.000000
  70
    32
  0
VERTEX
  8
241
  5
4687
 10
64.3288
 20
-0.922795
 30
0.000000
  70
    32
  0
VERTEX
  8
241
  5
4688
 10
64.3611
 20
-0.957163
 30
0.000000
  70
    32
  0
VERTEX
  8
241
  5
4689
 10
64.3942
 20
-0.991101
 30
0.000000
  70
    32
  0
VERTEX
  8
241
  5
468A
 10
64.4279
 20
-1.02459
 30
0.000000
  70
    32
  0
VERTEX
  8
241
  5
468B
 10
64.4624
 20
-1.05763
 30
0.000000
  70
    32
  0
VERTEX
  8
241
  5
468C
 10
64.4976
 20
-1.09019
 30
0.000000
  70
    32
  0
VERTEX
  8
241
  5
468D
 10
64.5334
 20
-1.12226
 30
0.000000
  70
    32
  0
VERTEX
  8
241
  5
468E
 10
64.5698
 20
-1.15382
 30
0.000000
  70
    32
  0
VERTEX
  8
241
  5
468F
 10
64.6069
 20
-1.18487
 30
0.000000
  70
    32
  0
VERTEX
  8
241
  5
4690
 10
64.6446
 20
-1.21539
 30
0.000000
  70
    32
  0
VERTEX
  8
241
  5
4691
 10
64.6829
 20
-1.24536
 30
0.000000
  70
    32
  0
VERTEX
  8
241
  5
4692
 10
64.7218
 20
-1.27477
 30
0.000000
  70
    32
  0
VERTEX
  8
241
  5
4693
 10
64.7613
 20
-1.30361
 30
0.000000
  70
    32
  0
VERTEX
  8
241
  5
4694
 10
64.8012
 20
-1.33187
 30
0.000000
  70
    32
  0
VERTEX
  8
241
  5
4695
 10
64.8418
 20
-1.35952
 30
0.000000
  70
    32
  0
VERTEX
  8
241
  5
4696
 10
64.8828
 20
-1.38657
 30
0.000000
  70
    32
  0
VERTEX
  8
241
  5
4697
 10
64.9243
 20
-1.41300
 30
0.000000
  70
    32
  0
VERTEX
  8
241
  5
4698
 10
64.9663
 20
-1.43879
 30
0.000000
  70
    32
  0
VERTEX
  8
241
  5
4699
 10
65.0087
 20
-1.46393
 30
0.000000
  70
    32
  0
VERTEX
  8
241
  5
469A
 10
65.0516
 20
-1.48842
 30
0.000000
  70
    32
  0
VERTEX
  8
241
  5
469B
 10
65.0949
 20
-1.51224
 30
0.000000
  70
    32
  0
VERTEX
  8
241
  5
469C
 10
65.1386
 20
-1.53538
 30
0.000000
  70
    32
  0
VERTEX
  8
241
  5
469D
 10
65.1827
 20
-1.55784
 30
0.000000
  70
    32
  0
VERTEX
  8
241
  5
469E
 10
65.2271
 20
-1.57959
 30
0.000000
  70
    32
  0
VERTEX
  8
241
  5
469F
 10
65.2719
 20
-1.60063
 30
0.000000
  70
    32
  0
VERTEX
  8
241
  5
46A0
 10
65.3169
 20
-1.62096
 30
0.000000
  70
    32
  0
VERTEX
  8
241
  5
46A1
 10
65.3623
 20
-1.64056
 30
0.000000
  70
    32
  0
VERTEX
  8
241
  5
46A2
 10
65.4080
 20
-1.65942
 30
0.000000
  70
    32
  0
VERTEX
  8
241
  5
46A3
 10
65.4539
 20
-1.67754
 30
0.000000
  70
    32
  0
VERTEX
  8
241
  5
46A4
 10
65.5000
 20
-1.69491
 30
0.000000
  70
    32
  0
SEQEND
  8
241
  5
46A5
  0
LINE
  5
42FE
  8
241
  6
CONTINUOUS
 10
69.376155278451591
 20
-1.6949062373548791
 30
0.0
 11
65.499999999999986
 21
-1.6949062373548791
 31
0.0
  0
LINE
  5
4300
  8
241
  6
CONTINUOUS
 10
65.499999999999986
 20
1.874867080830106
 30
0.0
 11
65.499999999999986
 21
-1.6949062373548791
 31
0.0
  0
LINE
  5
4302
  8
240
  6
CONTINUOUS
 10
66.710473107985521
 20
1.662616846502627
 30
0.0
 11
65.883006975010304
 21
1.874867080830106
 31
0.0
  0
LINE
  5
4306
  8
240
  6
CONTINUOUS
 10
69.376155278451591
 20
-1.6949062373548791
 30
0.0
 11
69.454898597366793
 21
-1.248330684375047
 31
0.0
  0
LINE
  5
4341
  8
241
  6
CONTINUOUS
 10
69.486638321509687
 20
-1.172093531796613
 30
0.0
 11
69.997111991300386
 21
1.72294651108111
 31
0.0
  0
ARC
  5
4342
  8
241
  6
CONTINUOUS
 10
69.291991693025679
 20
-1.135782187014805
 30
0.0
 40
0.1980046053506197
 50
274.5883266250114
 51
349.43293153054321
  0
LINE
  5
4343
  8
241
  6
CONTINUOUS
 10
66.305760336676812
 20
-1.6020016256315801
 30
0.0
 11
69.307831237775403
 21
-1.3331522266920011
 31
0.0
  0
ARC
  5
4344
  8
241
  6
CONTINUOUS
 10
66.284922049779183
 20
-1.406056852246174
 30
0.0
 40
0.197049710524774
 50
170.91657435749701
 51
276.07046085551173
  0
LINE
  5
4345
  8
241
  6
CONTINUOUS
 10
66.600817107601102
 20
1.5200919061650979
 30
0.0
 11
66.090343437810404
 21
-1.3749481367125971
 31
0.0
  0
ARC
  5
4346
  8
241
  6
CONTINUOUS
 10
66.795463736085097
 20
1.4837805613833179
 30
0.0
 40
0.1980046053505698
 50
94.588326625014616
 51
169.43293153054961
  0
LINE
  5
4347
  8
241
  6
CONTINUOUS
 10
69.781695092433992
 20
1.9500000000000079
 30
0.0
 11
66.779624191335387
 21
1.6811506010604
 31
0.0
  0
ARC
  5
4348
  8
241
  6
CONTINUOUS
 10
69.802533379331493
 20
1.7540552266146019
 30
0.0
 40
0.1970497105247605
 50
350.91657435748368
 51
96.070460855480562
  0
LINE
  5
434E
  8
245
 10
-2.036474428734294
 20
0.0000000000000002
 30
0.0
 11
71.468176362061811
 21
-0.0000000000000088
 31
0.0
  0
TEXT
  5
4353
  8
241
 10
0.0
 20
35.0
 30
0.0
 40
3.0
  1
ST06W-EB4-16
  7
YOKO
  0
LINE
  5
4405
  8
240
  6
CONTINUOUS
 10
69.376155278451591
 20
-1.6949062373548791
 30
0.0
 11
69.274615197549807
 21
-1.875000000000008
 31
0.0
  0
LINE
  5
4470
  8
250
  6
CONTINUOUS
 10
-2.930126070402753
 20
-11.74770290151787
 30
0.0
 11
12.53654059626388
 21
-11.74770290151787
 31
0.0
  0
LINE
  5
4471
  8
250
  6
CONTINUOUS
 10
12.53654059626388
 20
-11.74770290151787
 30
0.0
 11
17.547667335230301
 21
-4.8079298634236247
 31
0.0
  0
LINE
  5
4472
  8
250
  6
CONTINUOUS
 10
17.547667335230301
 20
-4.8079298634236247
 30
0.0
 11
18.853151769814311
 21
-3.0000000000000022
 31
0.0
  0
LINE
  5
4473
  8
250
  6
CONTINUOUS
 10
17.785685816150881
 20
-4.9798001490312362
 30
0.0
 11
18.853151769814311
 21
-3.0000000000000022
 31
0.0
  0
LINE
  5
4474
  8
250
  6
CONTINUOUS
 10
18.853151769814311
 20
-3.0000000000000022
 30
0.0
 11
17.309648854309739
 21
-4.6360595778160141
 31
0.0
  0
TEXT
  5
4475
  8
250
  6
CONTINUOUS
 10
-3.3301260704027862
 20
-10.34770290151789
 30
0.0
 40
2.799999999999998
  1
ST06W
  7
ACJISTS
  0
LINE
  5
4476
  8
247
  6
CONTINUOUS
 10
4.25
 20
-1.5
 30
0.0
 11
8.8846153843300026
 21
-1.5
 31
0.0
  0
LINE
  5
4477
  8
247
  6
CONTINUOUS
 10
5.0451065000120252
 20
1.0
 30
0.0
 11
4.4429411899426441
 21
-1.0999999999160071
 31
0.0
  0
LINE
  5
4478
  8
247
  6
CONTINUOUS
 10
5.6748485964809561
 20
0.0038461538861156
 30
0.0
 11
4.7594639811329671
 21
0.0038461538861156
 31
0.0
  0
ARC
  5
4479
  8
247
  6
CONTINUOUS
 10
5.9127365980531854
 20
0.6152809327059005
 30
0.0
 40
0.3876715809326743
 50
342.9978896752952
 51
82.924166218513619
  0
ARC
  5
447A
  8
247
  6
CONTINUOUS
 10
5.617522443195865
 20
0.6947768689719851
 30
0.0
 40
0.6933047965358767
 50
274.74293685219902
 51
343.84922627326682
1001
GENIUS_GENOBJ-N-FIL_13
1002
{
1000
OWNER
1000
GEN
1002
}
1001
GENIUS_GENODEF_13
1002
{
1000
HIER
1070
     0
1002
}
1002
{
1000
MANEDIT
1070
     0
1002
}
1002
{
1000
NOSEL
1070
     0
1002
}
1002
{
1000
BEHIND
1070
     0
1002
}
1002
{
1000
OTHER
1070
     0
1002
}
1002
{
1000
REACTOR
1002
}
  0
LINE
  5
447B
  8
247
  6
CONTINUOUS
 10
5.3583258052906331
 20
-1.0999999999160071
 30
0.0
 11
4.4429411899426441
 21
-1.0999999999160071
 31
0.0
  0
LINE
  5
447C
  8
247
  6
CONTINUOUS
 10
5.0451065000120252
 20
1.0
 30
0.0
 11
5.960491115360071
 21
1.0
 31
0.0
  0
ARC
  5
447D
  8
247
  6
CONTINUOUS
 10
5.6216935237331409
 20
-0.3874169627679293
 30
0.0
 40
0.394857301075386
 50
335.99094165252171
 51
82.263443459069123
  0
ARC
  5
447E
  8
247
  6
CONTINUOUS
 10
5.2875533895730751
 20
-0.3912003273326263
 30
0.0
 40
0.7123241612361686
 50
275.70198516425643
 51
347.27733843682199
1001
GENIUS_GENOBJ-N-FIL_13
1002
{
1000
OWNER
1000
GEN
1002
}
1001
GENIUS_GENODEF_13
1002
{
1000
HIER
1070
     0
1002
}
1002
{
1000
MANEDIT
1070
     0
1002
}
1002
{
1000
NOSEL
1070
     0
1002
}
1002
{
1000
BEHIND
1070
     0
1002
}
1002
{
1000
OTHER
1070
     0
1002
}
1002
{
1000
REACTOR
1002
}
  0
LINE
  5
447F
  8
247
  6
CONTINUOUS
 10
6.3160181129366011
 20
-1.0999999999160071
 30
0.0
 11
6.9181834230060399
 21
1.0
 31
0.0
  0
LINE
  5
4480
  8
247
  6
CONTINUOUS
 10
8.4143372690920142
 20
1.0
 30
0.0
 11
8.0183216356964504
 21
1.0
 31
0.0
  0
LINE
  5
4481
  8
247
  6
CONTINUOUS
 10
7.3912603460560131
 20
-1.0999999999160071
 30
0.0
 11
7.8220295768080623
 21
-1.0999999999160071
 31
0.0
  0
ARC
  5
4482
  8
247
  6
CONTINUOUS
 10
8.6181834229300307
 20
-0.4582995950834176
 30
0.0
 40
1.576855057639547
 50
112.3594881415292
 51
164.9932485428464
  0
ARC
  5
4483
  8
247
  6
CONTINUOUS
 10
8.152488633866767
 20
0.4341811414619771
 30
0.0
 40
0.6234706797009447
 50
4.9945893190753123
 51
65.166328957308281
1001
GENIUS_GENOBJ-N-FIL_13
1002
{
1000
OWNER
1000
GEN
1002
}
1001
GENIUS_GENODEF_13
1002
{
1000
HIER
1070
     0
1002
}
1002
{
1000
MANEDIT
1070
     0
1002
}
1002
{
1000
NOSEL
1070
     0
1002
}
1002
{
1000
BEHIND
1070
     0
1002
}
1002
{
1000
OTHER
1070
     0
1002
}
1002
{
1000
REACTOR
1002
}
  0
ARC
  5
4484
  8
247
  6
CONTINUOUS
 10
7.5558160489672419
 20
-0.162102121969383
 30
0.0
 40
0.9749472149106983
 50
285.8460965557839
 51
352.3251370041624
  0
ARC
  5
4485
  8
247
  6
CONTINUOUS
 10
7.964788361227761
 20
-0.3714704019710098
 30
0.0
 40
0.9271945638692009
 50
159.71360167048971
 51
231.7887456564151
1001
GENIUS_GENOBJ-N-FIL_13
1002
{
1000
OWNER
1000
GEN
1002
}
1001
GENIUS_GENODEF_13
1002
{
1000
HIER
1070
     0
1002
}
1002
{
1000
MANEDIT
1070
     0
1002
}
1002
{
1000
NOSEL
1070
     0
1002
}
1002
{
1000
BEHIND
1070
     0
1002
}
1002
{
1000
OTHER
1070
     0
1002
}
1002
{
1000
REACTOR
1002
}
  0
LINE
  5
4486
  8
247
  6
CONTINUOUS
 10
8.0374141921840305
 20
-0.2923076922559176
 30
0.0
 11
8.522029576780028
 21
-0.2923076922559176
 31
0.0
  0
ARC
  5
4487
  8
247
  6
CONTINUOUS
 10
4.25
 20
-0.25
 30
0.0
 40
1.25
 50
90.0
 51
270.0
  0
LINE
  5
4488
  8
247
  6
CONTINUOUS
 10
4.25
 20
1.0
 30
0.0
 11
4.6961538460860179
 21
1.0
 31
0.0
  0
ARC
  5
4489
  8
247
  6
CONTINUOUS
 10
8.8846153843300026
 20
-0.25
 30
0.0
 40
1.25
 50
270.0
 51
90.0
  0
LINE
  5
44BF
  8
250
  6
CONTINUOUS
 10
69.999583089856301
 20
2.254055226614601
 30
0.0
 11
69.999583089856301
 21
25.297719667579909
 31
0.0
  0
LINE
  5
44C0
  8
250
  6
CONTINUOUS
 10
0.0000000000000004
 20
3.5
 30
0.0
 11
0.0000000000000017
 21
25.297719667579909
 31
0.0
  0
LINE
  5
44C1
  8
250
  6
CONTINUOUS
 10
67.769583089856297
 20
24.297719667579919
 30
0.0
 11
2.2300000000000009
 21
24.297719667579919
 31
0.0
  0
LINE
  5
44C5
  8
250
  6
CONTINUOUS
 10
69.999583089856301
 20
2.254055226614601
 30
0.0
 11
69.999583089856301
 21
18.297719667579901
 31
0.0
  0
LINE
  5
44C6
  8
250
  6
CONTINUOUS
 10
53.999583089856259
 20
2.3749999999999929
 30
0.0
 11
53.999583089856259
 21
18.297719667579901
 31
0.0
  0
LINE
  5
44C7
  8
250
  6
CONTINUOUS
 10
67.769583089856297
 20
17.297719667579901
 30
0.0
 11
56.229583089856263
 21
17.297719667579901
 31
0.0
  0
LINE
  5
44CC
  8
250
  6
CONTINUOUS
 10
70.302533379331493
 20
1.9511049371393681
 30
0.0
 11
94.082337308327325
 21
1.951104937139361
 31
0.0
  0
LINE
  5
44CE
  8
250
  6
CONTINUOUS
 10
93.08233730832734
 20
4.181104937139362
 30
0.0
 11
93.08233730832734
 21
6.4111049371393616
 31
0.0
  0
LINE
  5
44CF
  8
250
  6
CONTINUOUS
 10
93.08233730832734
 20
-7.7569957653031452
 30
0.0
 11
93.08233730832734
 21
1.951104937139361
 31
0.0
  0
TEXT
  5
44D3
  8
250
  6
CONTINUOUS
 10
32.333124878261494
 20
25.297719667579909
 30
0.0
 40
2.7999999999999989
  1
70
  0
LINE
  5
44D4
  8
250
  6
CONTINUOUS
 10
2.2300000000000009
 20
23.926053000913249
 30
0.0
 11
0.0000000000000017
 21
24.297719667579919
 31
0.0
  0
LINE
  5
44D5
  8
250
  6
CONTINUOUS
 10
2.2300000000000009
 20
24.669386334246578
 30
0.0
 11
0.0000000000000017
 21
24.297719667579919
 31
0.0
  0
LINE
  5
44D6
  8
250
  6
CONTINUOUS
 10
0.0000000000000017
 20
24.297719667579919
 30
0.0
 11
2.2300000000000009
 21
24.297719667579919
 31
0.0
  0
LINE
  5
44D7
  8
250
  6
CONTINUOUS
 10
67.769583089856297
 20
24.669386334246578
 30
0.0
 11
69.999583089856301
 21
24.297719667579919
 31
0.0
  0
LINE
  5
44D8
  8
250
  6
CONTINUOUS
 10
67.769583089856297
 20
23.926053000913249
 30
0.0
 11
69.999583089856301
 21
24.297719667579919
 31
0.0
  0
LINE
  5
44D9
  8
250
  6
CONTINUOUS
 10
69.999583089856301
 20
24.297719667579919
 30
0.0
 11
67.769583089856297
 21
24.297719667579919
 31
0.0
  0
TEXT
  5
44DA
  8
250
  6
CONTINUOUS
 10
57.610359925862092
 20
18.297719667579901
 30
0.0
 40
2.7999999999999989
  1
(16)
  0
LINE
  5
44DB
  8
250
  6
CONTINUOUS
 10
56.229583089856263
 20
16.926053000913239
 30
0.0
 11
53.999583089856259
 21
17.297719667579901
 31
0.0
  0
LINE
  5
44DC
  8
250
  6
CONTINUOUS
 10
56.229583089856263
 20
17.669386334246571
 30
0.0
 11
53.999583089856259
 21
17.297719667579901
 31
0.0
  0
LINE
  5
44DD
  8
250
  6
CONTINUOUS
 10
53.999583089856259
 20
17.297719667579901
 30
0.0
 11
56.229583089856263
 21
17.297719667579901
 31
0.0
  0
LINE
  5
44DE
  8
250
  6
CONTINUOUS
 10
67.769583089856297
 20
17.669386334246571
 30
0.0
 11
69.999583089856301
 21
17.297719667579901
 31
0.0
  0
LINE
  5
44DF
  8
250
  6
CONTINUOUS
 10
67.769583089856297
 20
16.926053000913239
 30
0.0
 11
69.999583089856301
 21
17.297719667579901
 31
0.0
  0
LINE
  5
44E0
  8
250
  6
CONTINUOUS
 10
69.999583089856301
 20
17.297719667579901
 30
0.0
 11
67.769583089856297
 21
17.297719667579901
 31
0.0
  0
TEXT
  5
44E1
  8
250
  6
CONTINUOUS
 10
92.082337308327325
 20
-12.877589640561981
 30
0.0
 40
2.7999999999999989
  1
(\U+03C64.0ü`5.0)
 50
90.0
  0
LINE
  5
44E2
  8
250
  6
CONTINUOUS
 10
93.454003974994009
 20
4.181104937139362
 30
0.0
 11
93.08233730832734
 21
1.951104937139361
 31
0.0
  0
LINE
  5
44E3
  8
250
  6
CONTINUOUS
 10
92.710670641660656
 20
4.181104937139362
 30
0.0
 11
93.08233730832734
 21
1.951104937139361
 31
0.0
  0
LINE
  5
44E4
  8
250
  6
CONTINUOUS
 10
93.08233730832734
 20
1.951104937139361
 30
0.0
 11
93.08233730832734
 21
4.181104937139362
 31
0.0
  0
VIEWPORT
  5
22
 67
     1
  8
0
 10
261.51769911504419
 20
148.5
 30
0.0
 40
523.0353982300885
 41
297.0
 68
     1
 69
     1
1001
ACAD
1000
MVIEW
1002
{
1070
    16
1010
0.0
1020
0.0
1030
0.0
1010
0.0
1020
0.0
1030
1.0
1040
0.0
1040
297.0
1040
261.51769911504419
1040
148.5
1040
50.0
1040
0.0
1040
0.0
1070
     0
1070
   100
1070
     1
1070
     1
1070
     0
1070
     0
1070
     0
1070
     0
1040
0.0
1040
0.0
1040
0.0
1040
1.0
1040
1.0
1040
10.0
1040
10.0
1070
     0
1002
{
1002
}
1002
}
1001
GENIUS_GENODEF_13
1002
{
1000
HIER
1070
     0
1002
}
1002
{
1000
MANEDIT
1070
     0
1002
}
1002
{
1000
NOSEL
1070
     0
1002
}
1002
{
1000
BEHIND
1070
     0
1002
}
1002
{
1000
OTHER
1070
     0
1002
}
1002
{
1000
REACTOR
1002
}
1001
GENIUS_GENOBJ-N-SDF_13
1002
{
1000
OWNER
1000
GEN
1002
}
1001
GENIUS_GENSCREG_15
1000
PF
1040
1.0
1000
DF
1040
1.0
1000
MIN
1011
0.0
1021
0.0
1031
0.0
1021
0.0
1031
0.0
1000
MAX
1011
523.0353982300885
1021
0.0
1031
0.0
1021
297.0
1031
0.0
1000
FLAGS
1070
     4
  0
ENDSEC
  0
EOF
