  0
SECTION
  2
HEADER
  9
$ACADVER
  1
AC1009
  9
$INSBASE
 10
0.0
 20
0.0
 30
0.0
  9
$EXTMIN
 10
-175.5847577053394
 20
-29.000000000000099
 30
0.0
  9
$EXTMAX
 10
50.0
 20
69.753712903767621
 30
0.0
  9
$LIMMIN
 10
0.0
 20
0.0
  9
$LIMMAX
 10
297.0
 20
210.0
  9
$ORTHOMODE
 70
     0
  9
$REGENMODE
 70
     1
  9
$FILLMODE
 70
     1
  9
$QTEXTMODE
 70
     0
  9
$MIRRTEXT
 70
     1
  9
$DRAGMODE
 70
     2
  9
$LTSCALE
 40
10.0
  9
$OSMODE
 70
   103
  9
$ATTMODE
 70
     1
  9
$TEXTSIZE
 40
5.0
  9
$TRACEWID
 40
1.0
  9
$TEXTSTYLE
  7
YOKO
  9
$CLAYER
  8
240
  9
$CELTYPE
  6
BYLAYER
  9
$CECOLOR
 62
   256
  9
$DIMSCALE
 40
1.0
  9
$DIMASZ
 40
2.2299999999999991
  9
$DIMEXO
 40
0.5
  9
$DIMDLI
 40
7.0
  9
$DIMRND
 40
0.0
  9
$DIMDLE
 40
0.0
  9
$DIMEXE
 40
1.0
  9
$DIMTP
 40
0.0
  9
$DIMTM
 40
0.01
  9
$DIMTXT
 40
2.799999999999998
  9
$DIMCEN
 40
0.0
  9
$DIMTSZ
 40
0.0
  9
$DIMTOL
 70
     0
  9
$DIMLIM
 70
     0
  9
$DIMTIH
 70
     0
  9
$DIMTOH
 70
     0
  9
$DIMSE1
 70
     0
  9
$DIMSE2
 70
     0
  9
$DIMTAD
 70
     3
  9
$DIMZIN
 70
     9
  9
$DIMBLK
  1
OPEN
  9
$DIMASO
 70
     1
  9
$DIMSHO
 70
     1
  9
$DIMPOST
  1

  9
$DIMAPOST
  1

  9
$DIMALT
 70
     0
  9
$DIMALTD
 70
     2
  9
$DIMALTF
 40
25.399999999999999
  9
$DIMLFAC
 40
1.0
  9
$DIMTOFL
 70
     1
  9
$DIMTVP
 40
0.0
  9
$DIMTIX
 70
     1
  9
$DIMSOXD
 70
     0
  9
$DIMSAH
 70
     0
  9
$DIMBLK1
  1

  9
$DIMBLK2
  1

  9
$DIMSTYLE
  2
BIGT
  9
$DIMCLRD
 70
   256
  9
$DIMCLRE
 70
   256
  9
$DIMCLRT
 70
    40
  9
$DIMTFAC
 40
1.0
  9
$DIMGAP
 40
1.0
  9
$LUNITS
 70
     2
  9
$LUPREC
 70
     3
  9
$SKETCHINC
 40
1.0
  9
$FILLETRAD
 40
0.0
  9
$AUNITS
 70
     0
  9
$AUPREC
 70
     3
  9
$MENU
  1
.
  9
$ELEVATION
 40
0.0
  9
$PELEVATION
 40
0.0
  9
$THICKNESS
 40
0.0
  9
$LIMCHECK
 70
     0
  9
$BLIPMODE
 70
     0
  9
$CHAMFERA
 40
0.25
  9
$CHAMFERB
 40
0.25
  9
$SKPOLY
 70
     0
  9
$TDCREATE
 40
2456315.452338588
  9
$TDUPDATE
 40
2458913.4061382641
  9
$TDINDWG
 40
0.0219087963
  9
$TDUSRTIMER
 40
0.0219087731
  9
$USRTIMER
 70
     1
  9
$ANGBASE
 50
0.0
  9
$ANGDIR
 70
     0
  9
$PDMODE
 70
     1
  9
$PDSIZE
 40
0.0
  9
$PLINEWID
 40
0.0
  9
$COORDS
 70
     1
  9
$SPLFRAME
 70
     0
  9
$SPLINETYPE
 70
     6
  9
$SPLINESEGS
 70
     4
  9
$ATTDIA
 70
     1
  9
$ATTREQ
 70
     1
  9
$HANDLING
 70
     1
  9
$HANDSEED
  5
214C
  9
$SURFTAB1
 70
     6
  9
$SURFTAB2
 70
     6
  9
$SURFTYPE
 70
     6
  9
$SURFU
 70
     6
  9
$SURFV
 70
     6
  9
$UCSNAME
  2

  9
$UCSORG
 10
0.0
 20
0.0
 30
0.0
  9
$UCSXDIR
 10
1.0
 20
0.0
 30
0.0
  9
$UCSYDIR
 10
0.0
 20
1.0
 30
0.0
  9
$PUCSNAME
  2

  9
$PUCSORG
 10
0.0
 20
0.0
 30
0.0
  9
$PUCSXDIR
 10
1.0
 20
0.0
 30
0.0
  9
$PUCSYDIR
 10
0.0
 20
1.0
 30
0.0
  9
$USERI1
 70
     1
  9
$USERI2
 70
     0
  9
$USERI3
 70
     0
  9
$USERI4
 70
     0
  9
$USERI5
 70
     0
  9
$USERR1
 40
0.0
  9
$USERR2
 40
0.0
  9
$USERR3
 40
0.0
  9
$USERR4
 40
0.0
  9
$USERR5
 40
0.0
  9
$WORLDVIEW
 70
     1
  9
$SHADEDGE
 70
     3
  9
$SHADEDIF
 70
    70
  9
$TILEMODE
 70
     1
  9
$MAXACTVP
 70
    16
  9
$PLIMCHECK
 70
     0
  9
$PEXTMIN
 10
1.0000000000000000E+020
 20
1.0000000000000000E+020
 30
1.0000000000000000E+020
  9
$PEXTMAX
 10
-1.0000000000000000E+020
 20
-1.0000000000000000E+020
 30
-1.0000000000000000E+020
  9
$PLIMMIN
 10
0.0
 20
0.0
  9
$PLIMMAX
 10
420.0
 20
297.0
  9
$UNITMODE
 70
     0
  9
$VISRETAIN
 70
     1
  9
$PLINEGEN
 70
     0
  9
$PSLTSCALE
 70
     1
  0
ENDSEC
  0
SECTION
  2
TABLES
  0
TABLE
  2
VPORT
 70
     1
  0
VPORT
  2
*ACTIVE
 70
     0
 10
0.0
 20
0.0
 11
1.0
 21
1.0
 12
-1.780367870084461
 22
8.9563011829278594
 13
0.0
 23
0.0
 14
7.0
 24
7.0
 15
7.0
 25
7.0
 16
0.0
 26
0.0
 36
1.0
 17
0.0
 27
0.0
 37
0.0
 40
147.15779108847889
 41
1.8385416666666661
 42
50.0
 43
0.0
 44
0.0
 50
0.0
 51
0.0
 71
     0
 72
  2000
 73
     1
 74
     0
 75
     0
 76
     1
 77
     0
 78
     0
  0
ENDTAB
  0
TABLE
  2
LTYPE
 70
    21
  0
LTYPE
  2
CONTINUOUS
 70
     0
  3
Solid line
 72
    65
 73
     0
 40
0.0
  0
LTYPE
  2
CENTER2
 70
     0
  3
___ _ ___ _ ___ _ ___ _ ___ _ ___ _ ___ _ ___ _
 72
    65
 73
     4
 40
1.125
 49
0.75
 49
-0.125
 49
0.125
 49
-0.125
  0
LTYPE
  2
HIDDEN2
 70
     0
  3
_ _ _ _ _ _ _ _ _ _ _ _ _ _ _ _ _ _ _ _ _ _ _ _
 72
    65
 73
     2
 40
0.1875
 49
0.125
 49
-0.0625
  0
LTYPE
  2
PHANTOM2
 70
     0
  3
___ _ _ ___ _ _ ___ _ _ ___ _ _ ___ _ _ ___ _ _
 72
    65
 73
     6
 40
1.25
 49
0.625
 49
-0.125
 49
0.125
 49
-0.125
 49
0.125
 49
-0.125
  0
LTYPE
  2
AM_ISO02W050
 70
     0
  3
__ __ __ __ __ __ __ __ __ __ __ __ __ __ __
 72
    65
 73
     2
 40
7.5
 49
6.0
 49
-1.5
  0
LTYPE
  2
AMCONSTR
 70
     0
  3
_______________________
 72
    65
 73
     2
 40
9999.0
 49
9999.0
 49
0.0
  0
LTYPE
  2
ACISOWELD
 70
     0
  3
_ _ _ _ _
 72
    65
 73
     2
 40
2.0
 49
2.0
 49
-1.0
  0
LTYPE
  2
ACISOTGB
 70
     0
  3
__ . . __ . .
 72
    65
 73
     6
 40
9.0
 49
4.0
 49
-1.0
 49
1.0
 49
-1.0
 49
1.0
 49
-1.0
  0
LTYPE
  2
ACISOTGL
 70
     0
  3
_ _ _ _ _
 72
    65
 73
     2
 40
3.0
 49
2.0
 49
-1.0
  0
LTYPE
  2
ACJISTGB
 70
     0
  3
__ . . __ . .
 72
    65
 73
     6
 40
9.0
 49
4.0
 49
-1.0
 49
1.0
 49
-1.0
 49
1.0
 49
-1.0
  0
LTYPE
  2
ACJISTGL
 70
     0
  3
_ _ _ _ _
 72
    65
 73
     2
 40
3.0
 49
2.0
 49
-1.0
  0
LTYPE
  2
HIDDEN
 70
     0
  3
Hidden __ __ __ __ __ __ __ __ __ __ __ __ __ _
 72
    65
 73
     2
 40
0.375
 49
0.25
 49
-0.125
  0
LTYPE
  2
CENTER
 70
     0
  3
Center ____ _ ____ _ ____ _ ____ _ ____ _ ____
 72
    65
 73
     4
 40
2.0
 49
1.25
 49
-0.25
 49
0.25
 49
-0.25
  0
LTYPE
  2
AM_ISO08W050
 70
     0
  3
____ . ____ . ____ . ____ . ____ . ____ . ____
 72
    65
 73
     4
 40
18.0
 49
12.0
 49
-1.5
 49
3.0
 49
-1.5
  0
LTYPE
  2
AM_ISO09W050
 70
     0
  3
_____ . . _____ . . _____ . . ____ .. ____
 72
    65
 73
     6
 40
22.5
 49
12.0
 49
-1.5
 49
3.0
 49
-1.5
 49
3.0
 49
-1.5
  0
LTYPE
  2
AM_ISO08W050X2
 70
     0
  3
__ . __ . __ . __ . __ . __
 72
    65
 73
     4
 40
9.0
 49
6.0
 49
-0.75
 49
1.5
 49
-0.75
  0
LTYPE
  2
AM_ISO02W050X2
 70
     0
  3
 _ _ _ _ _ _ _ _ _ _ _ _
 72
    65
 73
     2
 40
3.75
 49
3.0
 49
-0.75
  0
LTYPE
  2
AMZIGZAG
 70
     0
  3
/\/-/\/-/\/-/\/-/\/-/\/
 72
    65
 73
     2
 40
11.0001
 49
0.0001
 49
-11.0
  0
LTYPE
  2
AMZIGZAG2
 70
     0
  3
/\/-/\/-/\/-/\/-/\/-/\/
 72
    65
 73
     2
 40
0.4401
 49
0.0001
 49
-0.4400000000000001
  0
LTYPE
  2
ACANSTGB
 70
     0
  3
__ . . __ . .
 72
    65
 73
     6
 40
0.35433070866
 49
0.15748031496
 49
-0.03937007874
 49
0.03937007874
 49
-0.03937007874
 49
0.03937007874
 49
-0.03937007874
  0
LTYPE
  2
ACANSTGL
 70
     0
  3
_ _ _ _ _
 72
    65
 73
     2
 40
0.11811023622
 49
0.07874015748
 49
-0.03937007874
  0
ENDTAB
  0
TABLE
  2
LAYER
 70
     9
  0
LAYER
  2
0
 70
     0
 62
     7
  6
CONTINUOUS
  0
LAYER
  2
240
 70
     0
 62
     4
  6
CONTINUOUS
  0
LAYER
  2
DEFPOINTS
 70
     0
 62
     7
  6
CONTINUOUS
  0
LAYER
  2
245
 70
     0
 62
     2
  6
CENTER2
  0
LAYER
  2
241
 70
     0
 62
   211
  6
CONTINUOUS
  0
LAYER
  2
242
 70
     0
 62
     3
  6
CONTINUOUS
  0
LAYER
  2
246
 70
     0
 62
     3
  6
PHANTOM2
  0
LAYER
  2
AM_5
 70
     0
 62
     3
  6
CONTINUOUS
  0
LAYER
  2
250
 70
     0
 62
     3
  6
CONTINUOUS
  0
ENDTAB
  0
TABLE
  2
STYLE
 70
    10
  0
STYLE
  2
STANDARD
 70
     0
 40
0.0
 41
1.0
 50
0.0
 71
     0
 42
3.0
  3
romans.shx
  4
extfont.shx
  0
STYLE
  2
ANNOTATIVE
 70
     0
 40
0.0
 41
1.0
 50
0.0
 71
     0
 42
0.2
  3
txt
  4

  0
STYLE
  2
YOKO
 70
     0
 40
0.0
 41
1.0
 50
0.0
 71
     0
 42
5.0
  3
romans.shx
  4
extfont.shx
  0
STYLE
  2
ACISOTS
 70
     0
 40
1.0
 41
1.0
 50
0.0
 71
     0
 42
3.0
  3
amgdt.shx
  4
extfont.shx
  0
STYLE
  2
ACISOGDT
 70
     0
 40
0.0
 41
1.0
 50
0.0
 71
     0
 42
3.0
  3
amgdt.shx
  4
extfont.shx
  0
STYLE
  2
ACJISTS
 70
     0
 40
1.0
 41
1.0
 50
0.0
 71
     0
 42
3.0
  3
amgdt.shx
  4
extfont.shx
  0
STYLE
  2
ACJISGDT
 70
     0
 40
0.0
 41
1.0
 50
0.0
 71
     0
 42
3.0
  3
amgdt.shx
  4
extfont.shx
  0
STYLE
  2

 70
     1
 40
0.0
 41
1.0
 50
0.0
 71
     0
 42
5.0
  3
genltshp.shx
  4

  0
STYLE
  2
ACANSTS
 70
     0
 40
0.0
 41
1.0
 50
0.0
 71
     0
 42
5.0
  3
romans.shx
  4
extfont.shx
  0
STYLE
  2
ACANSGDT
 70
     0
 40
0.0
 41
1.0
 50
0.0
 71
     0
 42
5.0
  3
amgdt.shx
  4

  0
ENDTAB
  0
TABLE
  2
VIEW
 70
     0
  0
ENDTAB
  0
TABLE
  2
UCS
 70
     0
  0
ENDTAB
  0
TABLE
  2
APPID
 70
    37
  0
APPID
  2
ACAD
 70
     0
  0
APPID
  2
ACADANNOTATIVE
 70
     0
  0
APPID
  2
GLOBAL
 70
     0
  0
APPID
  2
DETAIL
 70
     0
  0
APPID
  2
GRPNAME
 70
     0
  0
APPID
  2
GPARA
 70
     0
  0
APPID
  2
MCAD_NO_VIS
 70
     0
  0
APPID
  2
ACAD_TEMP_GRAPHIC
 70
     0
  0
APPID
  2
ACATTRIBSERVICES
 70
     0
  0
APPID
  2
GENIUS_GENSCREG_15
 70
     0
  0
APPID
  2
GENIUS_GENODEF_13
 70
     0
  0
APPID
  2
GENIUS_GENOBJ-N-SDF_13
 70
     0
  0
APPID
  2
GENIUS_GENREC_14
 70
     0
  0
APPID
  2
GENIUS_GENOBJ-N-REC_13
 70
     0
  0
APPID
  2
GENIUS_GENDIMSH_14
 70
     0
  0
APPID
  2
GENIUS_GENOBJ-N-DIM_13
 70
     0
  0
APPID
  2
GENIUS_GENDIM_13
 70
     0
  0
APPID
  2
GENIUS_GENDTOL_13
 70
     0
  0
APPID
  2
GENIUS_GENOLIS_13
 70
     0
  0
APPID
  2
GENIUS_GENOENT_13
 70
     0
  0
APPID
  2
GENIUS_GENOBJ-F-FEM_13
 70
     0
  0
APPID
  2
GENIUS_GENOREF_13
 70
     0
  0
APPID
  2
GENIUS_GEFFEM_13
 70
     0
  0
APPID
  2
GENIUS_GEFFEMP_13
 70
     0
  0
APPID
  2
AD_DRAW
 70
     0
  0
APPID
  2
DESIGNERASSEMBLIES
 70
     0
  0
APPID
  2
ACADM_DIM_EDIT
 70
     0
  0
APPID
  2
AMDT_DM_ADJ
 70
     0
  0
APPID
  2
GENIUS_GENOBJ-N-FIL_13
 70
     0
  0
APPID
  2
GENIUS_GENFIL_13
 70
     0
  0
APPID
  2
GENIUS_GENOBJ-N-CHA_13
 70
     0
  0
APPID
  2
ITEMNAME
 70
     0
  0
APPID
  2
ACAD_NAV_VCDISPLAY
 70
     0
  0
APPID
  2
ACAD_DSTYLE_DIMINSPECT
 70
     0
  0
APPID
  2
ACAD_MLEADERVER
 70
     0
  0
APPID
  2
ACAD_DSTYLE_DIMJAG
 70
     0
  0
APPID
  2
ACAD_DSTYLE_DIMBREAK
 70
     0
  0
ENDTAB
  0
TABLE
  2
DIMSTYLE
 70
    31
  0
DIMSTYLE
  2
STANDARD
 70
     0
  3

  4

  5

  6

  7

 40
1.0
 41
0.18
 42
0.0625
 43
0.38
 44
0.18
 45
0.0
 46
0.0
 47
0.0
 48
0.0
140
0.18
141
0.09
142
0.0
143
25.399999999999999
144
1.0
145
0.0
146
1.0
147
0.09
 71
     0
 72
     0
 73
     1
 74
     1
 75
     0
 76
     0
 77
     0
 78
     0
170
     0
171
     2
172
     0
173
     0
174
     0
175
     0
176
     0
177
     0
178
     0
  0
DIMSTYLE
  2
ANNOTATIVE
 70
     0
  3

  4

  5

  6

  7

 40
1.0
 41
0.18
 42
0.0625
 43
0.38
 44
0.18
 45
0.0
 46
0.0
 47
0.0
 48
0.0
140
0.18
141
0.09
142
0.0
143
25.399999999999999
144
1.0
145
0.0
146
1.0
147
0.09
 71
     0
 72
     0
 73
     1
 74
     1
 75
     0
 76
     0
 77
     0
 78
     0
170
     0
171
     2
172
     0
173
     0
174
     0
175
     0
176
     0
177
     0
178
     0
  0
DIMSTYLE
  2
BIGT
 70
     0
  3

  4

  5

  6

  7

 40
1.0
 41
2.2299999999999991
 42
0.5
 43
7.0
 44
1.0
 45
0.0
 46
0.0
 47
0.0
 48
0.01
140
2.799999999999998
141
0.0
142
0.0
143
25.399999999999999
144
1.0
145
0.0
146
1.0
147
1.0
 71
     0
 72
     0
 73
     0
 74
     0
 75
     0
 76
     0
 77
     3
 78
     9
170
     0
171
     2
172
     1
173
     0
174
     1
175
     0
176
   256
177
   256
178
    40
  0
DIMSTYLE
  2
AM_ISO
 70
     0
  3

  4
"
  5

  6

  7

 40
1.0
 41
2.5
 42
1.0
 43
10.0
 44
1.0
 45
0.0
 46
0.0
 47
0.1
 48
0.1
140
3.5
141
0.0
142
0.0
143
0.0393701
144
1.0
145
0.0
146
0.71
147
1.5
 71
     0
 72
     0
 73
     0
 74
     0
 75
     0
 76
     0
 77
     1
 78
     8
170
     0
171
     2
172
     1
173
     0
174
     0
175
     0
176
   256
177
   256
178
     2
  0
DIMSTYLE
  2
AM_ISO$3
 70
     0
  3

  4
"
  5

  6

  7

 40
1.0
 41
2.5
 42
1.0
 43
10.0
 44
1.0
 45
0.0
 46
0.0
 47
0.1
 48
0.1
140
3.5
141
0.0
142
0.0
143
0.0393701
144
1.0
145
0.0
146
0.71
147
1.5
 71
     0
 72
     0
 73
     0
 74
     1
 75
     0
 76
     0
 77
     1
 78
     8
170
     0
171
     2
172
     0
173
     0
174
     0
175
     0
176
   256
177
   256
178
     2
  0
DIMSTYLE
  2
AM_ISO$4
 70
     0
  3

  4
"
  5

  6

  7

 40
1.0
 41
2.5
 42
1.0
 43
10.0
 44
1.0
 45
0.0
 46
0.0
 47
0.1
 48
0.1
140
3.5
141
0.0
142
0.0
143
0.0393701
144
1.0
145
0.0
146
0.71
147
1.5
 71
     0
 72
     0
 73
     0
 74
     1
 75
     0
 76
     0
 77
     1
 78
     8
170
     0
171
     2
172
     0
173
     0
174
     0
175
     0
176
   256
177
   256
178
     2
  0
DIMSTYLE
  2
AM_ISO$6
 70
     0
  3

  4
"
  5

  6

  7

 40
1.0
 41
2.5
 42
1.0
 43
10.0
 44
1.0
 45
0.0
 46
0.0
 47
0.1
 48
0.1
140
3.5
141
0.0
142
0.0
143
0.0393701
144
1.0
145
0.0
146
0.71
147
1.5
 71
     0
 72
     0
 73
     0
 74
     0
 75
     0
 76
     0
 77
     0
 78
     8
170
     0
171
     2
172
     1
173
     0
174
     0
175
     0
176
   256
177
   256
178
     2
  0
DIMSTYLE
  2
AM_ISO$7
 70
     0
  3

  4
"
  5

  6

  7

 40
1.0
 41
2.5
 42
1.0
 43
10.0
 44
1.0
 45
0.0
 46
0.0
 47
0.1
 48
0.1
140
5.0
141
0.0
142
0.0
143
0.0393701
144
1.0
145
0.0
146
0.71
147
1.5
 71
     0
 72
     0
 73
     0
 74
     0
 75
     0
 76
     0
 77
     1
 78
     8
170
     0
171
     2
172
     1
173
     0
174
     0
175
     0
176
   256
177
   256
178
     2
  0
DIMSTYLE
  2
AM_ISO$SF
 70
     0
  3

  4
"
  5

  6

  7

 40
1.0
 41
2.5
 42
1.0
 43
10.0
 44
1.0
 45
0.0
 46
0.0
 47
0.1
 48
0.1
140
3.5
141
0.0
142
0.0
143
0.0393701
144
1.0
145
0.0
146
0.71
147
1.5
 71
     0
 72
     0
 73
     0
 74
     0
 75
     1
 76
     1
 77
     1
 78
     8
170
     0
171
     2
172
     1
173
     0
174
     0
175
     0
176
   256
177
   256
178
     2
  0
DIMSTYLE
  2
AM_ISO$SH
 70
     0
  3

  4
"
  5

  6

  7

 40
1.0
 41
2.5
 42
1.0
 43
10.0
 44
1.0
 45
0.0
 46
0.0
 47
0.1
 48
0.1
140
3.5
141
0.0
142
0.0
143
0.0393701
144
2.0
145
0.0
146
0.71
147
1.5
 71
     0
 72
     0
 73
     0
 74
     0
 75
     1
 76
     1
 77
     1
 78
     8
170
     0
171
     2
172
     1
173
     1
174
     0
175
     0
176
   256
177
   256
178
     2
  0
DIMSTYLE
  2
BIGT$2
 70
     0
  3

  4

  5

  6

  7

 40
1.0
 41
2.2299999999999991
 42
0.5
 43
7.0
 44
1.0
 45
0.0
 46
0.0
 47
0.0
 48
0.01
140
2.799999999999998
141
0.0
142
0.0
143
25.399999999999999
144
1.0
145
0.0
146
1.0
147
1.0
 71
     0
 72
     0
 73
     0
 74
     0
 75
     0
 76
     0
 77
     3
 78
     9
170
     0
171
     2
172
     1
173
     0
174
     0
175
     0
176
   256
177
   256
178
    40
  0
DIMSTYLE
  2
BIGT$3
 70
     0
  3

  4

  5

  6

  7

 40
1.0
 41
2.2299999999999991
 42
0.5
 43
2.5
 44
1.0
 45
0.0
 46
0.0
 47
0.0
 48
0.01
140
2.799999999999998
141
0.0
142
0.0
143
25.399999999999999
144
1.0
145
0.0
146
1.0
147
1.0
 71
     0
 72
     0
 73
     0
 74
     0
 75
     0
 76
     0
 77
     3
 78
     9
170
     0
171
     2
172
     1
173
     0
174
     0
175
     0
176
   256
177
   256
178
    40
  0
DIMSTYLE
  2
BIGT$7
 70
     0
  3

  4

  5

  6

  7

 40
0.0
 41
2.2299999999999991
 42
0.5
 43
7.0
 44
1.0
 45
0.0
 46
0.0
 47
0.0
 48
0.01
140
2.799999999999998
141
0.0
142
0.0
143
25.399999999999999
144
1.0
145
0.0
146
1.0
147
1.0
 71
     0
 72
     0
 73
     0
 74
     0
 75
     0
 76
     0
 77
     3
 78
     9
170
     0
171
     2
172
     0
173
     0
174
     0
175
     0
176
   256
177
   256
178
    40
  0
DIMSTYLE
  2
BIGT$6
 70
     0
  3

  4

  5

  6

  7

 40
1.0
 41
2.2299999999999991
 42
0.5
 43
2.5
 44
1.0
 45
0.0
 46
0.0
 47
0.0
 48
0.01
140
2.799999999999998
141
0.0
142
0.0
143
25.399999999999999
144
1.0
145
0.0
146
1.0
147
1.0
 71
     0
 72
     0
 73
     0
 74
     0
 75
     0
 76
     0
 77
     3
 78
     9
170
     0
171
     2
172
     1
173
     0
174
     0
175
     0
176
   256
177
   256
178
    40
  0
DIMSTYLE
  2
BIGT$0
 70
     0
  3

  4

  5

  6

  7

 40
1.0
 41
2.2299999999999991
 42
0.5
 43
7.0
 44
1.0
 45
0.0
 46
0.0
 47
0.0
 48
0.01
140
2.799999999999998
141
0.0
142
0.0
143
25.399999999999999
144
1.0
145
0.0
146
1.0
147
1.0
 71
     0
 72
     0
 73
     0
 74
     0
 75
     0
 76
     0
 77
     3
 78
     9
170
     0
171
     2
172
     1
173
     0
174
     1
175
     0
176
   256
177
   256
178
    40
  0
DIMSTYLE
  2
BIGT$4
 70
     0
  3

  4

  5

  6

  7

 40
1.0
 41
2.2299999999999991
 42
0.5
 43
2.5
 44
1.0
 45
0.0
 46
0.0
 47
0.0
 48
0.01
140
2.799999999999998
141
0.0
142
0.0
143
25.399999999999999
144
1.0
145
0.0
146
1.0
147
1.0
 71
     0
 72
     0
 73
     0
 74
     0
 75
     0
 76
     0
 77
     3
 78
     9
170
     0
171
     2
172
     1
173
     0
174
     0
175
     0
176
   256
177
   256
178
    40
  0
DIMSTYLE
  2
BIGT$SH
 70
     0
  3

  4

  5

  6

  7

 40
1.0
 41
2.2299999999999991
 42
0.5
 43
7.0
 44
1.0
 45
0.0
 46
0.0
 47
0.0
 48
0.0
140
2.799999999999998
141
0.0
142
0.0
143
25.399999999999999
144
1.0
145
0.0
146
1.0
147
1.0
 71
     0
 72
     0
 73
     0
 74
     0
 75
     0
 76
     0
 77
     3
 78
     9
170
     0
171
     2
172
     1
173
     0
174
     0
175
     0
176
   256
177
   256
178
    40
  0
DIMSTYLE
  2
BIGT$SF
 70
     0
  3

  4

  5

  6

  7

 40
1.0
 41
2.2299999999999991
 42
0.5
 43
7.0
 44
1.0
 45
0.0
 46
0.0
 47
0.0
 48
0.0
140
2.799999999999998
141
0.0
142
0.0
143
25.399999999999999
144
1.0
145
0.0
146
1.0
147
1.0
 71
     0
 72
     0
 73
     0
 74
     0
 75
     0
 76
     0
 77
     3
 78
     9
170
     0
171
     2
172
     1
173
     0
174
     0
175
     0
176
   256
177
   256
178
    40
  0
DIMSTYLE
  2
TECHNICAL_OSAKA
 70
     0
  3

  4
"
  5

  6

  7

 40
1.0
 41
2.5
 42
1.0
 43
10.0
 44
1.0
 45
0.0
 46
0.0
 47
0.1
 48
0.1
140
2.799999999999998
141
0.0
142
0.0
143
0.0393701
144
1.0
145
0.0
146
0.71
147
1.5
 71
     0
 72
     0
 73
     0
 74
     0
 75
     0
 76
     0
 77
     3
 78
     8
170
     0
171
     2
172
     1
173
     0
174
     0
175
     0
176
   256
177
   256
178
    40
  0
DIMSTYLE
  2
TECHNICAL_OSAKA$3
 70
     0
  3

  4
"
  5

  6

  7

 40
1.0
 41
2.5
 42
1.0
 43
10.0
 44
1.0
 45
0.0
 46
0.0
 47
0.1
 48
0.1
140
2.799999999999998
141
0.0
142
0.0
143
0.0393701
144
1.0
145
0.0
146
0.71
147
1.5
 71
     0
 72
     0
 73
     0
 74
     1
 75
     0
 76
     0
 77
     3
 78
     8
170
     0
171
     2
172
     0
173
     0
174
     0
175
     0
176
   256
177
   256
178
    40
  0
DIMSTYLE
  2
TECHNICAL_OSAKA$4
 70
     0
  3

  4
"
  5

  6

  7

 40
1.0
 41
2.5
 42
1.0
 43
10.0
 44
1.0
 45
0.0
 46
0.0
 47
0.1
 48
0.1
140
2.799999999999998
141
0.0
142
0.0
143
0.0393701
144
1.0
145
0.0
146
0.71
147
1.5
 71
     0
 72
     0
 73
     0
 74
     1
 75
     0
 76
     0
 77
     3
 78
     8
170
     0
171
     2
172
     0
173
     0
174
     0
175
     0
176
   256
177
   256
178
    40
  0
DIMSTYLE
  2
TECHNICAL_OSAKA$6
 70
     0
  3

  4
"
  5

  6

  7

 40
1.0
 41
2.5
 42
1.0
 43
10.0
 44
1.0
 45
0.0
 46
0.0
 47
0.1
 48
0.1
140
2.799999999999998
141
0.0
142
0.0
143
0.0393701
144
1.0
145
0.0
146
0.71
147
1.5
 71
     0
 72
     0
 73
     0
 74
     0
 75
     0
 76
     0
 77
     0
 78
     8
170
     0
171
     2
172
     1
173
     0
174
     0
175
     0
176
   256
177
   256
178
    40
  0
DIMSTYLE
  2
TECHNICAL_OSAKA$7
 70
     0
  3

  4
"
  5

  6

  7

 40
1.0
 41
2.5
 42
1.0
 43
10.0
 44
1.0
 45
0.0
 46
0.0
 47
0.1
 48
0.1
140
2.799999999999998
141
0.0
142
0.0
143
0.0393701
144
1.0
145
0.0
146
0.71
147
1.5
 71
     0
 72
     0
 73
     0
 74
     0
 75
     0
 76
     0
 77
     3
 78
     8
170
     0
171
     2
172
     1
173
     0
174
     0
175
     0
176
   256
177
   256
178
    40
  0
DIMSTYLE
  2
TECHNICAL_OSAKA$SF
 70
     0
  3

  4
"
  5

  6

  7

 40
1.0
 41
2.5
 42
1.0
 43
10.0
 44
1.0
 45
0.0
 46
0.0
 47
0.1
 48
0.1
140
3.5
141
0.0
142
0.0
143
0.0393701
144
1.0
145
0.0
146
0.71
147
1.5
 71
     0
 72
     0
 73
     0
 74
     0
 75
     1
 76
     1
 77
     3
 78
     8
170
     0
171
     2
172
     1
173
     0
174
     0
175
     0
176
   256
177
   256
178
    40
  0
DIMSTYLE
  2
TECHNICAL_OSAKA$SH
 70
     0
  3

  4
"
  5

  6

  7

 40
1.0
 41
2.5
 42
1.0
 43
10.0
 44
1.0
 45
0.0
 46
0.0
 47
0.1
 48
0.1
140
3.5
141
0.0
142
0.0
143
0.0393701
144
2.0
145
0.0
146
0.71
147
1.5
 71
     0
 72
     0
 73
     0
 74
     0
 75
     1
 76
     1
 77
     3
 78
     8
170
     0
171
     2
172
     1
173
     1
174
     0
175
     0
176
   256
177
   256
178
    40
  0
DIMSTYLE
  2
AM_ANSI
 70
     0
  3

  4
mm
  5

  6

  7

 40
1.0
 41
0.12
 42
0.05
 43
0.5
 44
0.1
 45
0.0
 46
0.0
 47
0.1
 48
0.1
140
0.12
141
0.0
142
0.0
143
25.399999999999999
144
1.0
145
0.0
146
0.71
147
0.06
 71
     0
 72
     0
 73
     1
 74
     1
 75
     0
 76
     0
 77
     0
 78
     7
170
     0
171
     2
172
     0
173
     0
174
     0
175
     0
176
   256
177
   256
178
     2
  0
DIMSTYLE
  2
AM_ANSI$3
 70
     0
  3

  4
mm
  5

  6

  7

 40
1.0
 41
0.12
 42
0.05
 43
0.5
 44
0.1
 45
0.0
 46
0.0
 47
0.1
 48
0.1
140
0.12
141
0.0
142
0.0
143
25.399999999999999
144
1.0
145
0.0
146
0.71
147
0.06
 71
     0
 72
     0
 73
     1
 74
     1
 75
     0
 76
     0
 77
     0
 78
     7
170
     0
171
     2
172
     0
173
     0
174
     0
175
     0
176
   256
177
   256
178
     2
  0
DIMSTYLE
  2
AM_ANSI$4
 70
     0
  3

  4
mm
  5

  6

  7

 40
1.0
 41
0.12
 42
0.05
 43
0.5
 44
0.1
 45
0.0
 46
0.0
 47
0.1
 48
0.1
140
0.12
141
0.0
142
0.0
143
25.399999999999999
144
1.0
145
0.0
146
0.71
147
0.06
 71
     0
 72
     0
 73
     1
 74
     1
 75
     0
 76
     0
 77
     0
 78
     7
170
     0
171
     2
172
     0
173
     0
174
     0
175
     0
176
   256
177
   256
178
     2
  0
DIMSTYLE
  2
AM_ANSI$7
 70
     0
  3

  4
mm
  5

  6

  7

 40
1.0
 41
0.12
 42
0.05
 43
0.5
 44
0.1
 45
0.0
 46
0.0
 47
0.1
 48
0.1
140
0.12
141
0.0
142
0.0
143
25.399999999999999
144
1.0
145
0.0
146
0.71
147
0.06
 71
     0
 72
     0
 73
     1
 74
     1
 75
     0
 76
     0
 77
     0
 78
     7
170
     0
171
     2
172
     0
173
     0
174
     0
175
     0
176
   256
177
   256
178
     2
  0
DIMSTYLE
  2
AM_ANSI$SF
 70
     0
  3

  4
mm
  5

  6

  7

 40
1.0
 41
0.12
 42
0.05
 43
0.5
 44
0.1
 45
0.0
 46
0.0
 47
0.1
 48
0.1
140
0.12
141
0.0
142
0.0
143
25.399999999999999
144
1.0
145
0.0
146
0.71
147
0.06
 71
     0
 72
     0
 73
     1
 74
     1
 75
     1
 76
     1
 77
     0
 78
     7
170
     0
171
     2
172
     0
173
     0
174
     0
175
     0
176
   256
177
   256
178
     2
  0
DIMSTYLE
  2
AM_ANSI$SH
 70
     0
  3

  4
mm
  5

  6
GENAXEH
  7

 40
1.0
 41
0.12
 42
0.05
 43
0.5
 44
0.1
 45
0.0
 46
0.0
 47
0.1
 48
0.1
140
0.12
141
0.0
142
0.0
143
25.399999999999999
144
1.0
145
0.0
146
0.71
147
0.06
 71
     0
 72
     0
 73
     1
 74
     1
 75
     1
 76
     1
 77
     0
 78
     7
170
     0
171
     2
172
     0
173
     1
174
     0
175
     0
176
   256
177
   256
178
     2
  0
ENDTAB
  0
ENDSEC
  0
SECTION
  2
BLOCKS
  0
BLOCK
  8
0
  2
$MODEL_SPACE
 70
     0
 10
0.0
 20
0.0
 30
0.0
  3
$MODEL_SPACE
  1

  0
ENDBLK
  5
1F01
  8
0
  0
BLOCK
 67
     1
  8
0
  2
$PAPER_SPACE
 70
     0
 10
0.0
 20
0.0
 30
0.0
  3
$PAPER_SPACE
  1

  0
ENDBLK
  5
1EFD
 67
     1
  8
0
  0
BLOCK
  8
0
  2
_OPEN
 70
     0
 10
0.0
 20
0.0
 30
0.0
  3
_OPEN
  1

  0
LINE
  5
1CEA
  8
0
  6
BYBLOCK
 62
     0
 10
-1.0
 20
0.1666666666666666
 30
0.0
 11
0.0
 21
0.0
 31
0.0
  0
LINE
  5
1CEB
  8
0
  6
BYBLOCK
 62
     0
 10
-1.0
 20
-0.1666666666666666
 30
0.0
 11
0.0
 21
0.0
 31
0.0
  0
LINE
  5
1CEC
  8
0
  6
BYBLOCK
 62
     0
 10
0.0
 20
0.0
 30
0.0
 11
-1.0
 21
0.0
 31
0.0
  0
ENDBLK
  5
1CED
  8
0
  0
BLOCK
  8
0
  2
GENAXEH
 70
     0
 10
0.0
 20
0.0
 30
0.0
  3
GENAXEH
  1

  0
LINE
  5
1D25
  8
0
 10
-1.0
 20
0.0
 30
0.0
 11
1.0
 21
0.0
 31
0.0
  0
ENDBLK
  5
1D26
  8
0
  0
BLOCK
  8
0
  2
_OPEN30
 70
     0
 10
0.0
 20
0.0
 30
0.0
  3
_OPEN30
  1

  0
LINE
  5
1D61
  8
0
  6
BYBLOCK
 62
     0
 10
-1.0
 20
0.26794919
 30
0.0
 11
0.0
 21
0.0
 31
0.0
  0
LINE
  5
1D62
  8
0
  6
BYBLOCK
 62
     0
 10
0.0
 20
0.0
 30
0.0
 11
-1.0
 21
-0.26794919
 31
0.0
  0
LINE
  5
1D63
  8
0
  6
BYBLOCK
 62
     0
 10
0.0
 20
0.0
 30
0.0
 11
-1.0
 21
0.0
 31
0.0
  0
ENDBLK
  5
1D64
  8
0
  0
BLOCK
  8
0
  2
*D5
 70
     1
 10
0.0
 20
0.0
 30
0.0
  3
*D5
  1

  0
LINE
  5
1A9E
  8
AM_5
 10
30.000000000000089
 20
16.460050506338799
 30
0.0
 11
30.000000000000089
 21
36.0
 31
0.0
  0
LINE
  5
1A9F
  8
AM_5
 10
0.0000000000001138
 20
16.0
 30
0.0
 11
0.000000000000115
 21
36.0
 31
0.0
  0
LINE
  5
1AA0
  8
AM_5
 10
27.770000000000088
 20
35.0
 30
0.0
 11
2.230000000000115
 21
35.0
 31
0.0
  0
INSERT
  5
1AA1
  8
AM_5
  2
_OPEN
 10
30.000000000000089
 20
35.0
 30
0.0
 41
2.2299999999999991
 42
2.2299999999999991
 43
2.2299999999999991
  0
INSERT
  5
1AA2
  8
AM_5
  2
_OPEN
 10
0.000000000000115
 20
35.0
 30
0.0
 41
2.2299999999999991
 42
2.2299999999999991
 43
2.2299999999999991
 50
180.0
  0
INSERT
  5
1AA3
  8
240
  2
*U6
 10
0.0
 20
0.0
 30
0.0
  0
POINT
  5
1AA4
  8
DEFPOINTS
 62
     0
 10
30.000000000000089
 20
15.960050506338799
 30
0.0
  0
POINT
  5
1AA5
  8
DEFPOINTS
 62
     0
 10
0.0000000000001138
 20
15.5
 30
0.0
  0
POINT
  5
1AA6
  8
DEFPOINTS
 62
     0
 10
0.000000000000115
 20
35.0
 30
0.0
  0
ENDBLK
  5
194A
  8
0
  0
BLOCK
  8
0
  2
*U6
 70
     1
 10
0.0
 20
0.0
 30
0.0
  3
*U6
  1

  0
TEXT
  5
1DE8
  8
AM_5
 62
    40
 10
12.33333333333343
 20
36.0
 30
0.0
 40
2.799999999999998
  1
30
  0
ENDBLK
  5
1DEA
  8
0
  0
BLOCK
  8
0
  2
*D7
 70
     1
 10
0.0
 20
0.0
 30
0.0
  3
*D7
  1

  0
LINE
  5
1AA7
  8
AM_5
 10
0.0000000000001138
 20
16.0
 30
0.0
 11
0.000000000000115
 21
36.0
 31
0.0
  0
LINE
  5
1AA8
  8
AM_5
 10
-54.00000000000005
 20
11.428825434727621
 30
0.0
 11
-54.00000000000005
 21
36.0
 31
0.0
  0
LINE
  5
1AA9
  8
AM_5
 10
-2.2299999999998841
 20
35.0
 30
0.0
 11
-51.77000000000006
 21
35.0
 31
0.0
  0
INSERT
  5
1AAA
  8
AM_5
  2
_OPEN
 10
0.000000000000115
 20
35.0
 30
0.0
 41
2.2299999999999991
 42
2.2299999999999991
 43
2.2299999999999991
  0
INSERT
  5
1AAB
  8
AM_5
  2
_OPEN
 10
-54.00000000000005
 20
35.0
 30
0.0
 41
2.2299999999999991
 42
2.2299999999999991
 43
2.2299999999999991
 50
180.0
  0
INSERT
  5
1AAC
  8
240
  2
*U8
 10
0.0
 20
0.0
 30
0.0
  0
POINT
  5
1AAD
  8
DEFPOINTS
 62
     0
 10
0.0000000000001138
 20
15.5
 30
0.0
  0
POINT
  5
1AAE
  8
DEFPOINTS
 62
     0
 10
-54.00000000000005
 20
10.928825434727621
 30
0.0
  0
POINT
  5
1AAF
  8
DEFPOINTS
 62
     0
 10
-54.00000000000005
 20
35.0
 30
0.0
  0
ENDBLK
  5
1972
  8
0
  0
BLOCK
  8
0
  2
*U8
 70
     1
 10
0.0
 20
0.0
 30
0.0
  3
*U8
  1

  0
TEXT
  5
1DEC
  8
AM_5
 62
    40
 10
-29.733333333333299
 20
36.0
 30
0.0
 40
2.799999999999998
  1
54
  0
ENDBLK
  5
1DEE
  8
0
  0
BLOCK
  8
0
  2
*D9
 70
     1
 10
0.0
 20
0.0
 30
0.0
  3
*D9
  1

  0
LINE
  5
19DA
  8
AM_5
 10
30.000000000000089
 20
-16.460050506338831
 30
0.0
 11
30.000000000000089
 21
-29.000000000000099
 31
0.0
  0
LINE
  5
19DB
  8
AM_5
 10
-19.999999999999911
 20
-6.5
 30
0.0
 11
-19.999999999999911
 21
-29.000000000000099
 31
0.0
  0
LINE
  5
19DC
  8
AM_5
 10
27.770000000000088
 20
-28.000000000000089
 30
0.0
 11
-17.769999999999911
 21
-28.000000000000089
 31
0.0
  0
INSERT
  5
19DD
  8
AM_5
  2
_OPEN
 10
30.000000000000089
 20
-28.000000000000089
 30
0.0
 41
2.2299999999999991
 42
2.2299999999999991
 43
2.2299999999999991
  0
INSERT
  5
19DE
  8
AM_5
  2
_OPEN
 10
-19.999999999999911
 20
-28.000000000000089
 30
0.0
 41
2.2299999999999991
 42
2.2299999999999991
 43
2.2299999999999991
 50
180.0
  0
INSERT
  5
19DF
  8
240
  2
*U10
 10
0.0
 20
0.0
 30
0.0
  0
POINT
  5
19E0
  8
DEFPOINTS
 62
     0
 10
30.000000000000089
 20
-15.96005050633882
 30
0.0
  0
POINT
  5
19E1
  8
DEFPOINTS
 62
     0
 10
-19.999999999999911
 20
-6.0
 30
0.0
  0
POINT
  5
19E2
  8
DEFPOINTS
 62
     0
 10
-19.999999999999911
 20
-28.000000000000089
 30
0.0
  0
ENDBLK
  5
199A
  8
0
  0
BLOCK
  8
0
  2
*U10
 70
     1
 10
0.0
 20
0.0
 30
0.0
  3
*U10
  1

  0
TEXT
  5
1DD8
  8
AM_5
 62
    40
 10
-2.0666666666665789
 20
-27.000000000000099
 30
0.0
 40
2.799999999999998
  1
41~60
  0
ENDBLK
  5
1DDA
  8
0
  0
BLOCK
  8
0
  2
*D11
 70
     1
 10
0.0
 20
0.0
 30
0.0
  3
*D11
  1

  0
LINE
  5
1A1D
  8
AM_5
 10
-4.5000000000006244
 20
12.49999999999997
 30
0.0
 11
-71.000000999999983
 21
12.499999999999989
 31
0.0
  0
LINE
  5
1A1E
  8
AM_5
 10
-51.499999999999801
 20
-12.499999999999829
 30
0.0
 11
-71.000000999999983
 21
-12.499999999999821
 31
0.0
  0
LINE
  5
1A1F
  8
AM_5
 10
-70.000000999999997
 20
10.269999999999991
 30
0.0
 11
-70.000000999999997
 21
-10.26999999999982
 31
0.0
  0
INSERT
  5
1A20
  8
AM_5
  2
_OPEN
 10
-70.000000999999997
 20
12.499999999999989
 30
0.0
 41
2.2299999999999991
 42
2.2299999999999991
 43
2.2299999999999991
 50
90.0
  0
INSERT
  5
1A21
  8
AM_5
  2
_OPEN
 10
-70.000000999999997
 20
-12.499999999999821
 30
0.0
 41
2.2299999999999991
 42
2.2299999999999991
 43
2.2299999999999991
 50
270.0
  0
INSERT
  5
1A22
  8
240
  2
*U12
 10
0.0
 20
0.0
 30
0.0
  0
POINT
  5
1A23
  8
DEFPOINTS
 62
     0
 10
-4.0000000000006244
 20
12.49999999999997
 30
0.0
  0
POINT
  5
1A24
  8
DEFPOINTS
 62
     0
 10
-50.999999999999801
 20
-12.499999999999829
 30
0.0
  0
POINT
  5
1A25
  8
DEFPOINTS
 62
     0
 10
-70.000000999999997
 20
-12.499999999999821
 30
0.0
  0
ENDBLK
  5
19F8
  8
0
  0
BLOCK
  8
0
  2
*U12
 70
     1
 10
0.0
 20
0.0
 30
0.0
  3
*U12
  1

  0
TEXT
  5
1DDC
  8
AM_5
 62
    40
 10
-71.000001000000026
 20
-3.933333333333259
 30
0.0
 40
2.799999999999998
  1
\U+220525
 50
90.0
  0
ENDBLK
  5
1DDE
  8
0
  0
BLOCK
  8
0
  2
*D13
 70
     1
 10
0.0
 20
0.0
 30
0.0
  3
*D13
  1

  0
LINE
  5
1A4E
  8
AM_5
 10
28.918629150101509
 20
17.499999999999979
 30
0.0
 11
50.0
 21
17.499999999999979
 31
0.0
  0
LINE
  5
1A4F
  8
AM_5
 10
28.918629150101442
 20
-17.500000000000021
 30
0.0
 11
50.0
 21
-17.500000000000021
 31
0.0
  0
LINE
  5
1A50
  8
AM_5
 10
49.0
 20
15.26999999999998
 30
0.0
 11
49.0
 21
-15.270000000000019
 31
0.0
  0
INSERT
  5
1A51
  8
AM_5
  2
_OPEN
 10
49.000000000000007
 20
17.499999999999979
 30
0.0
 41
2.2299999999999991
 42
2.2299999999999991
 43
2.2299999999999991
 50
90.0
  0
INSERT
  5
1A52
  8
AM_5
  2
_OPEN
 10
48.999999999999993
 20
-17.500000000000021
 30
0.0
 41
2.2299999999999991
 42
2.2299999999999991
 43
2.2299999999999991
 50
270.0
  0
INSERT
  5
1A53
  8
240
  2
*U14
 10
0.0
 20
0.0
 30
0.0
  0
POINT
  5
1A54
  8
DEFPOINTS
 62
     0
 10
28.418629150101509
 20
17.499999999999979
 30
0.0
  0
POINT
  5
1A55
  8
DEFPOINTS
 62
     0
 10
28.418629150101442
 20
-17.500000000000021
 30
0.0
  0
POINT
  5
1A56
  8
DEFPOINTS
 62
     0
 10
48.999999999999993
 20
-17.500000000000021
 30
0.0
  0
ENDBLK
  5
1A29
  8
0
  0
BLOCK
  8
0
  2
*U14
 70
     1
 10
0.0
 20
0.0
 30
0.0
  3
*U14
  1

  0
TEXT
  5
1DE0
  8
AM_5
 62
    40
 10
48.0
 20
-3.9333333333333478
 30
0.0
 40
2.799999999999998
  1
\U+220535
 50
90.0
  0
ENDBLK
  5
1DE2
  8
0
  0
BLOCK
  8
0
  2
*D15
 70
     1
 10
0.0
 20
0.0
 30
0.0
  3
*D15
  1

  0
LINE
  5
1A95
  8
AM_5
 10
30.500000000000099
 20
6.5000000000000284
 30
0.0
 11
43.000000999999997
 21
6.5000000000000231
 31
0.0
  0
LINE
  5
1A96
  8
AM_5
 10
30.500000000000099
 20
-6.5
 30
0.0
 11
43.000000999999997
 21
-6.5000000000000018
 31
0.0
  0
LINE
  5
1A97
  8
AM_5
 10
42.00000099999999
 20
4.2700000000000244
 30
0.0
 11
42.00000099999999
 21
-4.270000000000004
 31
0.0
  0
INSERT
  5
1A98
  8
240
  2
*U16
 10
0.0
 20
0.0
 30
0.0
  0
INSERT
  5
1A99
  8
AM_5
  2
_OPEN
 10
42.00000099999999
 20
6.5000000000000231
 30
0.0
 41
2.2299999999999991
 42
2.2299999999999991
 43
2.2299999999999991
 50
90.0
  0
INSERT
  5
1A9A
  8
AM_5
  2
_OPEN
 10
42.00000099999999
 20
-6.5000000000000018
 30
0.0
 41
2.2299999999999991
 42
2.2299999999999991
 43
2.2299999999999991
 50
270.0
  0
POINT
  5
1A9B
  8
DEFPOINTS
 62
     0
 10
30.000000000000089
 20
6.5000000000000284
 30
0.0
  0
POINT
  5
1A9C
  8
DEFPOINTS
 62
     0
 10
30.000000000000089
 20
-6.5
 30
0.0
  0
POINT
  5
1A9D
  8
DEFPOINTS
 62
     0
 10
42.00000099999999
 20
-6.5000000000000018
 30
0.0
  0
ENDBLK
  5
1A5A
  8
0
  0
BLOCK
  8
0
  2
*U16
 70
     1
 10
0.0
 20
0.0
 30
0.0
  3
*U16
  1

  0
TEXT
  5
1DE4
  8
AM_5
 62
    40
 10
41.00000099999999
 20
-8.7999999999999812
 30
0.0
 40
2.799999999999998
  1
MAX.\U+220513
 50
90.0
  0
ENDBLK
  5
1DE6
  8
0
  0
BLOCK
  8
0
  2
_ACMFILLEDHALF
 70
     0
 10
0.0
 20
0.0
 30
0.0
  3
_ACMFILLEDHALF
  1

  0
TRACE
  5
1FD8
  8
240
 62
     0
 10
-0.8
 20
0.0
 30
0.0
 11
-1.0
 21
0.166666666
 31
0.0
 12
0.0
 22
0.0
 32
0.0
 13
0.0
 23
0.0
 33
0.0
  0
LINE
  5
1FD9
  8
240
 62
     0
 10
-1.0
 20
0.0
 30
0.0
 11
-0.8
 21
0.0
 31
0.0
  0
ENDBLK
  5
1FD7
  8
0
  0
ENDSEC
  0
SECTION
  2
ENTITIES
  0
LINE
  5
1593
  8
240
 10
14.00000000000008
 20
-14.49999999999997
 30
0.0
 11
14.50000000000008
 21
-14.99999999999997
 31
0.0
  0
LINE
  5
1594
  8
240
 10
14.00000000000008
 20
14.5
 30
0.0
 11
14.50000000000008
 21
15.0
 31
0.0
  0
ARC
  5
1595
  8
240
 10
10.50000000000008
 20
-14.0
 30
0.0
 40
1.0
 50
90.0
 51
180.0
  0
LINE
  5
1596
  8
240
 10
10.50000000000008
 20
-13.0
 30
0.0
 11
14.00000000000008
 21
-13.0
 31
0.0
  0
ARC
  5
1597
  8
240
 10
10.50000000000008
 20
14.0
 30
0.0
 40
1.0
 50
180.0
 51
270.0
  0
LINE
  5
1598
  8
240
 10
10.50000000000008
 20
13.0
 30
0.0
 11
14.00000000000008
 21
13.0
 31
0.0
  0
LINE
  5
1599
  8
240
 10
14.49999999999997
 20
16.699999999999989
 30
0.0
 11
14.49999999999997
 21
14.99999999999994
 31
0.0
  0
ARC
  5
159A
  8
240
 10
15.300000000000029
 20
16.699999999999989
 30
0.0
 40
0.799999999999983
 50
90.0
 51
180.0
  0
LINE
  5
159B
  8
240
 10
14.49999999999997
 20
-16.699999999999989
 30
0.0
 11
14.49999999999997
 21
-14.99999999999994
 31
0.0
  0
ARC
  5
159C
  8
240
 10
15.300000000000029
 20
-16.699999999999989
 30
0.0
 40
0.8000000000000112
 50
180.0
 51
270.0
  0
LINE
  5
159D
  8
240
 10
15.300000000000029
 20
17.5
 30
0.0
 11
28.418629150101509
 21
17.5
 31
0.0
  0
ARC
  5
159E
  8
240
 10
28.418629150101509
 20
16.699999999999989
 30
0.0
 40
0.7999999999999984
 50
45.0
 51
90.0
  0
LINE
  5
159F
  8
240
 10
15.300000000000029
 20
-17.5
 30
0.0
 11
28.418629150101509
 21
-17.500000000000021
 31
0.0
  0
ARC
  5
15A0
  8
240
 10
28.418629150101509
 20
-16.70000000000001
 30
0.0
 40
0.7999999999999972
 50
270.0
 51
314.99999999999773
  0
LINE
  5
15A1
  8
240
 10
29.794974746830661
 20
16.455025253169421
 30
0.0
 11
28.984314575050782
 21
17.26568542494925
 31
0.0
  0
ARC
  5
15A2
  8
240
 10
29.30000000000004
 20
15.960050506338799
 30
0.0
 40
0.7000000000000171
 50
0.0
 51
45.000000000002302
  0
LINE
  5
15A3
  8
240
 10
30.000000000000089
 20
15.960050506338799
 30
0.0
 11
30.000000000000089
 21
-15.96005050633882
 31
0.0
  0
LINE
  5
15A4
  8
240
 10
28.984314575050782
 20
-17.26568542494925
 30
0.0
 11
29.794974746830661
 21
-16.455025253169421
 31
0.0
  0
ARC
  5
15A5
  8
240
 10
29.30000000000004
 20
-15.96005050633882
 30
0.0
 40
0.7000000000000137
 50
315.0
 51
0.0
  0
LINE
  5
15A6
  8
240
 10
9.5000000000000568
 20
15.0
 30
0.0
 11
9.5000000000000835
 21
14.0
 31
0.0
  0
LINE
  5
15A7
  8
240
 10
14.00000000000008
 20
-14.49999999999997
 30
0.0
 11
14.00000000000008
 21
-13.0
 31
0.0
  0
LINE
  5
15A8
  8
240
 10
14.00000000000008
 20
14.5
 30
0.0
 11
14.00000000000008
 21
13.0
 31
0.0
  0
LINE
  5
15A9
  8
241
 10
14.49999999999997
 20
14.99999999999994
 30
0.0
 11
14.50000000000008
 21
0.0
 31
0.0
  0
LINE
  5
15AA
  8
241
 10
14.49999999999997
 20
-14.99999999999994
 30
0.0
 11
14.50000000000008
 21
0.0000000000000284
 31
0.0
  0
LINE
  5
15AB
  8
241
 10
11.50000000000008
 20
12.5
 30
0.0
 11
11.50000000000008
 21
0.0000000000000284
 31
0.0
  0
LINE
  5
15AC
  8
241
 10
11.50000000000008
 20
-12.5
 30
0.0
 11
11.50000000000008
 21
0.0
 31
0.0
  0
LINE
  5
15AD
  8
241
 10
15.300000000000029
 20
17.5
 30
0.0
 11
15.300000000000029
 21
16.05614492491355
 31
0.0
  0
LINE
  5
15AE
  8
241
 10
15.300000000000029
 20
14.05614492491361
 30
0.0
 11
15.300000000000029
 21
2.0
 31
0.0
  0
LINE
  5
15AF
  8
241
 10
15.300000000000029
 20
-1.99999999999997
 30
0.0
 11
15.300000000000029
 21
-14.05614492491355
 31
0.0
  0
LINE
  5
15B0
  8
241
 10
15.300000000000029
 20
-16.05614492491355
 30
0.0
 11
15.300000000000029
 21
-17.5
 31
0.0
  0
LINE
  5
15B1
  8
241
 10
28.418629150101509
 20
17.000946073793731
 30
0.0
 11
28.418629150101509
 21
-17.152317880794701
 31
0.0
  0
LINE
  5
15B2
  8
240
 10
0.0000000000001137
 20
15.5
 30
0.0
 11
0.0000000000001137
 21
12.49999999999997
 31
0.0
  0
LINE
  5
15B5
  8
240
 10
0.5000000000001137
 20
16.0
 30
0.0
 11
0.0000000000001137
 21
15.5
 31
0.0
1001
GENIUS_GENFIL_13
1070
     0
1040
0.5
1040
0.5
1040
0.2500000000000284
1040
45.00000000000162
1002
{
1002
}
1001
GENIUS_GENODEF_13
1002
{
1000
HIER
1070
     0
1002
}
1002
{
1000
MANEDIT
1070
     0
1002
}
1002
{
1000
NOSEL
1070
     0
1002
}
1002
{
1000
BEHIND
1070
     0
1002
}
1002
{
1000
OTHER
1070
     0
1002
}
1002
{
1000
REACTOR
1002
}
1001
GENIUS_GENOBJ-N-CHA_13
1002
{
1000
OWNER
1000
GEN
1002
}
  0
LINE
  5
15B6
  8
241
 10
9.5000000000000835
 20
-14.0
 30
0.0
 11
9.5000000000000568
 21
14.0
 31
0.0
  0
LINE
  5
15B7
  8
241
 10
-0.0000000000001842
 20
-12.500000000000091
 30
0.0
 11
-0.0000000000001842
 21
12.49999999999997
 31
0.0
  0
LINE
  5
15B8
  8
240
 10
-53.99999999999995
 20
-10.92882543472748
 30
0.0
 11
-54.00000000000005
 21
10.928825434727679
 31
0.0
  0
LINE
  5
15BB
  8
241
 10
14.00000000000008
 20
-13.0
 30
0.0
 11
14.00000000000008
 21
0.0000000000000284
 31
0.0
  0
LINE
  5
15BC
  8
241
 10
14.00000000000008
 20
13.0
 30
0.0
 11
14.00000000000008
 21
0.0
 31
0.0
  0
LINE
  5
15BD
  8
241
 10
23.500000000000082
 20
2.0
 30
0.0
 11
14.49999999999997
 21
2.0
 31
0.0
  0
LINE
  5
15BE
  8
241
 10
23.500000000000082
 20
-1.99999999999997
 30
0.0
 11
14.49999999999997
 21
-1.99999999999997
 31
0.0
  0
LINE
  5
15BF
  8
241
 10
23.500000000000082
 20
2.0
 30
0.0
 11
23.500000000000082
 21
0.0
 31
0.0
  0
LINE
  5
15C0
  8
241
 10
23.500000000000082
 20
-1.99999999999997
 30
0.0
 11
23.500000000000082
 21
0.0000000000000284
 31
0.0
  0
LINE
  5
15C1
  8
241
 10
23.500000000000082
 20
-14.05614492491355
 30
0.0
 11
14.49999999999997
 21
-14.05614492491355
 31
0.0
  0
LINE
  5
15C2
  8
241
 10
23.500000000000082
 20
-16.05614492491355
 30
0.0
 11
14.49999999999997
 21
-16.05614492491355
 31
0.0
  0
LINE
  5
15C3
  8
241
 10
23.500000000000082
 20
-16.05614492491355
 30
0.0
 11
23.500000000000082
 21
-14.05614492491355
 31
0.0
  0
LINE
  5
15C4
  8
241
 10
23.500000000000082
 20
16.05614492491355
 30
0.0
 11
14.49999999999997
 21
16.05614492491355
 31
0.0
  0
LINE
  5
15C5
  8
241
 10
23.500000000000082
 20
14.05614492491361
 30
0.0
 11
14.49999999999997
 21
14.05614492491361
 31
0.0
  0
LINE
  5
15C6
  8
241
 10
23.500000000000082
 20
16.05614492491355
 30
0.0
 11
23.500000000000082
 21
14.05614492491361
 31
0.0
  0
LINE
  5
15C7
  8
242
 10
11.50000000000008
 20
12.5
 30
0.0
 11
11.00000000000008
 21
13.0
 31
0.0
  0
LINE
  5
15C8
  8
242
 10
11.50000000000008
 20
-12.5
 30
0.0
 11
11.00000000000008
 21
-13.0
 31
0.0
  0
LINE
  5
15C9
  8
242
 10
14.00000000000008
 20
12.5
 30
0.0
 11
11.50000000000008
 21
12.5
 31
0.0
  0
LINE
  5
15CA
  8
242
 10
14.00000000000008
 20
-12.5
 30
0.0
 11
11.50000000000008
 21
-12.5
 31
0.0
  0
LINE
  5
15CB
  8
246
 10
26.80000000000004
 20
10.25
 30
0.0
 11
27.000000000000089
 21
10.25
 31
0.0
  0
LINE
  5
15CC
  8
246
 10
27.000000000000089
 20
10.25
 30
0.0
 11
30.000000000000089
 21
8.5179491924311606
 31
0.0
  0
LINE
  5
15CD
  8
246
 10
24.40000000000007
 20
8.75
 30
0.0
 11
26.80000000000004
 21
8.75
 31
0.0
  0
LINE
  5
15CE
  8
246
 10
26.80000000000004
 20
8.75
 30
0.0
 11
26.80000000000004
 21
10.25
 31
0.0
  0
LINE
  5
15CF
  8
246
 10
24.40000000000007
 20
10.25
 30
0.0
 11
24.40000000000007
 21
8.75
 31
0.0
  0
LINE
  5
15D0
  8
246
 10
24.40000000000007
 20
10.25
 30
0.0
 11
-0.9999999999999715
 21
7.5803524242518261
 31
0.0
  0
LINE
  5
15D1
  8
246
 10
-0.9999999999999715
 20
6.5000000000000284
 30
0.0
 11
30.000000000000089
 21
6.5000000000000284
 31
0.0
  0
LINE
  5
15D2
  8
246
 10
26.80000000000004
 20
-10.25
 30
0.0
 11
27.000000000000089
 21
-10.25
 31
0.0
  0
LINE
  5
15D3
  8
246
 10
24.40000000000007
 20
-10.25
 30
0.0
 11
-0.9999999999999715
 21
-7.5803524242518261
 31
0.0
  0
LINE
  5
15D4
  8
246
 10
24.40000000000007
 20
-10.25
 30
0.0
 11
24.40000000000007
 21
-8.75
 31
0.0
  0
LINE
  5
15D5
  8
246
 10
24.40000000000007
 20
-8.75
 30
0.0
 11
26.80000000000004
 21
-8.75
 31
0.0
  0
LINE
  5
15D6
  8
246
 10
26.80000000000004
 20
-8.75
 30
0.0
 11
26.80000000000004
 21
-10.25
 31
0.0
  0
LINE
  5
15D7
  8
246
 10
27.000000000000089
 20
-10.25
 30
0.0
 11
30.000000000000089
 21
-8.5179491924311002
 31
0.0
  0
LINE
  5
15D8
  8
246
 10
-0.9999999999999715
 20
-6.5
 30
0.0
 11
30.000000000000089
 21
-6.5
 31
0.0
  0
LINE
  5
15E1
  8
246
 10
-19.999999999999911
 20
6.0000000000000284
 30
0.0
 11
-23.690598923241431
 21
2.309401076758546
 31
0.0
  0
LINE
  5
15E2
  8
246
 10
-19.999999999999911
 20
-6.0
 30
0.0
 11
-23.690598923241431
 21
-2.309401076758518
 31
0.0
  0
LINE
  5
15E3
  8
246
 10
-27.60128252576445
 20
-2.309401076758518
 30
0.0
 11
-23.690598923241431
 21
-2.309401076758518
 31
0.0
  0
LINE
  5
15E4
  8
246
 10
-27.60128252576445
 20
-1.154700538379273
 30
0.0
 11
-23.690598923241431
 21
-1.154700538379273
 31
0.0
  0
LINE
  5
15E5
  8
246
 10
-27.60128252576445
 20
1.1547005383793021
 30
0.0
 11
-23.690598923241431
 21
1.1547005383793021
 31
0.0
  0
LINE
  5
15E6
  8
246
 10
-27.999999999999929
 20
3.000000000000028
 30
0.0
 11
-27.999999999999929
 21
1.7725150303659221
 31
0.0
  0
LINE
  5
15E7
  8
246
 10
-27.60128252576445
 20
2.309401076758546
 30
0.0
 11
-27.999999999999972
 21
3.000000000000028
 31
0.0
  0
LINE
  5
15E8
  8
246
 10
-27.60128252576445
 20
-2.309401076758518
 30
0.0
 11
-27.999999999999972
 21
-3.0
 31
0.0
  0
LINE
  5
15E9
  8
246
 10
-27.999999999999929
 20
-3.0
 30
0.0
 11
-27.999999999999929
 21
-1.7725150303658941
 31
0.0
  0
LINE
  5
15EA
  8
246
 10
-38.999999999999908
 20
-6.25
 30
0.0
 11
-34.999999999999922
 21
-6.25
 31
0.0
  0
LINE
  5
15EB
  8
246
 10
-34.999999999999922
 20
-6.25
 30
0.0
 11
-34.249999999999922
 21
-7.0
 31
0.0
  0
ARC
  5
15EC
  8
246
 10
-38.999999999999908
 20
5.2500000000000284
 30
0.0
 40
1.0
 50
90.0
 51
180.0
  0
LINE
  5
15ED
  8
246
 10
-38.999999999999908
 20
6.2500000000000284
 30
0.0
 11
-34.999999999999922
 21
6.2500000000000284
 31
0.0
  0
LINE
  5
15EE
  8
246
 10
-34.999999999999922
 20
6.2500000000000284
 30
0.0
 11
-34.249999999999922
 21
7.0000000000000284
 31
0.0
  0
LINE
  5
15F2
  8
246
 10
-27.60128252576445
 20
-2.309401076758518
 30
0.0
 11
-27.60128252576445
 21
2.309401076758546
 31
0.0
  0
LINE
  5
15F3
  8
246
 10
-27.60128252576445
 20
2.309401076758546
 30
0.0
 11
-23.690598923241431
 21
2.309401076758546
 31
0.0
  0
LINE
  5
15F4
  8
246
 10
-23.690598923241431
 20
-2.309401076758518
 30
0.0
 11
-23.690598923241431
 21
2.309401076758546
 31
0.0
  0
LINE
  5
15F6
  8
246
 10
-0.9999999999999715
 20
7.5803524242518261
 30
0.0
 11
-0.9999999999999715
 21
-7.5803524242518261
 31
0.0
  0
LINE
  5
15F9
  8
246
 10
-20.69999999999996
 20
-7.0
 30
0.0
 11
-19.999999999999972
 21
-6.3000000000000114
 31
0.0
  0
LINE
  5
15FA
  8
246
 10
-19.999999999999972
 20
6.3000000000000114
 30
0.0
 11
-19.999999999999972
 21
-6.3000000000000114
 31
0.0
  0
LINE
  5
15FB
  8
246
 10
-19.999999999999972
 20
6.3000000000000114
 30
0.0
 11
-20.69999999999996
 21
7.0000000000000284
 31
0.0
  0
LINE
  5
15FC
  8
246
 10
-39.999999999999922
 20
-5.25
 30
0.0
 11
-39.999999999999922
 21
5.2500000000000284
 31
0.0
  0
ARC
  5
15FD
  8
246
 10
-38.999999999999908
 20
-5.25
 30
0.0
 40
1.0
 50
180.0
 51
270.0
  0
LINE
  5
15FE
  8
246
 10
-27.999999999999929
 20
3.000000000000028
 30
0.0
 11
-39.999999999999922
 21
3.000000000000028
 31
0.0
  0
LINE
  5
15FF
  8
246
 10
-27.999999999999929
 20
-3.0
 30
0.0
 11
-39.999999999999922
 21
-3.0
 31
0.0
  0
LINE
  5
1600
  8
246
 10
-34.249999999999922
 20
7.0000000000000284
 30
0.0
 11
-20.69999999999996
 21
7.0000000000000284
 31
0.0
  0
LINE
  5
1602
  8
246
 10
-34.249999999999922
 20
-7.0
 30
0.0
 11
-20.69999999999996
 21
-7.0
 31
0.0
  0
LINE
  5
160C
  8
246
 10
-34.59999999999993
 20
6.6500000000000332
 30
0.0
 11
-20.349999999999941
 21
6.6500000000000332
 31
0.0
  0
LINE
  5
160E
  8
246
 10
-34.59999999999993
 20
-6.6500000000000039
 30
0.0
 11
-20.349999999999941
 21
-6.6500000000000039
 31
0.0
  0
LINE
  5
1610
  8
240
 10
-4.0000000000006244
 20
12.49999999999997
 30
0.0
 11
0.0000000000001137
 21
12.49999999999997
 31
0.0
  0
LINE
  5
1612
  8
240
 10
0.5000000000001137
 20
16.0
 30
0.0
 11
8.5000000000000568
 21
16.0
 31
0.0
  0
ARC
  5
1613
  8
240
 10
8.5000000000000568
 20
15.0
 30
0.0
 40
1.0
 50
0.0
 51
90.0
1001
GENIUS_GENOBJ-N-FIL_13
1002
{
1000
OWNER
1000
GEN
1002
}
1001
GENIUS_GENODEF_13
1002
{
1000
HIER
1070
     0
1002
}
1002
{
1000
MANEDIT
1070
     0
1002
}
1002
{
1000
NOSEL
1070
     0
1002
}
1002
{
1000
BEHIND
1070
     0
1002
}
1002
{
1000
OTHER
1070
     0
1002
}
1002
{
1000
REACTOR
1002
}
  0
LINE
  5
1614
  8
241
 10
9.5000000000000835
 20
5.567764362830018
 30
0.0
 11
-0.0000000000000284
 21
5.567764362830018
 31
0.0
  0
LINE
  5
1615
  8
241
 10
0.0000000000000284
 20
-5.567764362830018
 30
0.0
 11
9.5000000000000835
 21
-5.567764362830018
 31
0.0
  0
LINE
  5
1616
  8
242
 10
-0.0000000000000284
 20
5.567764362830018
 30
0.0
 11
9.5000000000000835
 21
-5.567764362830018
 31
0.0
  0
LINE
  5
1617
  8
242
 10
9.5000000000000835
 20
5.567764362830018
 30
0.0
 11
0.0000000000000284
 21
-5.567764362830018
 31
0.0
  0
LINE
  5
1618
  8
240
 10
9.4999999999999432
 20
-15.000000000000201
 30
0.0
 11
9.5
 21
-14.000000000000201
 31
0.0
  0
LINE
  5
161B
  8
240
 10
0.5
 20
-16.000000000000139
 30
0.0
 11
0.0
 21
-15.50000000000014
 31
0.0
1001
GENIUS_GENFIL_13
1070
     0
1040
0.5
1040
0.5
1040
0.2500000000000284
1040
45.00000000000162
1002
{
1002
}
1001
GENIUS_GENODEF_13
1002
{
1000
HIER
1070
     0
1002
}
1002
{
1000
MANEDIT
1070
     0
1002
}
1002
{
1000
NOSEL
1070
     0
1002
}
1002
{
1000
BEHIND
1070
     0
1002
}
1002
{
1000
OTHER
1070
     0
1002
}
1002
{
1000
REACTOR
1002
}
1001
GENIUS_GENOBJ-N-CHA_13
1002
{
1000
OWNER
1000
GEN
1002
}
  0
LINE
  5
161C
  8
240
 10
-50.999999999999901
 20
-12.499999999999829
 30
0.0
 11
0.0000000000000258
 21
-12.500000000000091
 31
0.0
  0
LINE
  5
161E
  8
240
 10
0.5
 20
-16.000000000000139
 30
0.0
 11
8.4999999999999432
 21
-16.000000000000171
 31
0.0
  0
ARC
  5
161F
  8
240
 10
8.4999999999999432
 20
-15.000000000000171
 30
0.0
 40
1.0
 50
270.0
 51
0.0
1001
GENIUS_GENOBJ-N-FIL_13
1002
{
1000
OWNER
1000
GEN
1002
}
1001
GENIUS_GENODEF_13
1002
{
1000
HIER
1070
     0
1002
}
1002
{
1000
MANEDIT
1070
     0
1002
}
1002
{
1000
NOSEL
1070
     0
1002
}
1002
{
1000
BEHIND
1070
     0
1002
}
1002
{
1000
OTHER
1070
     0
1002
}
1002
{
1000
REACTOR
1002
}
  0
LINE
  5
1620
  8
240
 10
-53.25881904510247
 20
-11.89475126101655
 30
0.0
 11
-50.999999999999901
 21
-12.499999999999799
 31
0.0
  0
ARC
  5
1621
  8
240
 10
-53.000000000000021
 20
-10.928825434727511
 30
0.0
 40
1.0
 50
179.99999999999841
 51
255.00000000000401
1001
GENIUS_GENOBJ-N-FIL_13
1002
{
1000
OWNER
1000
GEN
1002
}
1001
GENIUS_GENODEF_13
1002
{
1000
HIER
1070
     0
1002
}
1002
{
1000
MANEDIT
1070
     0
1002
}
1002
{
1000
NOSEL
1070
     0
1002
}
1002
{
1000
BEHIND
1070
     0
1002
}
1002
{
1000
OTHER
1070
     0
1002
}
1002
{
1000
REACTOR
1002
}
  0
ARC
  5
1622
  8
240
 10
-52.999999999999972
 20
10.92882543472763
 30
0.0
 40
1.0
 50
145.16782756129459
 51
179.99999999999659
1001
GENIUS_GENOBJ-N-FIL_13
1002
{
1000
OWNER
1000
GEN
1002
}
1001
GENIUS_GENODEF_13
1002
{
1000
HIER
1070
     0
1002
}
1002
{
1000
MANEDIT
1070
     0
1002
}
1002
{
1000
NOSEL
1070
     0
1002
}
1002
{
1000
BEHIND
1070
     0
1002
}
1002
{
1000
OTHER
1070
     0
1002
}
1002
{
1000
REACTOR
1002
}
  0
LINE
  5
1623
  8
240
 10
-5.0000000000006519
 20
11.49999999999994
 30
0.0
 11
-53.820828615477012
 21
11.49999999999994
 31
0.0
  0
LINE
  5
1624
  8
240
 10
-4.0000000000006244
 20
12.49999999999997
 30
0.0
 11
-5.0000000000006519
 21
11.49999999999994
 31
0.0
  0
LINE
  5
1625
  8
241
 10
-53.999999999999972
 20
-4.8989794855663433
 30
0.0
 11
-5.0000000000006519
 21
-4.8989794855663433
 31
0.0
  0
LINE
  5
1626
  8
241
 10
-54.000000000000021
 20
4.8989794855663433
 30
0.0
 11
-5.0000000000006519
 21
4.8989794855663433
 31
0.0
  0
LINE
  5
1627
  8
241
 10
-5.0000000000006519
 20
4.8989794855663433
 30
0.0
 11
-5.0000000000006519
 21
-4.8989794855663433
 31
0.0
  0
LINE
  5
1629
  8
242
 10
-53.999999999999972
 20
-4.8989794855663433
 30
0.0
 11
-5.0000000000006519
 21
4.8989794855663433
 31
0.0
  0
LINE
  5
162A
  8
242
 10
-5.0000000000006519
 20
-4.8989794855663131
 30
0.0
 11
-54.000000000000021
 21
4.8989794855663433
 31
0.0
  0
LINE
  5
162B
  8
241
 10
-50.999999999999901
 20
-12.499999999999799
 30
0.0
 11
-50.999999999999901
 21
11.499999999999909
 31
0.0
  0
LINE
  5
162C
  8
245
 10
-63.0
 20
0.0
 30
0.0
 11
35.0
 21
0.0
 31
0.0
  0
TEXT
  5
1747
  8
241
 10
-56.0
 20
49.0
 30
0.0
 40
5.0
  1
SLS25-NBS13-30
  7
YOKO
  0
LINE
  5
1B10
  8
240
 10
0.0000000000000258
 20
-12.500000000000091
 30
0.0
 11
0.0
 21
-15.50000000000014
 31
0.0
  0
LINE
  5
1FF6
  8
241
 10
-5.0
 20
4.898979999999999
 30
0.0
 11
-4.9811300000000003
 21
4.8373599999999994
 31
0.0
  0
LINE
  5
1FF7
  8
241
 10
-4.9811300000000003
 20
4.8373599999999994
 30
0.0
 11
-4.9622699999999993
 21
4.7757300000000003
 31
0.0
  0
LINE
  5
1FF8
  8
241
 10
-4.9622699999999993
 20
4.7757300000000003
 30
0.0
 11
-4.9434199999999988
 21
4.7141099999999989
 31
0.0
  0
LINE
  5
1FF9
  8
241
 10
-4.9434199999999988
 20
4.7141099999999989
 30
0.0
 11
-4.9245900000000002
 21
4.6524900000000002
 31
0.0
  0
LINE
  5
1FFA
  8
241
 10
-4.9245900000000002
 20
4.6524900000000002
 30
0.0
 11
-4.90578
 21
4.5908699999999989
 31
0.0
  0
LINE
  5
1FFB
  8
241
 10
-4.90578
 20
4.5908699999999989
 30
0.0
 11
-4.8870100000000001
 21
4.5292500000000002
 31
0.0
  0
LINE
  5
1FFC
  8
241
 10
-4.8870100000000001
 20
4.5292500000000002
 30
0.0
 11
-4.868269999999999
 21
4.4676200000000001
 31
0.0
  0
LINE
  5
1FFD
  8
241
 10
-4.868269999999999
 20
4.4676200000000001
 30
0.0
 11
-4.849569999999999
 21
4.4059999999999988
 31
0.0
  0
LINE
  5
1FFE
  8
241
 10
-4.849569999999999
 20
4.4059999999999988
 30
0.0
 11
-4.8309100000000003
 21
4.3443800000000001
 31
0.0
  0
LINE
  5
1FFF
  8
241
 10
-4.8309100000000003
 20
4.3443800000000001
 30
0.0
 11
-4.8123199999999988
 21
4.2827599999999988
 31
0.0
  0
LINE
  5
2000
  8
241
 10
-4.8123199999999988
 20
4.2827599999999988
 30
0.0
 11
-4.793779999999999
 21
4.2211299999999996
 31
0.0
  0
LINE
  5
2001
  8
241
 10
-4.793779999999999
 20
4.2211299999999996
 30
0.0
 11
-4.7752999999999988
 21
4.15951
 31
0.0
  0
LINE
  5
2002
  8
241
 10
-4.7752999999999988
 20
4.15951
 30
0.0
 11
-4.756899999999999
 21
4.0978899999999996
 31
0.0
  0
LINE
  5
2003
  8
241
 10
-4.756899999999999
 20
4.0978899999999996
 30
0.0
 11
-4.7385799999999998
 21
4.03627
 31
0.0
  0
LINE
  5
2004
  8
241
 10
-4.7385799999999998
 20
4.03627
 30
0.0
 11
-4.7203400000000002
 21
3.9746399999999991
 31
0.0
  0
LINE
  5
2005
  8
241
 10
-4.7203400000000002
 20
3.9746399999999991
 30
0.0
 11
-4.702189999999999
 21
3.9130199999999991
 31
0.0
  0
LINE
  5
2006
  8
241
 10
-4.702189999999999
 20
3.9130199999999991
 30
0.0
 11
-4.6841299999999997
 21
3.851399999999999
 31
0.0
  0
LINE
  5
2007
  8
241
 10
-4.6841299999999997
 20
3.851399999999999
 30
0.0
 11
-4.6661799999999998
 21
3.7897799999999999
 31
0.0
  0
LINE
  5
2008
  8
241
 10
-4.6661799999999998
 20
3.7897799999999999
 30
0.0
 11
-4.6483299999999996
 21
3.728149999999999
 31
0.0
  0
LINE
  5
2009
  8
241
 10
-4.6483299999999996
 20
3.728149999999999
 30
0.0
 11
-4.6306000000000003
 21
3.6665299999999998
 31
0.0
  0
LINE
  5
200A
  8
241
 10
-4.6306000000000003
 20
3.6665299999999998
 30
0.0
 11
-4.612989999999999
 21
3.6049099999999989
 31
0.0
  0
LINE
  5
200B
  8
241
 10
-4.612989999999999
 20
3.6049099999999989
 30
0.0
 11
-4.5955000000000004
 21
3.5432899999999998
 31
0.0
  0
LINE
  5
200C
  8
241
 10
-4.5955000000000004
 20
3.5432899999999998
 30
0.0
 11
-4.5781499999999991
 21
3.4816599999999989
 31
0.0
  0
LINE
  5
200D
  8
241
 10
-4.5781499999999991
 20
3.4816599999999989
 30
0.0
 11
-4.560929999999999
 21
3.4200400000000002
 31
0.0
  0
LINE
  5
200E
  8
241
 10
-4.560929999999999
 20
3.4200400000000002
 30
0.0
 11
-4.5438499999999991
 21
3.3584199999999989
 31
0.0
  0
LINE
  5
200F
  8
241
 10
-4.5438499999999991
 20
3.3584199999999989
 30
0.0
 11
-4.5269199999999987
 21
3.2968000000000002
 31
0.0
  0
LINE
  5
2010
  8
241
 10
-4.5269199999999987
 20
3.2968000000000002
 30
0.0
 11
-4.5101500000000003
 21
3.2351799999999988
 31
0.0
  0
LINE
  5
2011
  8
241
 10
-4.5101500000000003
 20
3.2351799999999988
 30
0.0
 11
-4.4935400000000003
 21
3.1735500000000001
 31
0.0
  0
LINE
  5
2012
  8
241
 10
-4.4935400000000003
 20
3.1735500000000001
 30
0.0
 11
-4.4771000000000001
 21
3.1119300000000001
 31
0.0
  0
LINE
  5
2013
  8
241
 10
-4.4771000000000001
 20
3.1119300000000001
 30
0.0
 11
-4.4608299999999996
 21
3.0503099999999992
 31
0.0
  0
LINE
  5
2014
  8
241
 10
-4.4608299999999996
 20
3.0503099999999992
 30
0.0
 11
-4.4447400000000004
 21
2.9886900000000001
 31
0.0
  0
LINE
  5
2015
  8
241
 10
-4.4447400000000004
 20
2.9886900000000001
 30
0.0
 11
-4.4288299999999996
 21
2.9270599999999991
 31
0.0
  0
LINE
  5
2016
  8
241
 10
-4.4288299999999996
 20
2.9270599999999991
 30
0.0
 11
-4.4131199999999993
 21
2.8654399999999991
 31
0.0
  0
LINE
  5
2017
  8
241
 10
-4.4131199999999993
 20
2.8654399999999991
 30
0.0
 11
-4.3975999999999988
 21
2.8038199999999991
 31
0.0
  0
LINE
  5
2018
  8
241
 10
-4.3975999999999988
 20
2.8038199999999991
 30
0.0
 11
-4.3822900000000002
 21
2.7421999999999991
 31
0.0
  0
LINE
  5
2019
  8
241
 10
-4.3822900000000002
 20
2.7421999999999991
 30
0.0
 11
-4.3671800000000003
 21
2.680569999999999
 31
0.0
  0
LINE
  5
201A
  8
241
 10
-4.3671800000000003
 20
2.680569999999999
 30
0.0
 11
-4.3522899999999991
 21
2.618949999999999
 31
0.0
  0
LINE
  5
201B
  8
241
 10
-4.3522899999999991
 20
2.618949999999999
 30
0.0
 11
-4.3376199999999994
 21
2.557329999999999
 31
0.0
  0
LINE
  5
201C
  8
241
 10
-4.3376199999999994
 20
2.557329999999999
 30
0.0
 11
-4.3231799999999998
 21
2.495709999999999
 31
0.0
  0
LINE
  5
201D
  8
241
 10
-4.3231799999999998
 20
2.495709999999999
 30
0.0
 11
-4.3089699999999986
 21
2.4340799999999989
 31
0.0
  0
LINE
  5
201E
  8
241
 10
-4.3089699999999986
 20
2.4340799999999989
 30
0.0
 11
-4.294999999999999
 21
2.3724599999999989
 31
0.0
  0
LINE
  5
201F
  8
241
 10
-4.294999999999999
 20
2.3724599999999989
 30
0.0
 11
-4.2812700000000001
 21
2.3108399999999998
 31
0.0
  0
LINE
  5
2020
  8
241
 10
-4.2812700000000001
 20
2.3108399999999998
 30
0.0
 11
-4.2678000000000003
 21
2.2492200000000002
 31
0.0
  0
LINE
  5
2021
  8
241
 10
-4.2678000000000003
 20
2.2492200000000002
 30
0.0
 11
-4.2545799999999998
 21
2.1875900000000001
 31
0.0
  0
LINE
  5
2022
  8
241
 10
-4.2545799999999998
 20
2.1875900000000001
 30
0.0
 11
-4.2416199999999993
 21
2.1259700000000001
 31
0.0
  0
LINE
  5
2023
  8
241
 10
-4.2416199999999993
 20
2.1259700000000001
 30
0.0
 11
-4.2289300000000001
 21
2.0643500000000001
 31
0.0
  0
LINE
  5
2024
  8
241
 10
-4.2289300000000001
 20
2.0643500000000001
 30
0.0
 11
-4.21652
 21
2.0027300000000001
 31
0.0
  0
LINE
  5
2025
  8
241
 10
-4.21652
 20
2.0027300000000001
 30
0.0
 11
-4.2043900000000001
 21
1.941109999999999
 31
0.0
  0
LINE
  5
2026
  8
241
 10
-4.2043900000000001
 20
1.941109999999999
 30
0.0
 11
-4.1925400000000002
 21
1.8794799999999989
 31
0.0
  0
LINE
  5
2027
  8
241
 10
-4.1925400000000002
 20
1.8794799999999989
 30
0.0
 11
-4.1809900000000004
 21
1.8178599999999989
 31
0.0
  0
LINE
  5
2028
  8
241
 10
-4.1809900000000004
 20
1.8178599999999989
 30
0.0
 11
-4.16974
 21
1.75624
 31
0.0
  0
LINE
  5
2029
  8
241
 10
-4.16974
 20
1.75624
 30
0.0
 11
-4.1587899999999989
 21
1.69462
 31
0.0
  0
LINE
  5
202A
  8
241
 10
-4.1587899999999989
 20
1.69462
 30
0.0
 11
-4.1481500000000002
 21
1.6329899999999991
 31
0.0
  0
LINE
  5
202B
  8
241
 10
-4.1481500000000002
 20
1.6329899999999991
 30
0.0
 11
-4.1378300000000001
 21
1.5713699999999999
 31
0.0
  0
LINE
  5
202C
  8
241
 10
-4.1378300000000001
 20
1.5713699999999999
 30
0.0
 11
-4.1278199999999989
 21
1.509749999999999
 31
0.0
  0
LINE
  5
202D
  8
241
 10
-4.1278199999999989
 20
1.509749999999999
 30
0.0
 11
-4.1181499999999991
 21
1.448129999999999
 31
0.0
  0
LINE
  5
202E
  8
241
 10
-4.1181499999999991
 20
1.448129999999999
 30
0.0
 11
-4.1088100000000001
 21
1.3865000000000001
 31
0.0
  0
LINE
  5
202F
  8
241
 10
-4.1088100000000001
 20
1.3865000000000001
 30
0.0
 11
-4.0998199999999994
 21
1.3248799999999989
 31
0.0
  0
LINE
  5
2030
  8
241
 10
-4.0998199999999994
 20
1.3248799999999989
 30
0.0
 11
-4.0911699999999991
 21
1.26326
 31
0.0
  0
LINE
  5
2031
  8
241
 10
-4.0911699999999991
 20
1.26326
 30
0.0
 11
-4.0828699999999989
 21
1.20164
 31
0.0
  0
LINE
  5
2032
  8
241
 10
-4.0828699999999989
 20
1.20164
 30
0.0
 11
-4.0749300000000002
 21
1.1400099999999991
 31
0.0
  0
LINE
  5
2033
  8
241
 10
-4.0749300000000002
 20
1.1400099999999991
 30
0.0
 11
-4.0673500000000002
 21
1.0783899999999991
 31
0.0
  0
LINE
  5
2034
  8
241
 10
-4.0673500000000002
 20
1.0783899999999991
 30
0.0
 11
-4.0601399999999996
 21
1.01677
 31
0.0
  0
LINE
  5
2035
  8
241
 10
-4.0601399999999996
 20
1.01677
 30
0.0
 11
-4.0533099999999989
 21
0.955147
 31
0.0
  0
LINE
  5
2036
  8
241
 10
-4.0533099999999989
 20
0.955147
 30
0.0
 11
-4.0468699999999993
 21
0.8935249999999999
 31
0.0
  0
LINE
  5
2037
  8
241
 10
-4.0468699999999993
 20
0.8935249999999999
 30
0.0
 11
-4.0408099999999987
 21
0.831902
 31
0.0
  0
LINE
  5
2038
  8
241
 10
-4.0408099999999987
 20
0.831902
 30
0.0
 11
-4.0351400000000002
 21
0.77028
 31
0.0
  0
LINE
  5
2039
  8
241
 10
-4.0351400000000002
 20
0.77028
 30
0.0
 11
-4.029869999999999
 21
0.708657
 31
0.0
  0
LINE
  5
203A
  8
241
 10
-4.029869999999999
 20
0.708657
 30
0.0
 11
-4.0250099999999991
 21
0.647035
 31
0.0
  0
LINE
  5
203B
  8
241
 10
-4.0250099999999991
 20
0.647035
 30
0.0
 11
-4.0205699999999993
 21
0.585413
 31
0.0
  0
LINE
  5
203C
  8
241
 10
-4.0205699999999993
 20
0.585413
 30
0.0
 11
-4.0165399999999991
 21
0.52379
 31
0.0
  0
LINE
  5
203D
  8
241
 10
-4.0165399999999991
 20
0.52379
 30
0.0
 11
-4.012929999999999
 21
0.4621680000000001
 31
0.0
  0
LINE
  5
203E
  8
241
 10
-4.012929999999999
 20
0.4621680000000001
 30
0.0
 11
-4.0097500000000004
 21
0.400545
 31
0.0
  0
LINE
  5
203F
  8
241
 10
-4.0097500000000004
 20
0.400545
 30
0.0
 11
-4.0070100000000002
 21
0.3389229999999999
 31
0.0
  0
LINE
  5
2040
  8
241
 10
-4.0070100000000002
 20
0.3389229999999999
 30
0.0
 11
-4.0047199999999989
 21
0.277301
 31
0.0
  0
LINE
  5
2041
  8
241
 10
-4.0047199999999989
 20
0.277301
 30
0.0
 11
-4.0028600000000001
 21
0.215678
 31
0.0
  0
LINE
  5
2042
  8
241
 10
-4.0028600000000001
 20
0.215678
 30
0.0
 11
-4.0014699999999994
 21
0.154056
 31
0.0
  0
LINE
  5
2043
  8
241
 10
-4.0014699999999994
 20
0.154056
 30
0.0
 11
-4.0005300000000004
 21
0.0924336
 31
0.0
  0
LINE
  5
2044
  8
241
 10
-4.0005300000000004
 20
0.0924336
 30
0.0
 11
-4.0000599999999986
 21
0.0308112
 31
0.0
  0
LINE
  5
2045
  8
241
 10
-4.0000599999999986
 20
0.0308112
 30
0.0
 11
-4.0000599999999986
 21
-0.0308112
 31
0.0
  0
LINE
  5
2046
  8
241
 10
-4.0000599999999986
 20
-0.0308112
 30
0.0
 11
-4.0005300000000004
 21
-0.0924336
 31
0.0
  0
LINE
  5
2047
  8
241
 10
-4.0005300000000004
 20
-0.0924336
 30
0.0
 11
-4.0014699999999994
 21
-0.154056
 31
0.0
  0
LINE
  5
2048
  8
241
 10
-4.0014699999999994
 20
-0.154056
 30
0.0
 11
-4.0028600000000001
 21
-0.215678
 31
0.0
  0
LINE
  5
2049
  8
241
 10
-4.0028600000000001
 20
-0.215678
 30
0.0
 11
-4.0047199999999989
 21
-0.277301
 31
0.0
  0
LINE
  5
204A
  8
241
 10
-4.0047199999999989
 20
-0.277301
 30
0.0
 11
-4.0070100000000002
 21
-0.3389229999999999
 31
0.0
  0
LINE
  5
204B
  8
241
 10
-4.0070100000000002
 20
-0.3389229999999999
 30
0.0
 11
-4.0097500000000004
 21
-0.400545
 31
0.0
  0
LINE
  5
204C
  8
241
 10
-4.0097500000000004
 20
-0.400545
 30
0.0
 11
-4.012929999999999
 21
-0.4621680000000001
 31
0.0
  0
LINE
  5
204D
  8
241
 10
-4.012929999999999
 20
-0.4621680000000001
 30
0.0
 11
-4.0165399999999991
 21
-0.52379
 31
0.0
  0
LINE
  5
204E
  8
241
 10
-4.0165399999999991
 20
-0.52379
 30
0.0
 11
-4.0205699999999993
 21
-0.585413
 31
0.0
  0
LINE
  5
204F
  8
241
 10
-4.0205699999999993
 20
-0.585413
 30
0.0
 11
-4.0250099999999991
 21
-0.647035
 31
0.0
  0
LINE
  5
2050
  8
241
 10
-4.0250099999999991
 20
-0.647035
 30
0.0
 11
-4.029869999999999
 21
-0.708657
 31
0.0
  0
LINE
  5
2051
  8
241
 10
-4.029869999999999
 20
-0.708657
 30
0.0
 11
-4.0351400000000002
 21
-0.77028
 31
0.0
  0
LINE
  5
2052
  8
241
 10
-4.0351400000000002
 20
-0.77028
 30
0.0
 11
-4.0408099999999987
 21
-0.831902
 31
0.0
  0
LINE
  5
2053
  8
241
 10
-4.0408099999999987
 20
-0.831902
 30
0.0
 11
-4.0468699999999993
 21
-0.8935249999999999
 31
0.0
  0
LINE
  5
2054
  8
241
 10
-4.0468699999999993
 20
-0.8935249999999999
 30
0.0
 11
-4.0533099999999989
 21
-0.955147
 31
0.0
  0
LINE
  5
2055
  8
241
 10
-4.0533099999999989
 20
-0.955147
 30
0.0
 11
-4.0601399999999996
 21
-1.01677
 31
0.0
  0
LINE
  5
2056
  8
241
 10
-4.0601399999999996
 20
-1.01677
 30
0.0
 11
-4.0673500000000002
 21
-1.0783899999999991
 31
0.0
  0
LINE
  5
2057
  8
241
 10
-4.0673500000000002
 20
-1.0783899999999991
 30
0.0
 11
-4.0749300000000002
 21
-1.1400099999999991
 31
0.0
  0
LINE
  5
2058
  8
241
 10
-4.0749300000000002
 20
-1.1400099999999991
 30
0.0
 11
-4.0828699999999989
 21
-1.20164
 31
0.0
  0
LINE
  5
2059
  8
241
 10
-4.0828699999999989
 20
-1.20164
 30
0.0
 11
-4.0911699999999991
 21
-1.26326
 31
0.0
  0
LINE
  5
205A
  8
241
 10
-4.0911699999999991
 20
-1.26326
 30
0.0
 11
-4.0998199999999994
 21
-1.3248799999999989
 31
0.0
  0
LINE
  5
205B
  8
241
 10
-4.0998199999999994
 20
-1.3248799999999989
 30
0.0
 11
-4.1088100000000001
 21
-1.3865000000000001
 31
0.0
  0
LINE
  5
205C
  8
241
 10
-4.1088100000000001
 20
-1.3865000000000001
 30
0.0
 11
-4.1181499999999991
 21
-1.448129999999999
 31
0.0
  0
LINE
  5
205D
  8
241
 10
-4.1181499999999991
 20
-1.448129999999999
 30
0.0
 11
-4.1278199999999989
 21
-1.509749999999999
 31
0.0
  0
LINE
  5
205E
  8
241
 10
-4.1278199999999989
 20
-1.509749999999999
 30
0.0
 11
-4.1378300000000001
 21
-1.5713699999999999
 31
0.0
  0
LINE
  5
205F
  8
241
 10
-4.1378300000000001
 20
-1.5713699999999999
 30
0.0
 11
-4.1481500000000002
 21
-1.6329899999999991
 31
0.0
  0
LINE
  5
2060
  8
241
 10
-4.1481500000000002
 20
-1.6329899999999991
 30
0.0
 11
-4.1587899999999989
 21
-1.69462
 31
0.0
  0
LINE
  5
2061
  8
241
 10
-4.1587899999999989
 20
-1.69462
 30
0.0
 11
-4.16974
 21
-1.75624
 31
0.0
  0
LINE
  5
2062
  8
241
 10
-4.16974
 20
-1.75624
 30
0.0
 11
-4.1809900000000004
 21
-1.8178599999999989
 31
0.0
  0
LINE
  5
2063
  8
241
 10
-4.1809900000000004
 20
-1.8178599999999989
 30
0.0
 11
-4.1925400000000002
 21
-1.8794799999999989
 31
0.0
  0
LINE
  5
2064
  8
241
 10
-4.1925400000000002
 20
-1.8794799999999989
 30
0.0
 11
-4.2043900000000001
 21
-1.941109999999999
 31
0.0
  0
LINE
  5
2065
  8
241
 10
-4.2043900000000001
 20
-1.941109999999999
 30
0.0
 11
-4.21652
 21
-2.0027300000000001
 31
0.0
  0
LINE
  5
2066
  8
241
 10
-4.21652
 20
-2.0027300000000001
 30
0.0
 11
-4.2289300000000001
 21
-2.0643500000000001
 31
0.0
  0
LINE
  5
2067
  8
241
 10
-4.2289300000000001
 20
-2.0643500000000001
 30
0.0
 11
-4.2416199999999993
 21
-2.1259700000000001
 31
0.0
  0
LINE
  5
2068
  8
241
 10
-4.2416199999999993
 20
-2.1259700000000001
 30
0.0
 11
-4.2545799999999998
 21
-2.1875900000000001
 31
0.0
  0
LINE
  5
2069
  8
241
 10
-4.2545799999999998
 20
-2.1875900000000001
 30
0.0
 11
-4.2678000000000003
 21
-2.2492200000000002
 31
0.0
  0
LINE
  5
206A
  8
241
 10
-4.2678000000000003
 20
-2.2492200000000002
 30
0.0
 11
-4.2812700000000001
 21
-2.3108399999999998
 31
0.0
  0
LINE
  5
206B
  8
241
 10
-4.2812700000000001
 20
-2.3108399999999998
 30
0.0
 11
-4.294999999999999
 21
-2.3724599999999989
 31
0.0
  0
LINE
  5
206C
  8
241
 10
-4.294999999999999
 20
-2.3724599999999989
 30
0.0
 11
-4.3089699999999986
 21
-2.4340799999999989
 31
0.0
  0
LINE
  5
206D
  8
241
 10
-4.3089699999999986
 20
-2.4340799999999989
 30
0.0
 11
-4.3231799999999998
 21
-2.495709999999999
 31
0.0
  0
LINE
  5
206E
  8
241
 10
-4.3231799999999998
 20
-2.495709999999999
 30
0.0
 11
-4.3376199999999994
 21
-2.557329999999999
 31
0.0
  0
LINE
  5
206F
  8
241
 10
-4.3376199999999994
 20
-2.557329999999999
 30
0.0
 11
-4.3522899999999991
 21
-2.618949999999999
 31
0.0
  0
LINE
  5
2070
  8
241
 10
-4.3522899999999991
 20
-2.618949999999999
 30
0.0
 11
-4.3671800000000003
 21
-2.680569999999999
 31
0.0
  0
LINE
  5
2071
  8
241
 10
-4.3671800000000003
 20
-2.680569999999999
 30
0.0
 11
-4.3822900000000002
 21
-2.7421999999999991
 31
0.0
  0
LINE
  5
2072
  8
241
 10
-4.3822900000000002
 20
-2.7421999999999991
 30
0.0
 11
-4.3975999999999988
 21
-2.8038199999999991
 31
0.0
  0
LINE
  5
2073
  8
241
 10
-4.3975999999999988
 20
-2.8038199999999991
 30
0.0
 11
-4.4131199999999993
 21
-2.8654399999999991
 31
0.0
  0
LINE
  5
2074
  8
241
 10
-4.4131199999999993
 20
-2.8654399999999991
 30
0.0
 11
-4.4288299999999996
 21
-2.9270599999999991
 31
0.0
  0
LINE
  5
2075
  8
241
 10
-4.4288299999999996
 20
-2.9270599999999991
 30
0.0
 11
-4.4447400000000004
 21
-2.9886900000000001
 31
0.0
  0
LINE
  5
2076
  8
241
 10
-4.4447400000000004
 20
-2.9886900000000001
 30
0.0
 11
-4.4608299999999996
 21
-3.0503099999999992
 31
0.0
  0
LINE
  5
2077
  8
241
 10
-4.4608299999999996
 20
-3.0503099999999992
 30
0.0
 11
-4.4771000000000001
 21
-3.1119300000000001
 31
0.0
  0
LINE
  5
2078
  8
241
 10
-4.4771000000000001
 20
-3.1119300000000001
 30
0.0
 11
-4.4935400000000003
 21
-3.1735500000000001
 31
0.0
  0
LINE
  5
2079
  8
241
 10
-4.4935400000000003
 20
-3.1735500000000001
 30
0.0
 11
-4.5101500000000003
 21
-3.2351799999999988
 31
0.0
  0
LINE
  5
207A
  8
241
 10
-4.5101500000000003
 20
-3.2351799999999988
 30
0.0
 11
-4.5269199999999987
 21
-3.2968000000000002
 31
0.0
  0
LINE
  5
207B
  8
241
 10
-4.5269199999999987
 20
-3.2968000000000002
 30
0.0
 11
-4.5438499999999991
 21
-3.3584199999999989
 31
0.0
  0
LINE
  5
207C
  8
241
 10
-4.5438499999999991
 20
-3.3584199999999989
 30
0.0
 11
-4.560929999999999
 21
-3.4200400000000002
 31
0.0
  0
LINE
  5
207D
  8
241
 10
-4.560929999999999
 20
-3.4200400000000002
 30
0.0
 11
-4.5781499999999991
 21
-3.4816599999999989
 31
0.0
  0
LINE
  5
207E
  8
241
 10
-4.5781499999999991
 20
-3.4816599999999989
 30
0.0
 11
-4.5955000000000004
 21
-3.5432899999999998
 31
0.0
  0
LINE
  5
207F
  8
241
 10
-4.5955000000000004
 20
-3.5432899999999998
 30
0.0
 11
-4.612989999999999
 21
-3.6049099999999989
 31
0.0
  0
LINE
  5
2080
  8
241
 10
-4.612989999999999
 20
-3.6049099999999989
 30
0.0
 11
-4.6306000000000003
 21
-3.6665299999999998
 31
0.0
  0
LINE
  5
2081
  8
241
 10
-4.6306000000000003
 20
-3.6665299999999998
 30
0.0
 11
-4.6483299999999996
 21
-3.728149999999999
 31
0.0
  0
LINE
  5
2082
  8
241
 10
-4.6483299999999996
 20
-3.728149999999999
 30
0.0
 11
-4.6661799999999998
 21
-3.7897799999999999
 31
0.0
  0
LINE
  5
2083
  8
241
 10
-4.6661799999999998
 20
-3.7897799999999999
 30
0.0
 11
-4.6841299999999997
 21
-3.851399999999999
 31
0.0
  0
LINE
  5
2084
  8
241
 10
-4.6841299999999997
 20
-3.851399999999999
 30
0.0
 11
-4.702189999999999
 21
-3.9130199999999991
 31
0.0
  0
LINE
  5
2085
  8
241
 10
-4.702189999999999
 20
-3.9130199999999991
 30
0.0
 11
-4.7203400000000002
 21
-3.9746399999999991
 31
0.0
  0
LINE
  5
2086
  8
241
 10
-4.7203400000000002
 20
-3.9746399999999991
 30
0.0
 11
-4.7385799999999998
 21
-4.03627
 31
0.0
  0
LINE
  5
2087
  8
241
 10
-4.7385799999999998
 20
-4.03627
 30
0.0
 11
-4.756899999999999
 21
-4.0978899999999996
 31
0.0
  0
LINE
  5
2088
  8
241
 10
-4.756899999999999
 20
-4.0978899999999996
 30
0.0
 11
-4.7752999999999988
 21
-4.15951
 31
0.0
  0
LINE
  5
2089
  8
241
 10
-4.7752999999999988
 20
-4.15951
 30
0.0
 11
-4.793779999999999
 21
-4.2211299999999996
 31
0.0
  0
LINE
  5
208A
  8
241
 10
-4.793779999999999
 20
-4.2211299999999996
 30
0.0
 11
-4.8123199999999988
 21
-4.2827599999999988
 31
0.0
  0
LINE
  5
208B
  8
241
 10
-4.8123199999999988
 20
-4.2827599999999988
 30
0.0
 11
-4.8309100000000003
 21
-4.3443800000000001
 31
0.0
  0
LINE
  5
208C
  8
241
 10
-4.8309100000000003
 20
-4.3443800000000001
 30
0.0
 11
-4.849569999999999
 21
-4.4059999999999988
 31
0.0
  0
LINE
  5
208D
  8
241
 10
-4.849569999999999
 20
-4.4059999999999988
 30
0.0
 11
-4.868269999999999
 21
-4.4676200000000001
 31
0.0
  0
LINE
  5
208E
  8
241
 10
-4.868269999999999
 20
-4.4676200000000001
 30
0.0
 11
-4.8870100000000001
 21
-4.5292500000000002
 31
0.0
  0
LINE
  5
208F
  8
241
 10
-4.8870100000000001
 20
-4.5292500000000002
 30
0.0
 11
-4.90578
 21
-4.5908699999999989
 31
0.0
  0
LINE
  5
2090
  8
241
 10
-4.90578
 20
-4.5908699999999989
 30
0.0
 11
-4.9245900000000002
 21
-4.6524900000000002
 31
0.0
  0
LINE
  5
2091
  8
241
 10
-4.9245900000000002
 20
-4.6524900000000002
 30
0.0
 11
-4.9434199999999988
 21
-4.7141099999999989
 31
0.0
  0
LINE
  5
2092
  8
241
 10
-4.9434199999999988
 20
-4.7141099999999989
 30
0.0
 11
-4.9622699999999993
 21
-4.7757300000000003
 31
0.0
  0
LINE
  5
2093
  8
241
 10
-4.9622699999999993
 20
-4.7757300000000003
 30
0.0
 11
-4.9811300000000003
 21
-4.8373599999999994
 31
0.0
  0
LINE
  5
2094
  8
241
 10
-4.9811300000000003
 20
-4.8373599999999994
 30
0.0
 11
-5.0
 21
-4.898979999999999
 31
0.0
  0
LINE
  5
2097
  8
250
  6
CONTINUOUS
 10
30.500000000000099
 20
6.5000000000000284
 30
0.0
 11
43.000000999999997
 21
6.5000000000000231
 31
0.0
  0
LINE
  5
2098
  8
250
  6
CONTINUOUS
 10
30.500000000000099
 20
-6.5
 30
0.0
 11
43.000000999999997
 21
-6.5000000000000018
 31
0.0
  0
LINE
  5
2099
  8
250
  6
CONTINUOUS
 10
42.00000099999999
 20
4.2700000000000244
 30
0.0
 11
42.00000099999999
 21
-4.270000000000004
 31
0.0
  0
LINE
  5
209D
  8
250
  6
CONTINUOUS
 10
28.918629150101509
 20
17.499999999999979
 30
0.0
 11
50.0
 21
17.499999999999979
 31
0.0
  0
LINE
  5
209E
  8
250
  6
CONTINUOUS
 10
28.918629150101442
 20
-17.500000000000021
 30
0.0
 11
50.0
 21
-17.500000000000021
 31
0.0
  0
LINE
  5
209F
  8
250
  6
CONTINUOUS
 10
49.0
 20
15.26999999999998
 30
0.0
 11
49.0
 21
-15.270000000000019
 31
0.0
  0
LINE
  5
20A3
  8
250
  6
CONTINUOUS
 10
-4.5000000000006244
 20
12.49999999999997
 30
0.0
 11
-71.000000999999983
 21
12.499999999999989
 31
0.0
  0
LINE
  5
20A4
  8
250
  6
CONTINUOUS
 10
-51.499999999999801
 20
-12.499999999999829
 30
0.0
 11
-71.000000999999983
 21
-12.499999999999821
 31
0.0
  0
LINE
  5
20A5
  8
250
  6
CONTINUOUS
 10
-70.000000999999997
 20
10.269999999999991
 30
0.0
 11
-70.000000999999997
 21
-10.26999999999982
 31
0.0
  0
LINE
  5
20A9
  8
250
  6
CONTINUOUS
 10
30.000000000000089
 20
-16.460050506338831
 30
0.0
 11
30.000000000000089
 21
-29.000000000000099
 31
0.0
  0
LINE
  5
20AA
  8
250
  6
CONTINUOUS
 10
-19.999999999999911
 20
-6.5
 30
0.0
 11
-19.999999999999911
 21
-29.000000000000099
 31
0.0
  0
LINE
  5
20AB
  8
250
  6
CONTINUOUS
 10
27.770000000000088
 20
-28.000000000000089
 30
0.0
 11
-17.769999999999911
 21
-28.000000000000089
 31
0.0
  0
LINE
  5
20AF
  8
250
  6
CONTINUOUS
 10
0.0000000000001138
 20
16.0
 30
0.0
 11
0.000000000000115
 21
36.0
 31
0.0
  0
LINE
  5
20B0
  8
250
  6
CONTINUOUS
 10
-54.00000000000005
 20
11.428825434727621
 30
0.0
 11
-54.00000000000005
 21
36.0
 31
0.0
  0
LINE
  5
20B1
  8
250
  6
CONTINUOUS
 10
-2.2299999999998841
 20
35.0
 30
0.0
 11
-51.77000000000006
 21
35.0
 31
0.0
  0
LINE
  5
20B5
  8
250
  6
CONTINUOUS
 10
30.000000000000089
 20
16.460050506338799
 30
0.0
 11
30.000000000000089
 21
36.0
 31
0.0
  0
LINE
  5
20B6
  8
250
  6
CONTINUOUS
 10
0.0000000000001138
 20
16.0
 30
0.0
 11
0.000000000000115
 21
36.0
 31
0.0
  0
LINE
  5
20B7
  8
250
  6
CONTINUOUS
 10
27.770000000000088
 20
35.0
 30
0.0
 11
2.230000000000115
 21
35.0
 31
0.0
  0
LINE
  5
20BB
  8
250
  6
CONTINUOUS
 10
42.37166766666666
 20
-4.2700000000000031
 30
0.0
 11
42.00000099999999
 21
-6.5000000000000018
 31
0.0
  0
LINE
  5
20BC
  8
250
  6
CONTINUOUS
 10
41.628334333333321
 20
-4.2700000000000031
 30
0.0
 11
42.00000099999999
 21
-6.5000000000000018
 31
0.0
  0
LINE
  5
20BD
  8
250
  6
CONTINUOUS
 10
42.00000099999999
 20
-6.5000000000000018
 30
0.0
 11
42.00000099999999
 21
-4.2700000000000031
 31
0.0
  0
LINE
  5
20BE
  8
250
  6
CONTINUOUS
 10
41.628334333333306
 20
4.2700000000000244
 30
0.0
 11
42.00000099999999
 21
6.5000000000000231
 31
0.0
  0
LINE
  5
20BF
  8
250
  6
CONTINUOUS
 10
42.37166766666666
 20
4.2700000000000244
 30
0.0
 11
42.00000099999999
 21
6.5000000000000231
 31
0.0
  0
LINE
  5
20C0
  8
250
  6
CONTINUOUS
 10
42.00000099999999
 20
6.5000000000000231
 30
0.0
 11
42.00000099999999
 21
4.2700000000000244
 31
0.0
  0
TEXT
  5
20C1
  8
250
  6
CONTINUOUS
 10
41.00000099999999
 20
-8.7999999999999812
 30
0.0
 40
2.799999999999998
  1
MAX.\U+220513
 50
90.0
  0
TEXT
  5
20C2
  8
250
  6
CONTINUOUS
 10
48.0
 20
-3.9333333333333478
 30
0.0
 40
2.799999999999998
  1
\U+220535
 50
90.0
  0
LINE
  5
20C3
  8
250
  6
CONTINUOUS
 10
49.371666666666663
 20
-15.270000000000019
 30
0.0
 11
48.999999999999993
 21
-17.500000000000021
 31
0.0
  0
LINE
  5
20C4
  8
250
  6
CONTINUOUS
 10
48.62833333333333
 20
-15.270000000000019
 30
0.0
 11
48.999999999999993
 21
-17.500000000000021
 31
0.0
  0
LINE
  5
20C5
  8
250
  6
CONTINUOUS
 10
48.999999999999993
 20
-17.500000000000021
 30
0.0
 11
48.999999999999993
 21
-15.270000000000019
 31
0.0
  0
LINE
  5
20C6
  8
250
  6
CONTINUOUS
 10
48.628333333333337
 20
15.26999999999998
 30
0.0
 11
49.000000000000007
 21
17.499999999999979
 31
0.0
  0
LINE
  5
20C7
  8
250
  6
CONTINUOUS
 10
49.371666666666677
 20
15.26999999999998
 30
0.0
 11
49.000000000000007
 21
17.499999999999979
 31
0.0
  0
LINE
  5
20C8
  8
250
  6
CONTINUOUS
 10
49.000000000000007
 20
17.499999999999979
 30
0.0
 11
49.000000000000007
 21
15.26999999999998
 31
0.0
  0
TEXT
  5
20C9
  8
250
  6
CONTINUOUS
 10
-71.000001000000026
 20
-3.933333333333259
 30
0.0
 40
2.799999999999998
  1
\U+220525
 50
90.0
  0
LINE
  5
20CA
  8
250
  6
CONTINUOUS
 10
-69.628334333333328
 20
-10.26999999999982
 30
0.0
 11
-70.000000999999997
 21
-12.499999999999821
 31
0.0
  0
LINE
  5
20CB
  8
250
  6
CONTINUOUS
 10
-70.371667666666667
 20
-10.26999999999982
 30
0.0
 11
-70.000000999999997
 21
-12.499999999999821
 31
0.0
  0
LINE
  5
20CC
  8
250
  6
CONTINUOUS
 10
-70.000000999999997
 20
-12.499999999999821
 30
0.0
 11
-70.000000999999997
 21
-10.26999999999982
 31
0.0
  0
LINE
  5
20CD
  8
250
  6
CONTINUOUS
 10
-70.371667666666667
 20
10.269999999999991
 30
0.0
 11
-70.000000999999997
 21
12.499999999999989
 31
0.0
  0
LINE
  5
20CE
  8
250
  6
CONTINUOUS
 10
-69.628334333333328
 20
10.269999999999991
 30
0.0
 11
-70.000000999999997
 21
12.499999999999989
 31
0.0
  0
LINE
  5
20CF
  8
250
  6
CONTINUOUS
 10
-70.000000999999997
 20
12.499999999999989
 30
0.0
 11
-70.000000999999997
 21
10.269999999999991
 31
0.0
  0
TEXT
  5
20D0
  8
250
  6
CONTINUOUS
 10
-2.0666666666665789
 20
-27.000000000000099
 30
0.0
 40
2.799999999999998
  1
41~60
  0
LINE
  5
20D1
  8
250
  6
CONTINUOUS
 10
-17.769999999999911
 20
-28.371666666666759
 30
0.0
 11
-19.999999999999911
 21
-28.000000000000089
 31
0.0
  0
LINE
  5
20D2
  8
250
  6
CONTINUOUS
 10
-17.769999999999911
 20
-27.62833333333343
 30
0.0
 11
-19.999999999999911
 21
-28.000000000000089
 31
0.0
  0
LINE
  5
20D3
  8
250
  6
CONTINUOUS
 10
-19.999999999999911
 20
-28.000000000000089
 30
0.0
 11
-17.769999999999911
 21
-28.000000000000089
 31
0.0
  0
LINE
  5
20D4
  8
250
  6
CONTINUOUS
 10
27.770000000000088
 20
-27.62833333333343
 30
0.0
 11
30.000000000000089
 21
-28.000000000000089
 31
0.0
  0
LINE
  5
20D5
  8
250
  6
CONTINUOUS
 10
27.770000000000088
 20
-28.371666666666759
 30
0.0
 11
30.000000000000089
 21
-28.000000000000089
 31
0.0
  0
LINE
  5
20D6
  8
250
  6
CONTINUOUS
 10
30.000000000000089
 20
-28.000000000000089
 30
0.0
 11
27.770000000000088
 21
-28.000000000000089
 31
0.0
  0
TEXT
  5
20D7
  8
250
  6
CONTINUOUS
 10
-29.733333333333299
 20
36.0
 30
0.0
 40
2.799999999999998
  1
54
  0
LINE
  5
20D8
  8
250
  6
CONTINUOUS
 10
-51.770000000000053
 20
34.62833333333333
 30
0.0
 11
-54.00000000000005
 21
35.0
 31
0.0
  0
LINE
  5
20D9
  8
250
  6
CONTINUOUS
 10
-51.770000000000053
 20
35.371666666666663
 30
0.0
 11
-54.00000000000005
 21
35.0
 31
0.0
  0
LINE
  5
20DA
  8
250
  6
CONTINUOUS
 10
-54.00000000000005
 20
35.0
 30
0.0
 11
-51.770000000000053
 21
35.0
 31
0.0
  0
LINE
  5
20DB
  8
250
  6
CONTINUOUS
 10
-2.2299999999998841
 20
35.37166666666667
 30
0.0
 11
0.000000000000115
 21
35.0
 31
0.0
  0
LINE
  5
20DC
  8
250
  6
CONTINUOUS
 10
-2.2299999999998841
 20
34.62833333333333
 30
0.0
 11
0.000000000000115
 21
35.0
 31
0.0
  0
LINE
  5
20DD
  8
250
  6
CONTINUOUS
 10
0.000000000000115
 20
35.0
 30
0.0
 11
-2.2299999999998841
 21
35.0
 31
0.0
  0
TEXT
  5
20DE
  8
250
  6
CONTINUOUS
 10
12.33333333333343
 20
36.0
 30
0.0
 40
2.799999999999998
  1
30
  0
LINE
  5
20DF
  8
250
  6
CONTINUOUS
 10
2.2300000000001141
 20
34.628333333333323
 30
0.0
 11
0.000000000000115
 21
35.0
 31
0.0
  0
LINE
  5
20E0
  8
250
  6
CONTINUOUS
 10
2.2300000000001141
 20
35.371666666666663
 30
0.0
 11
0.000000000000115
 21
35.0
 31
0.0
  0
LINE
  5
20E1
  8
250
  6
CONTINUOUS
 10
0.000000000000115
 20
35.0
 30
0.0
 11
2.2300000000001141
 21
35.0
 31
0.0
  0
LINE
  5
20E2
  8
250
  6
CONTINUOUS
 10
27.770000000000088
 20
35.371666666666663
 30
0.0
 11
30.000000000000089
 21
35.0
 31
0.0
  0
LINE
  5
20E3
  8
250
  6
CONTINUOUS
 10
27.770000000000088
 20
34.628333333333323
 30
0.0
 11
30.000000000000089
 21
35.0
 31
0.0
  0
LINE
  5
20E4
  8
250
  6
CONTINUOUS
 10
30.000000000000089
 20
35.0
 30
0.0
 11
27.770000000000088
 21
35.0
 31
0.0
  0
VIEWPORT
  5
22
 67
     1
  8
0
 10
261.51769911504419
 20
148.5
 30
0.0
 40
523.0353982300885
 41
297.0
 68
     1
 69
     1
1001
ACAD
1000
MVIEW
1002
{
1070
    16
1010
0.0
1020
0.0
1030
0.0
1010
0.0
1020
0.0
1030
1.0
1040
0.0
1040
297.0
1040
261.51769911504419
1040
148.5
1040
50.0
1040
0.0
1040
0.0
1070
     0
1070
   100
1070
     1
1070
     1
1070
     0
1070
     0
1070
     0
1070
     0
1040
0.0
1040
0.0
1040
0.0
1040
1.0
1040
1.0
1040
10.0
1040
10.0
1070
     0
1002
{
1002
}
1002
}
1001
GENIUS_GENODEF_13
1002
{
1000
HIER
1070
     0
1002
}
1002
{
1000
MANEDIT
1070
     0
1002
}
1002
{
1000
NOSEL
1070
     0
1002
}
1002
{
1000
BEHIND
1070
     0
1002
}
1002
{
1000
OTHER
1070
     0
1002
}
1002
{
1000
REACTOR
1002
}
1001
GENIUS_GENOBJ-N-SDF_13
1002
{
1000
OWNER
1000
GEN
1002
}
1001
GENIUS_GENSCREG_15
1000
PF
1040
1.0
1000
DF
1040
1.0
1000
MIN
1011
0.0
1021
0.0
1031
0.0
1021
0.0
1031
0.0
1000
MAX
1011
523.0353982300885
1021
0.0
1031
0.0
1021
297.0
1031
0.0
1000
FLAGS
1070
     4
  0
ENDSEC
  0
EOF
