  0
SECTION
  2
HEADER
  9
$ACADVER
  1
AC1009
  9
$INSBASE
 10
0.0
 20
0.0
 30
0.0
  9
$EXTMIN
 10
31.62516789172054
 20
45.360568558296592
 30
0.0
  9
$EXTMAX
 10
270.63344635961948
 20
187.18410980636841
 30
0.0
  9
$LIMMIN
 10
0.0
 20
0.0
  9
$LIMMAX
 10
297.0
 20
210.0
  9
$ORTHOMODE
 70
     0
  9
$REGENMODE
 70
     1
  9
$FILLMODE
 70
     1
  9
$QTEXTMODE
 70
     0
  9
$MIRRTEXT
 70
     1
  9
$DRAGMODE
 70
     2
  9
$LTSCALE
 40
10.0
  9
$OSMODE
 70
   103
  9
$ATTMODE
 70
     1
  9
$TEXTSIZE
 40
3.0
  9
$TRACEWID
 40
1.0
  9
$TEXTSTYLE
  7
YOKO
  9
$CLAYER
  8
241
  9
$CELTYPE
  6
BYLAYER
  9
$CECOLOR
 62
   256
  9
$DIMSCALE
 40
1.0
  9
$DIMASZ
 40
2.2299999999999991
  9
$DIMEXO
 40
0.5
  9
$DIMDLI
 40
7.0
  9
$DIMRND
 40
0.0
  9
$DIMDLE
 40
0.0
  9
$DIMEXE
 40
1.0
  9
$DIMTP
 40
0.0
  9
$DIMTM
 40
0.01
  9
$DIMTXT
 40
2.799999999999998
  9
$DIMCEN
 40
0.0
  9
$DIMTSZ
 40
0.0
  9
$DIMTOL
 70
     0
  9
$DIMLIM
 70
     0
  9
$DIMTIH
 70
     0
  9
$DIMTOH
 70
     0
  9
$DIMSE1
 70
     0
  9
$DIMSE2
 70
     0
  9
$DIMTAD
 70
     3
  9
$DIMZIN
 70
     9
  9
$DIMBLK
  1
OPEN
  9
$DIMASO
 70
     1
  9
$DIMSHO
 70
     1
  9
$DIMPOST
  1

  9
$DIMAPOST
  1

  9
$DIMALT
 70
     0
  9
$DIMALTD
 70
     2
  9
$DIMALTF
 40
25.399999999999999
  9
$DIMLFAC
 40
1.0
  9
$DIMTOFL
 70
     1
  9
$DIMTVP
 40
0.0
  9
$DIMTIX
 70
     1
  9
$DIMSOXD
 70
     0
  9
$DIMSAH
 70
     0
  9
$DIMBLK1
  1

  9
$DIMBLK2
  1

  9
$DIMSTYLE
  2
BIGT
  9
$DIMCLRD
 70
   256
  9
$DIMCLRE
 70
   256
  9
$DIMCLRT
 70
    40
  9
$DIMTFAC
 40
1.0
  9
$DIMGAP
 40
1.0
  9
$LUNITS
 70
     2
  9
$LUPREC
 70
     6
  9
$SKETCHINC
 40
1.0
  9
$FILLETRAD
 40
0.0
  9
$AUNITS
 70
     0
  9
$AUPREC
 70
     6
  9
$MENU
  1
.
  9
$ELEVATION
 40
0.0
  9
$PELEVATION
 40
0.0
  9
$THICKNESS
 40
0.0
  9
$LIMCHECK
 70
     0
  9
$BLIPMODE
 70
     0
  9
$CHAMFERA
 40
0.2
  9
$CHAMFERB
 40
0.2
  9
$SKPOLY
 70
     0
  9
$TDCREATE
 40
2457826.496024908
  9
$TDUPDATE
 40
2458907.4074524539
  9
$TDINDWG
 40
0.0525133565
  9
$TDUSRTIMER
 40
0.0525133218
  9
$USRTIMER
 70
     1
  9
$ANGBASE
 50
0.0
  9
$ANGDIR
 70
     0
  9
$PDMODE
 70
     1
  9
$PDSIZE
 40
0.0
  9
$PLINEWID
 40
0.0
  9
$COORDS
 70
     1
  9
$SPLFRAME
 70
     0
  9
$SPLINETYPE
 70
     6
  9
$SPLINESEGS
 70
     4
  9
$ATTDIA
 70
     1
  9
$ATTREQ
 70
     1
  9
$HANDLING
 70
     1
  9
$HANDSEED
  5
5C1C
  9
$SURFTAB1
 70
     6
  9
$SURFTAB2
 70
     6
  9
$SURFTYPE
 70
     6
  9
$SURFU
 70
     6
  9
$SURFV
 70
     6
  9
$UCSNAME
  2

  9
$UCSORG
 10
0.0
 20
0.0
 30
0.0
  9
$UCSXDIR
 10
1.0
 20
0.0
 30
0.0
  9
$UCSYDIR
 10
0.0
 20
1.0
 30
0.0
  9
$PUCSNAME
  2

  9
$PUCSORG
 10
0.0
 20
0.0
 30
0.0
  9
$PUCSXDIR
 10
1.0
 20
0.0
 30
0.0
  9
$PUCSYDIR
 10
0.0
 20
1.0
 30
0.0
  9
$USERI1
 70
     1
  9
$USERI2
 70
     0
  9
$USERI3
 70
     0
  9
$USERI4
 70
     0
  9
$USERI5
 70
     0
  9
$USERR1
 40
0.0
  9
$USERR2
 40
0.0
  9
$USERR3
 40
0.0
  9
$USERR4
 40
0.0
  9
$USERR5
 40
0.0
  9
$WORLDVIEW
 70
     1
  9
$SHADEDGE
 70
     3
  9
$SHADEDIF
 70
    70
  9
$TILEMODE
 70
     1
  9
$MAXACTVP
 70
    16
  9
$PLIMCHECK
 70
     0
  9
$PEXTMIN
 10
1.0000000000000000E+020
 20
1.0000000000000000E+020
 30
1.0000000000000000E+020
  9
$PEXTMAX
 10
-1.0000000000000000E+020
 20
-1.0000000000000000E+020
 30
-1.0000000000000000E+020
  9
$PLIMMIN
 10
0.0
 20
0.0
  9
$PLIMMAX
 10
420.0
 20
297.0
  9
$UNITMODE
 70
     0
  9
$VISRETAIN
 70
     1
  9
$PLINEGEN
 70
     0
  9
$PSLTSCALE
 70
     1
  0
ENDSEC
  0
SECTION
  2
TABLES
  0
TABLE
  2
VPORT
 70
     1
  0
VPORT
  2
*ACTIVE
 70
     0
 10
0.0
 20
0.0
 11
1.0
 21
1.0
 12
132.81234032749981
 22
91.474699699114254
 13
0.0
 23
0.0
 14
7.0
 24
7.0
 15
7.0
 25
7.0
 16
0.0
 26
0.0
 36
1.0
 17
0.0
 27
0.0
 37
0.0
 40
145.55044064598911
 41
1.8020434227330779
 42
50.0
 43
0.0
 44
0.0
 50
0.0
 51
0.0
 71
     0
 72
  2000
 73
     1
 74
     0
 75
     0
 76
     1
 77
     0
 78
     0
  0
ENDTAB
  0
TABLE
  2
LTYPE
 70
    19
  0
LTYPE
  2
CONTINUOUS
 70
     0
  3
Solid line
 72
    65
 73
     0
 40
0.0
  0
LTYPE
  2
CENTER2
 70
     0
  3
___ _ ___ _ ___ _ ___ _ ___ _ ___ _ ___ _ ___ _
 72
    65
 73
     4
 40
1.125
 49
0.75
 49
-0.125
 49
0.125
 49
-0.125
  0
LTYPE
  2
HIDDEN2
 70
     0
  3
_ _ _ _ _ _ _ _ _ _ _ _ _ _ _ _ _ _ _ _ _ _ _ _
 72
    65
 73
     2
 40
0.1875
 49
0.125
 49
-0.0625
  0
LTYPE
  2
AM_ISO02W050
 70
     0
  3
__ __ __ __ __ __ __ __ __ __ __ __ __ __ __
 72
    65
 73
     2
 40
7.5
 49
6.0
 49
-1.5
  0
LTYPE
  2
AMCONSTR
 70
     0
  3
_______________________
 72
    65
 73
     2
 40
9999.0
 49
9999.0
 49
0.0
  0
LTYPE
  2
ACISOWELD
 70
     0
  3
_ _ _ _ _
 72
    65
 73
     2
 40
2.0
 49
2.0
 49
-1.0
  0
LTYPE
  2
ACISOTGB
 70
     0
  3
__ . . __ . .
 72
    65
 73
     6
 40
9.0
 49
4.0
 49
-1.0
 49
1.0
 49
-1.0
 49
1.0
 49
-1.0
  0
LTYPE
  2
ACISOTGL
 70
     0
  3
_ _ _ _ _
 72
    65
 73
     2
 40
3.0
 49
2.0
 49
-1.0
  0
LTYPE
  2
AM_ISO08W050
 70
     0
  3
____ . ____ . ____ . ____ . ____ . ____ . ____
 72
    65
 73
     4
 40
18.0
 49
12.0
 49
-1.5
 49
3.0
 49
-1.5
  0
LTYPE
  2
AM_ISO09W050
 70
     0
  3
_____ . . _____ . . _____ . . ____ .. ____
 72
    65
 73
     6
 40
22.5
 49
12.0
 49
-1.5
 49
3.0
 49
-1.5
 49
3.0
 49
-1.5
  0
LTYPE
  2
AM_ISO08W050X2
 70
     0
  3
__ . __ . __ . __ . __ . __
 72
    65
 73
     4
 40
9.0
 49
6.0
 49
-0.75
 49
1.5
 49
-0.75
  0
LTYPE
  2
AM_ISO02W050X2
 70
     0
  3
 _ _ _ _ _ _ _ _ _ _ _ _
 72
    65
 73
     2
 40
3.75
 49
3.0
 49
-0.75
  0
LTYPE
  2
AMZIGZAG
 70
     0
  3
/\/-/\/-/\/-/\/-/\/-/\/
 72
    65
 73
     2
 40
11.0001
 49
0.0001
 49
-11.0
  0
LTYPE
  2
HIDDEN
 70
     0
  3
Hidden __ __ __ __ __ __ __ __ __ __ __ __ __ _
 72
    65
 73
     2
 40
0.375
 49
0.25
 49
-0.125
  0
LTYPE
  2
PHANTOM2
 70
     0
  3
Phantom (.5x) ___ _ _ ___ _ _ ___ _ _ ___ _ _
 72
    65
 73
     6
 40
1.25
 49
0.625
 49
-0.125
 49
0.125
 49
-0.125
 49
0.125
 49
-0.125
  0
LTYPE
  2
CENTER
 70
     0
  3
Center ____ _ ____ _ ____ _ ____ _ ____ _ ____
 72
    65
 73
     4
 40
2.0
 49
1.25
 49
-0.25
 49
0.25
 49
-0.25
  0
LTYPE
  2
AMZIGZAG2
 70
     0
  3
/\/-/\/-/\/-/\/-/\/-/\/
 72
    65
 73
     2
 40
0.4401
 49
0.0001
 49
-0.4400000000000001
  0
LTYPE
  2
ACANSTGB
 70
     0
  3
__ . . __ . .
 72
    65
 73
     6
 40
0.35433070866
 49
0.15748031496
 49
-0.03937007874
 49
0.03937007874
 49
-0.03937007874
 49
0.03937007874
 49
-0.03937007874
  0
LTYPE
  2
ACANSTGL
 70
     0
  3
_ _ _ _ _
 72
    65
 73
     2
 40
0.11811023622
 49
0.07874015748
 49
-0.03937007874
  0
ENDTAB
  0
TABLE
  2
LAYER
 70
     9
  0
LAYER
  2
0
 70
     0
 62
     7
  6
CONTINUOUS
  0
LAYER
  2
241
 70
     0
 62
   211
  6
CONTINUOUS
  0
LAYER
  2
DEFPOINTS
 70
     0
 62
     7
  6
CONTINUOUS
  0
LAYER
  2
245
 70
     0
 62
     2
  6
CENTER2
  0
LAYER
  2
240
 70
     0
 62
     4
  6
CONTINUOUS
  0
LAYER
  2
242
 70
     0
 62
     3
  6
CONTINUOUS
  0
LAYER
  2
243
 70
     0
 62
   211
  6
HIDDEN2
  0
LAYER
  2
250
 70
     0
 62
     3
  6
CONTINUOUS
  0
LAYER
  2
AM_7
 70
     0
 62
     2
  6
CENTER2
  0
ENDTAB
  0
TABLE
  2
STYLE
 70
     7
  0
STYLE
  2
STANDARD
 70
     0
 40
0.0
 41
1.0
 50
0.0
 71
     0
 42
3.0
  3
romans.shx
  4
extfont.shx
  0
STYLE
  2
ANNOTATIVE
 70
     0
 40
0.0
 41
1.0
 50
0.0
 71
     0
 42
0.2
  3
txt
  4

  0
STYLE
  2
YOKO
 70
     0
 40
0.0
 41
1.0
 50
0.0
 71
     0
 42
3.0
  3
romans.shx
  4
extfont.shx
  0
STYLE
  2
ACISOGDT
 70
     0
 40
0.0
 41
1.0
 50
0.0
 71
     0
 42
3.0
  3
amgdt.shx
  4
extfont.shx
  0
STYLE
  2

 70
     1
 40
0.0
 41
1.0
 50
0.0
 71
     0
 42
3.0
  3
genltshp.shx
  4

  0
STYLE
  2
ACANSTS
 70
     0
 40
0.0
 41
1.0
 50
0.0
 71
     0
 42
3.0
  3
romans.shx
  4
extfont.shx
  0
STYLE
  2
ACANSGDT
 70
     0
 40
0.0
 41
1.0
 50
0.0
 71
     0
 42
3.0
  3
amgdt.shx
  4

  0
ENDTAB
  0
TABLE
  2
VIEW
 70
     0
  0
ENDTAB
  0
TABLE
  2
UCS
 70
     0
  0
ENDTAB
  0
TABLE
  2
APPID
 70
    44
  0
APPID
  2
ACAD
 70
     0
  0
APPID
  2
ACADANNOTATIVE
 70
     0
  0
APPID
  2
GLOBAL
 70
     0
  0
APPID
  2
DETAIL
 70
     0
  0
APPID
  2
GRPNAME
 70
     0
  0
APPID
  2
GPARA
 70
     0
  0
APPID
  2
MCAD_NO_VIS
 70
     0
  0
APPID
  2
ACAD_TEMP_GRAPHIC
 70
     0
  0
APPID
  2
ACATTRIBSERVICES
 70
     0
  0
APPID
  2
GENIUS_GENSCREG_15
 70
     0
  0
APPID
  2
GENIUS_GENODEF_13
 70
     0
  0
APPID
  2
GENIUS_GENOBJ-N-SDF_13
 70
     0
  0
APPID
  2
GENIUS_GENREC_14
 70
     0
  0
APPID
  2
GENIUS_GENOBJ-N-REC_13
 70
     0
  0
APPID
  2
GENIUS_GENDIMSH_14
 70
     0
  0
APPID
  2
GENIUS_GENOBJ-N-DIM_13
 70
     0
  0
APPID
  2
GENIUS_GENDIM_13
 70
     0
  0
APPID
  2
GENIUS_GENDTOL_13
 70
     0
  0
APPID
  2
GENIUS_GENOLIS_13
 70
     0
  0
APPID
  2
GENIUS_GENOENT_13
 70
     0
  0
APPID
  2
GENIUS_GENOBJ-F-FEM_13
 70
     0
  0
APPID
  2
GENIUS_GENOREF_13
 70
     0
  0
APPID
  2
GENIUS_GEFFEM_13
 70
     0
  0
APPID
  2
GENIUS_GEFFEMP_13
 70
     0
  0
APPID
  2
AD_DRAW
 70
     0
  0
APPID
  2
DESIGNERASSEMBLIES
 70
     0
  0
APPID
  2
ACADM_DIM_EDIT
 70
     0
  0
APPID
  2
AMDT_DM_ADJ
 70
     0
  0
APPID
  2
ITEMNAME
 70
     0
  0
APPID
  2
GENIUS_GENOBJ-N-FIL_13
 70
     0
  0
APPID
  2
GENIUS_GENFIL_13
 70
     0
  0
APPID
  2
GENIUS_GENOBJ-N-CHA_13
 70
     0
  0
APPID
  2
ACAECLAYERSTANDARD
 70
     0
  0
APPID
  2
ACAD_NAV_VCDISPLAY
 70
     0
  0
APPID
  2
HATCH_TYPE
 70
     0
  0
APPID
  2
HATCH_DISPLAY
 70
     0
  0
APPID
  2
HATCH_DISTANCE
 70
     0
  0
APPID
  2
INSERT_PATH
 70
     0
  0
APPID
  2
GMODEL
 70
     0
  0
APPID
  2
GRADE_0
 70
     0
  0
APPID
  2
ACAD_EXEMPT_FROM_CAD_STANDARDS
 70
     0
  0
APPID
  2
ACAD_MLEADERVER
 70
     0
  0
APPID
  2
ACAD_DSTYLE_DIMBREAK
 70
     0
  0
APPID
  2
ACAD_DSTYLE_DIMJAG
 70
     0
  0
ENDTAB
  0
TABLE
  2
DIMSTYLE
 70
    16
  0
DIMSTYLE
  2
STANDARD
 70
     0
  3

  4

  5

  6

  7

 40
1.0
 41
0.18
 42
0.0625
 43
0.38
 44
0.18
 45
0.0
 46
0.0
 47
0.0
 48
0.0
140
0.18
141
0.09
142
0.0
143
25.399999999999999
144
1.0
145
0.0
146
1.0
147
0.09
 71
     0
 72
     0
 73
     1
 74
     1
 75
     0
 76
     0
 77
     0
 78
     0
170
     0
171
     2
172
     0
173
     0
174
     0
175
     0
176
     0
177
     0
178
     0
  0
DIMSTYLE
  2
ANNOTATIVE
 70
     0
  3

  4

  5

  6

  7

 40
1.0
 41
0.18
 42
0.0625
 43
0.38
 44
0.18
 45
0.0
 46
0.0
 47
0.0
 48
0.0
140
0.18
141
0.09
142
0.0
143
25.399999999999999
144
1.0
145
0.0
146
1.0
147
0.09
 71
     0
 72
     0
 73
     1
 74
     1
 75
     0
 76
     0
 77
     0
 78
     0
170
     0
171
     2
172
     0
173
     0
174
     0
175
     0
176
     0
177
     0
178
     0
  0
DIMSTYLE
  2
BIGT
 70
     0
  3

  4

  5

  6

  7

 40
1.0
 41
2.2299999999999991
 42
0.5
 43
7.0
 44
1.0
 45
0.0
 46
0.0
 47
0.0
 48
0.01
140
2.799999999999998
141
0.0
142
0.0
143
25.399999999999999
144
1.0
145
0.0
146
1.0
147
1.0
 71
     0
 72
     0
 73
     0
 74
     0
 75
     0
 76
     0
 77
     3
 78
     9
170
     0
171
     2
172
     1
173
     0
174
     1
175
     0
176
   256
177
   256
178
    40
  0
DIMSTYLE
  2
AM_ISO
 70
     0
  3

  4
"
  5

  6

  7

 40
1.0
 41
2.5
 42
1.0
 43
10.0
 44
1.0
 45
0.0
 46
0.0
 47
0.1
 48
0.1
140
3.5
141
0.0
142
0.0
143
0.0393701
144
1.0
145
0.0
146
0.71
147
1.5
 71
     0
 72
     0
 73
     0
 74
     0
 75
     0
 76
     0
 77
     1
 78
     8
170
     0
171
     2
172
     1
173
     0
174
     0
175
     0
176
   256
177
   256
178
     2
  0
DIMSTYLE
  2
AM_ISO$3
 70
     0
  3

  4
"
  5

  6

  7

 40
1.0
 41
2.5
 42
1.0
 43
10.0
 44
1.0
 45
0.0
 46
0.0
 47
0.1
 48
0.1
140
3.5
141
0.0
142
0.0
143
0.0393701
144
1.0
145
0.0
146
0.71
147
1.5
 71
     0
 72
     0
 73
     0
 74
     1
 75
     0
 76
     0
 77
     1
 78
     8
170
     0
171
     2
172
     0
173
     0
174
     0
175
     0
176
   256
177
   256
178
     2
  0
DIMSTYLE
  2
AM_ISO$4
 70
     0
  3

  4
"
  5

  6

  7

 40
1.0
 41
2.5
 42
1.0
 43
10.0
 44
1.0
 45
0.0
 46
0.0
 47
0.1
 48
0.1
140
3.5
141
0.0
142
0.0
143
0.0393701
144
1.0
145
0.0
146
0.71
147
1.5
 71
     0
 72
     0
 73
     0
 74
     1
 75
     0
 76
     0
 77
     1
 78
     8
170
     0
171
     2
172
     0
173
     0
174
     0
175
     0
176
   256
177
   256
178
     2
  0
DIMSTYLE
  2
AM_ISO$6
 70
     0
  3

  4
"
  5

  6

  7

 40
1.0
 41
2.5
 42
1.0
 43
10.0
 44
1.0
 45
0.0
 46
0.0
 47
0.1
 48
0.1
140
3.5
141
0.0
142
0.0
143
0.0393701
144
1.0
145
0.0
146
0.71
147
1.5
 71
     0
 72
     0
 73
     0
 74
     0
 75
     0
 76
     0
 77
     0
 78
     8
170
     0
171
     2
172
     1
173
     0
174
     0
175
     0
176
   256
177
   256
178
     2
  0
DIMSTYLE
  2
AM_ISO$7
 70
     0
  3

  4
"
  5

  6

  7

 40
1.0
 41
2.5
 42
1.0
 43
10.0
 44
1.0
 45
0.0
 46
0.0
 47
0.1
 48
0.1
140
5.0
141
0.0
142
0.0
143
0.0393701
144
1.0
145
0.0
146
0.71
147
1.5
 71
     0
 72
     0
 73
     0
 74
     0
 75
     0
 76
     0
 77
     1
 78
     8
170
     0
171
     2
172
     1
173
     0
174
     0
175
     0
176
   256
177
   256
178
     2
  0
DIMSTYLE
  2
AM_ISO$SF
 70
     0
  3

  4
"
  5

  6

  7

 40
1.0
 41
2.5
 42
1.0
 43
10.0
 44
1.0
 45
0.0
 46
0.0
 47
0.1
 48
0.1
140
3.5
141
0.0
142
0.0
143
0.0393701
144
1.0
145
0.0
146
0.71
147
1.5
 71
     0
 72
     0
 73
     0
 74
     0
 75
     1
 76
     1
 77
     1
 78
     8
170
     0
171
     2
172
     1
173
     0
174
     0
175
     0
176
   256
177
   256
178
     2
  0
DIMSTYLE
  2
AM_ISO$SH
 70
     0
  3

  4
"
  5

  6

  7

 40
1.0
 41
2.5
 42
1.0
 43
10.0
 44
1.0
 45
0.0
 46
0.0
 47
0.1
 48
0.1
140
3.5
141
0.0
142
0.0
143
0.0393701
144
2.0
145
0.0
146
0.71
147
1.5
 71
     0
 72
     0
 73
     0
 74
     0
 75
     1
 76
     1
 77
     1
 78
     8
170
     0
171
     2
172
     1
173
     1
174
     0
175
     0
176
   256
177
   256
178
     2
  0
DIMSTYLE
  2
AM_ANSI
 70
     0
  3

  4
mm
  5

  6

  7

 40
1.0
 41
0.12
 42
0.05
 43
0.5
 44
0.1
 45
0.0
 46
0.0
 47
0.1
 48
0.1
140
0.12
141
0.0
142
0.0
143
25.399999999999999
144
1.0
145
0.0
146
0.71
147
0.06
 71
     0
 72
     0
 73
     1
 74
     1
 75
     0
 76
     0
 77
     0
 78
     7
170
     0
171
     2
172
     0
173
     0
174
     0
175
     0
176
   256
177
   256
178
     2
  0
DIMSTYLE
  2
AM_ANSI$3
 70
     0
  3

  4
mm
  5

  6

  7

 40
1.0
 41
0.12
 42
0.05
 43
0.5
 44
0.1
 45
0.0
 46
0.0
 47
0.1
 48
0.1
140
0.12
141
0.0
142
0.0
143
25.399999999999999
144
1.0
145
0.0
146
0.71
147
0.06
 71
     0
 72
     0
 73
     1
 74
     1
 75
     0
 76
     0
 77
     0
 78
     7
170
     0
171
     2
172
     0
173
     0
174
     0
175
     0
176
   256
177
   256
178
     2
  0
DIMSTYLE
  2
AM_ANSI$4
 70
     0
  3

  4
mm
  5

  6

  7

 40
1.0
 41
0.12
 42
0.05
 43
0.5
 44
0.1
 45
0.0
 46
0.0
 47
0.1
 48
0.1
140
0.12
141
0.0
142
0.0
143
25.399999999999999
144
1.0
145
0.0
146
0.71
147
0.06
 71
     0
 72
     0
 73
     1
 74
     1
 75
     0
 76
     0
 77
     0
 78
     7
170
     0
171
     2
172
     0
173
     0
174
     0
175
     0
176
   256
177
   256
178
     2
  0
DIMSTYLE
  2
AM_ANSI$7
 70
     0
  3

  4
mm
  5

  6

  7

 40
1.0
 41
0.12
 42
0.05
 43
0.5
 44
0.1
 45
0.0
 46
0.0
 47
0.1
 48
0.1
140
0.12
141
0.0
142
0.0
143
25.399999999999999
144
1.0
145
0.0
146
0.71
147
0.06
 71
     0
 72
     0
 73
     1
 74
     1
 75
     0
 76
     0
 77
     0
 78
     7
170
     0
171
     2
172
     0
173
     0
174
     0
175
     0
176
   256
177
   256
178
     2
  0
DIMSTYLE
  2
AM_ANSI$SF
 70
     0
  3

  4
mm
  5

  6

  7

 40
1.0
 41
0.12
 42
0.05
 43
0.5
 44
0.1
 45
0.0
 46
0.0
 47
0.1
 48
0.1
140
0.12
141
0.0
142
0.0
143
25.399999999999999
144
1.0
145
0.0
146
0.71
147
0.06
 71
     0
 72
     0
 73
     1
 74
     1
 75
     1
 76
     1
 77
     0
 78
     7
170
     0
171
     2
172
     0
173
     0
174
     0
175
     0
176
   256
177
   256
178
     2
  0
DIMSTYLE
  2
AM_ANSI$SH
 70
     0
  3

  4
mm
  5

  6
GENAXEH
  7

 40
1.0
 41
0.12
 42
0.05
 43
0.5
 44
0.1
 45
0.0
 46
0.0
 47
0.1
 48
0.1
140
0.12
141
0.0
142
0.0
143
25.399999999999999
144
1.0
145
0.0
146
0.71
147
0.06
 71
     0
 72
     0
 73
     1
 74
     1
 75
     1
 76
     1
 77
     0
 78
     7
170
     0
171
     2
172
     0
173
     1
174
     0
175
     0
176
   256
177
   256
178
     2
  0
ENDTAB
  0
ENDSEC
  0
SECTION
  2
BLOCKS
  0
BLOCK
  8
0
  2
$MODEL_SPACE
 70
     0
 10
0.0
 20
0.0
 30
0.0
  3
$MODEL_SPACE
  1

  0
ENDBLK
  5
5ADB
  8
0
  0
BLOCK
 67
     1
  8
0
  2
$PAPER_SPACE
 70
     0
 10
0.0
 20
0.0
 30
0.0
  3
$PAPER_SPACE
  1

  0
ENDBLK
  5
5AD7
 67
     1
  8
0
  0
BLOCK
  8
0
  2
_OPEN
 70
     0
 10
0.0
 20
0.0
 30
0.0
  3
_OPEN
  1

  0
LINE
  5
3E1A
  8
0
  6
BYBLOCK
 62
     0
 10
-1.0
 20
0.1666666666666666
 30
0.0
 11
0.0
 21
0.0
 31
0.0
  0
LINE
  5
3E1B
  8
0
  6
BYBLOCK
 62
     0
 10
-1.0
 20
-0.1666666666666666
 30
0.0
 11
0.0
 21
0.0
 31
0.0
  0
LINE
  5
3E1C
  8
0
  6
BYBLOCK
 62
     0
 10
0.0
 20
0.0
 30
0.0
 11
-1.0
 21
0.0
 31
0.0
  0
ENDBLK
  5
3E1D
  8
0
  0
BLOCK
  8
0
  2
GENAXEH
 70
     0
 10
0.0
 20
0.0
 30
0.0
  3
GENAXEH
  1

  0
LINE
  5
3E45
  8
0
 10
-1.0
 20
0.0
 30
0.0
 11
1.0
 21
0.0
 31
0.0
  0
ENDBLK
  5
3E46
  8
0
  0
BLOCK
  8
0
  2
_ACMFILLEDHALF
 70
     0
 10
0.0
 20
0.0
 30
0.0
  3
_ACMFILLEDHALF
  1

  0
TRACE
  5
5B8C
  8
241
 62
     0
 10
-0.8
 20
0.0
 30
0.0
 11
-1.0
 21
0.166666666
 31
0.0
 12
0.0
 22
0.0
 32
0.0
 13
0.0
 23
0.0
 33
0.0
  0
LINE
  5
5B8D
  8
241
 62
     0
 10
-1.0
 20
0.0
 30
0.0
 11
-0.8
 21
0.0
 31
0.0
  0
ENDBLK
  5
5B8B
  8
0
  0
ENDSEC
  0
SECTION
  2
ENTITIES
  0
TEXT
  5
51D6
  8
AM_7
 10
16.008344676048971
 20
166.02964326281341
 30
0.0
 40
3.0
  1
 
  7
YOKO
  0
LINE
  5
5749
  8
240
 10
113.4750065260786
 20
62.99588884358527
 30
0.0
 11
113.4750065260786
 21
47.995888843585263
 31
0.0
  0
LINE
  5
574A
  8
240
 10
76.508327522869735
 20
62.99588884358527
 30
0.0
 11
76.508327522869735
 21
47.995888843585263
 31
0.0
  0
LINE
  5
574B
  8
243
 10
57.99166702447426
 20
62.99588884358527
 30
0.0
 11
57.99166702447426
 21
47.995888843585263
 31
0.0
  0
LINE
  5
574C
  8
243
 10
76.991667024474268
 20
62.99588884358527
 30
0.0
 11
76.991667024474268
 21
47.995888843585263
 31
0.0
  0
LINE
  5
574D
  8
243
 10
131.9916670244742
 20
62.99588884358527
 30
0.0
 11
131.9916670244742
 21
47.995888843585263
 31
0.0
  0
LINE
  5
574E
  8
243
 10
112.9916670244742
 20
62.99588884358527
 30
0.0
 11
112.9916670244742
 21
47.995888843585263
 31
0.0
  0
CIRCLE
  5
574F
  8
241
 10
74.991667024474268
 20
148.7940877495472
 30
0.0
 40
2.8999999999999999
  0
CIRCLE
  5
5750
  8
241
 10
114.9916670244742
 20
148.7940877495472
 30
0.0
 40
2.8999999999999999
  0
LINE
  5
5751
  8
241
 10
211.01927606398431
 20
81.79588884358526
 30
0.0
 11
211.21927606398421
 21
81.995888843585263
 31
0.0
1001
GENIUS_GENFIL_13
1070
     0
1040
0.2
1040
0.2
1040
0.2000000000001023
1040
45.000000000002039
1000
~T
  0
LINE
  5
5752
  8
241
 10
238.8192760639844
 20
81.995888843585263
 30
0.0
 11
239.01927606398431
 21
81.79588884358526
 31
0.0
1001
GENIUS_GENFIL_13
1070
     0
1040
0.2
1040
0.2
1040
0.2000000000001023
1040
45.000000000002039
1000
~T
  0
LINE
  5
5753
  8
245
 10
72.491667024474268
 20
165.30893253055839
 30
0.0
 11
72.491667024474268
 21
154.1247173400304
 31
0.0
  0
LINE
  5
5754
  8
245
 10
62.491667024474253
 20
165.18111251935139
 30
0.0
 11
62.491667024474253
 21
154.3164461227
 31
0.0
  0
LINE
  5
5755
  8
245
 10
127.4916670244742
 20
165.18758353340391
 30
0.0
 11
127.4916670244742
 21
154.3759605284846
 31
0.0
  0
LINE
  5
5756
  8
245
 10
117.4916670244742
 20
165.42607475150811
 30
0.0
 11
117.4916670244742
 21
154.3759605284846
 31
0.0
  0
LINE
  5
5757
  8
245
 10
74.991667024474268
 20
152.5741035865486
 30
0.0
 11
74.991667024474268
 21
145.0322490150802
 31
0.0
  0
LINE
  5
5758
  8
245
 10
71.130580562560425
 20
148.7940877495472
 30
0.0
 11
78.67571644965706
 21
148.7940877495472
 31
0.0
  0
LINE
  5
5759
  8
245
 10
111.18407216706569
 20
148.7940877495472
 30
0.0
 11
118.6138804879337
 21
148.7940877495472
 31
0.0
  0
LINE
  5
575A
  8
245
 10
114.9916670244742
 20
153.79769294747669
 30
0.0
 11
114.9916670244742
 21
145.0893510860648
 31
0.0
  0
LINE
  5
575B
  8
241
 10
109.9916670244742
 20
169.7940877495472
 30
0.0
 11
108.9916670244742
 21
170.7940877495472
 31
0.0
1001
GENIUS_GENFIL_13
1070
     0
1040
1.0
1040
1.0
1040
1.0
1040
44.999999999997129
1000
~T
1001
GENIUS_GENOREF_13
1005
5932
  0
LINE
  5
575C
  8
241
 10
109.9916670244742
 20
143.7940877495472
 30
0.0
 11
108.9916670244742
 21
142.7940877495472
 31
0.0
1001
GENIUS_GENFIL_13
1070
     0
1040
1.0
1040
1.0
1040
1.0
1040
44.999999999998771
1000
~T
1001
GENIUS_GENOREF_13
1005
5931
  0
LINE
  5
575D
  8
241
 10
103.9916670244743
 20
143.7940877495472
 30
0.0
 11
104.9916670244743
 21
142.7940877495472
 31
0.0
1001
GENIUS_GENFIL_13
1070
     0
1040
1.0
1040
1.0
1040
0.9999999999999715
1040
45.000000000000803
1002
{
1002
}
1001
GENIUS_GENOREF_13
1005
5930
  0
LINE
  5
575E
  8
241
 10
85.991667024474296
 20
143.7940877495472
 30
0.0
 11
84.991667024474296
 21
142.7940877495472
 31
0.0
1001
GENIUS_GENFIL_13
1070
     0
1040
1.0
1040
1.0
1040
0.9999999999999715
1040
45.000000000000803
1002
{
1002
}
1001
GENIUS_GENOREF_13
1005
592F
  0
LINE
  5
575F
  8
241
 10
79.991667024474268
 20
143.7940877495472
 30
0.0
 11
80.991667024474253
 21
142.7940877495472
 31
0.0
1001
GENIUS_GENFIL_13
1070
     0
1040
1.0
1040
1.0
1040
1.0
1040
44.999999999998771
1000
~T
1001
GENIUS_GENOREF_13
1005
592E
  0
LINE
  5
5760
  8
240
 10
239.01927606398431
 20
89.995888843585263
 30
0.0
 11
238.01927606398431
 21
90.995888843585206
 31
0.0
1001
GENIUS_GENFIL_13
1070
     0
1040
1.0000000000000271
1040
1.0000000000000711
1040
1.0000000000000271
1040
45.00000000000162
1000
~T
1001
GENIUS_GENOREF_13
1005
592D
  0
LINE
  5
5761
  8
240
 10
211.01927606398431
 20
89.995888843585263
 30
0.0
 11
212.01927606398411
 21
90.995888843585206
 31
0.0
1001
GENIUS_GENFIL_13
1070
     0
1040
1.0
1040
1.0
1040
1.0
1040
45.0
1000
~T
1001
GENIUS_GENOREF_13
1005
592C
  0
LINE
  5
5762
  8
240
 10
211.3192760639842
 20
47.995888843585263
 30
0.0
 11
211.01927606398411
 21
48.295888843585281
 31
0.0
1001
GENIUS_GENFIL_13
1070
     0
1040
0.3000000000000256
1040
0.3000000000000398
1040
0.3000000000000256
1040
45.000000000007432
1000
~T
1001
GENIUS_GENOREF_13
1005
592B
  0
LINE
  5
5763
  8
240
 10
238.7192760639843
 20
47.995888843585263
 30
0.0
 11
239.01927606398431
 21
48.295888843585281
 31
0.0
1001
GENIUS_GENFIL_13
1070
     0
1040
0.3000000000000256
1040
0.3000000000000398
1040
0.3000000000000256
1040
44.999999999999332
1000
~T
1001
GENIUS_GENOREF_13
1005
592A
  0
LINE
  5
5764
  8
240
 10
135.6916670244743
 20
47.995888843585263
 30
0.0
 11
135.99166702447431
 21
48.295888843585281
 31
0.0
1001
GENIUS_GENFIL_13
1070
     0
1040
0.3
1040
0.3
1040
0.3000000000000043
1040
45.000000000004768
1000
~T
1001
GENIUS_GENOREF_13
1005
5929
  0
LINE
  5
5765
  8
240
 10
54.291667024474251
 20
47.995888843585263
 30
0.0
 11
53.991667024474232
 21
48.295888843585281
 31
0.0
1001
GENIUS_GENFIL_13
1070
     0
1040
0.2999999999999829
1040
0.3000000000000043
1040
0.2999999999999829
1040
45.000000000002039
1000
~T
1001
GENIUS_GENOREF_13
1005
5928
  0
LINE
  5
5766
  8
241
 10
103.9916670244743
 20
169.7940877495472
 30
0.0
 11
104.9916670244743
 21
170.7940877495472
 31
0.0
1001
GENIUS_GENFIL_13
1070
     0
1040
1.0
1040
1.0
1040
0.9999999999999715
1040
44.999999999999602
1000
~T
1001
GENIUS_GENOREF_13
1005
5927
  0
LINE
  5
5767
  8
241
 10
85.991667024474324
 20
169.7940877495472
 30
0.0
 11
84.991667024474339
 21
170.7940877495472
 31
0.0
1001
GENIUS_GENFIL_13
1070
     0
1040
1.0
1040
1.0
1040
0.9999999999999715
1040
44.999999999999602
1000
~T
1001
GENIUS_GENOREF_13
1005
5926
  0
LINE
  5
5768
  8
240
 10
134.9916670244742
 20
170.7940877495472
 30
0.0
 11
135.9916670244742
 21
169.7940877495472
 31
0.0
1001
GENIUS_GENFIL_13
1070
     0
1040
1.0
1040
1.0
1040
0.9999999999999715
1040
45.00000000000162
1000
~T
1001
GENIUS_GENOREF_13
1005
5925
  0
LINE
  5
5769
  8
241
 10
79.991667024474268
 20
169.7940877495472
 30
0.0
 11
80.991667024474225
 21
170.7940877495472
 31
0.0
1001
GENIUS_GENFIL_13
1070
     0
1040
1.0
1040
1.0
1040
0.9999999999999715
1040
44.999999999999602
1000
~T
1001
GENIUS_GENOREF_13
1005
5924
  0
LINE
  5
576A
  8
240
 10
53.991667024474232
 20
169.7940877495472
 30
0.0
 11
54.991667024474253
 21
170.7940877495472
 31
0.0
1001
GENIUS_GENFIL_13
1070
     0
1040
1.0
1040
1.0
1040
0.9999999999999715
1040
44.999999999999602
1000
~T
1001
GENIUS_GENOREF_13
1005
5923
  0
LINE
  5
576B
  8
240
 10
134.9916670244742
 20
62.99588884358527
 30
0.0
 11
135.9916670244742
 21
61.995888843585277
 31
0.0
1001
GENIUS_GENFIL_13
1070
     0
1040
0.9999999999999715
1040
1.0000000000000131
1040
0.9999999999999715
1040
45.000000000000803
1000
~T
1001
GENIUS_GENOREF_13
1005
5922
  0
LINE
  5
576C
  8
240
 10
53.991667024474232
 20
61.995888843585277
 30
0.0
 11
54.991667024474253
 21
62.99588884358527
 31
0.0
1001
GENIUS_GENFIL_13
1070
     0
1040
0.9999999999999715
1040
1.0000000000000131
1040
0.9999999999999715
1040
45.000000000000803
1000
~T
1001
GENIUS_GENOREF_13
1005
5921
  0
LINE
  5
576D
  8
240
 10
108.9916670244742
 20
90.995888843585206
 30
0.0
 11
109.9916670244742
 21
89.995888843585263
 31
0.0
1001
GENIUS_GENFIL_13
1070
     0
1040
0.9999999999999715
1040
1.0000000000000131
1040
0.9999999999999715
1040
45.0
1000
~T
1001
GENIUS_GENOREF_13
1005
5920
  0
LINE
  5
576E
  8
240
 10
79.991667024474268
 20
89.995888843585263
 30
0.0
 11
80.991667024474225
 21
90.995888843585206
 31
0.0
1001
GENIUS_GENFIL_13
1070
     0
1040
1.0
1040
1.0
1040
0.9999999999999715
1040
45.0
1000
~T
1001
GENIUS_GENOREF_13
1005
591F
  0
LINE
  5
576F
  8
241
 10
219.7192760639843
 20
79.995888843585263
 30
0.0
 11
222.01927606398431
 21
79.995888843585263
 31
0.0
  0
LINE
  5
5770
  8
241
 10
211.21927606398421
 20
81.995888843585263
 30
0.0
 11
238.8192760639844
 21
81.995888843585263
 31
0.0
  0
LINE
  5
5771
  8
241
 10
219.7192760639843
 20
79.995888843585263
 30
0.0
 11
219.7192760639843
 21
81.995888843585263
 31
0.0
  0
LINE
  5
5772
  8
245
 10
228.01927606398431
 20
74.997401335446256
 30
0.0
 11
228.01927606398431
 21
83.735071360323147
 31
0.0
  0
LINE
  5
5773
  8
241
 10
231.51927606398431
 20
77.195888843585266
 30
0.0
 11
231.51927606398431
 21
81.495888843585277
 31
0.0
  0
LINE
  5
5774
  8
241
 10
224.51927606398431
 20
77.195888843585266
 30
0.0
 11
224.51927606398431
 21
81.495888843585277
 31
0.0
  0
LINE
  5
5775
  8
241
 10
224.51927606398431
 20
81.495888843585277
 30
0.0
 11
225.6441973089776
 21
81.495888843585277
 31
0.0
  0
LINE
  5
5776
  8
241
 10
222.01927606398431
 20
79.995888843585263
 30
0.0
 11
222.01927606398431
 21
81.995888843585263
 31
0.0
  0
LINE
  5
5777
  8
241
 10
224.51927606398431
 20
81.495888843585277
 30
0.0
 11
224.01927606398431
 21
81.995888843585263
 31
0.0
  0
LINE
  5
5778
  8
241
 10
231.51927606398431
 20
81.495888843585277
 30
0.0
 11
230.51651230466911
 21
81.495888843585277
 31
0.0
  0
LINE
  5
5779
  8
241
 10
231.51927606398431
 20
81.495888843585277
 30
0.0
 11
232.01927606398431
 21
81.995888843585263
 31
0.0
  0
LINE
  5
577A
  8
241
 10
236.3192760639844
 20
79.995888843585263
 30
0.0
 11
236.3192760639844
 21
81.995888843585263
 31
0.0
  0
LINE
  5
577B
  8
241
 10
234.01927606398431
 20
79.995888843585263
 30
0.0
 11
234.01927606398431
 21
81.995888843585263
 31
0.0
  0
LINE
  5
577C
  8
241
 10
234.01927606398431
 20
79.995888843585263
 30
0.0
 11
236.3192760639844
 21
79.995888843585263
 31
0.0
  0
LINE
  5
577D
  8
250
 62
     3
 10
242.50914944229629
 20
85.589398361464873
 30
0.0
 11
270.63344635961948
 21
85.589398361464873
 31
0.0
1001
ITEMNAME
1000
LNSP2
  0
LINE
  5
577E
  8
240
 10
211.01927606398411
 20
48.295888843585281
 30
0.0
 11
211.01927606398431
 21
89.995888843585263
 31
0.0
  0
LINE
  5
577F
  8
240
 10
238.7192760639843
 20
47.995888843585263
 30
0.0
 11
211.3192760639842
 21
47.995888843585263
 31
0.0
  0
LINE
  5
5780
  8
240
 10
239.01927606398439
 20
89.995888843585263
 30
0.0
 11
239.01927606398431
 21
48.295888843585281
 31
0.0
  0
LINE
  5
5781
  8
240
 10
212.01927606398411
 20
90.995888843585206
 30
0.0
 11
238.01927606398431
 21
90.995888843585206
 31
0.0
  0
LINE
  5
5782
  8
241
 10
105.2916670244698
 20
170.7940877495472
 30
0.0
 11
105.2916670244698
 21
142.7940877495472
 31
0.0
  0
LINE
  5
5783
  8
241
 10
84.691667024473375
 20
170.7940877495472
 30
0.0
 11
84.691667024473375
 21
142.7940877495472
 31
0.0
  0
LINE
  5
5784
  8
241
 10
109.9916670244742
 20
169.7940877495472
 30
0.0
 11
109.9916670244742
 21
143.7940877495472
 31
0.0
  0
LINE
  5
5785
  8
241
 10
79.991667024474268
 20
169.7940877495472
 30
0.0
 11
79.991667024474268
 21
143.7940877495472
 31
0.0
  0
LINE
  5
5786
  8
245
 10
94.991667024474225
 20
142.7940877495472
 30
0.0
 11
94.991667024474225
 21
173.05734286746571
 31
0.0
  0
LINE
  5
5787
  8
241
 10
103.9916670244743
 20
143.7940877495472
 30
0.0
 11
103.9916670244743
 21
169.7940877495472
 31
0.0
  0
LINE
  5
5788
  8
241
 10
85.991667024474296
 20
143.7940877495472
 30
0.0
 11
85.991667024474324
 21
169.7940877495472
 31
0.0
  0
LINE
  5
5789
  8
245
 10
56.425168891720517
 20
159.7940877495472
 30
0.0
 11
133.6443430551748
 21
159.7940877495472
 31
0.0
  0
CIRCLE
  5
578A
  8
241
 10
94.991667024474225
 20
159.7940877495472
 30
0.0
 40
3.4999999999999361
  0
CIRCLE
  5
578B
  8
241
 10
94.991667024474225
 20
159.7940877495472
 30
0.0
 40
8.2999999999999261
  0
CIRCLE
  5
578C
  8
241
 10
94.991667024474225
 20
159.7940877495472
 30
0.0
 40
5.9999999999999432
  0
ARC
  5
578D
  8
241
 10
62.491667024474253
 20
159.7940877495472
 30
0.0
 40
4.5
 50
90.0
 51
270.0
  0
ARC
  5
578E
  8
241
 10
72.491667024474268
 20
159.7940877495472
 30
0.0
 40
4.5
 50
270.0
 51
90.0
  0
ARC
  5
578F
  8
241
 10
117.4916670244742
 20
159.7940877495472
 30
0.0
 40
4.5
 50
90.0
 51
270.0
  0
ARC
  5
5790
  8
241
 10
127.4916670244742
 20
159.7940877495472
 30
0.0
 40
4.5
 50
270.0
 51
90.0
  0
LINE
  5
5791
  8
241
 10
72.491667024474268
 20
155.2940877495472
 30
0.0
 11
62.491667024474253
 21
155.2940877495472
 31
0.0
  0
LINE
  5
5792
  8
241
 10
72.491667024474268
 20
164.2940877495472
 30
0.0
 11
62.491667024474253
 21
164.2940877495472
 31
0.0
  0
LINE
  5
5793
  8
241
 10
127.4916670244742
 20
155.2940877495472
 30
0.0
 11
117.4916670244742
 21
155.2940877495472
 31
0.0
  0
LINE
  5
5794
  8
241
 10
127.4916670244742
 20
164.2940877495472
 30
0.0
 11
117.4916670244742
 21
164.2940877495472
 31
0.0
  0
LINE
  5
5795
  8
240
 10
135.9916670244742
 20
155.7940877495472
 30
0.0
 11
113.4750065260786
 21
142.7940877495472
 31
0.0
  0
LINE
  5
5796
  8
240
 10
53.991667024474232
 20
155.7940877495472
 30
0.0
 11
76.508327522869735
 21
142.7940877495472
 31
0.0
  0
LINE
  5
5797
  8
241
 10
84.991667024474339
 20
170.7940877495472
 30
0.0
 11
80.991667024474225
 21
170.7940877495472
 31
0.0
  0
LINE
  5
5798
  8
240
 10
135.9916670244742
 20
155.7940877495472
 30
0.0
 11
135.9916670244742
 21
169.7940877495472
 31
0.0
  0
LINE
  5
5799
  8
241
 10
80.991667024474253
 20
142.7940877495472
 30
0.0
 11
84.991667024474296
 21
142.7940877495472
 31
0.0
  0
LINE
  5
579A
  8
240
 10
53.991667024474232
 20
169.7940877495472
 30
0.0
 11
53.991667024474232
 21
155.7940877495472
 31
0.0
  0
LINE
  5
579B
  8
240
 10
113.4750065260786
 20
142.7940877495472
 30
0.0
 11
76.508327522869735
 21
142.7940877495472
 31
0.0
  0
LINE
  5
579C
  8
240
 10
54.991667024474253
 20
170.7940877495472
 30
0.0
 11
134.9916670244742
 21
170.7940877495472
 31
0.0
  0
LINE
  5
579D
  8
240
 10
54.991667024474253
 20
62.99588884358527
 30
0.0
 11
79.991667024474268
 21
62.99588884358527
 31
0.0
  0
LINE
  5
579E
  8
240
 10
53.991667024474232
 20
48.295888843585281
 30
0.0
 11
53.991667024474232
 21
61.995888843585277
 31
0.0
  0
LINE
  5
579F
  8
240
 10
134.9916670244742
 20
62.99588884358527
 30
0.0
 11
109.9916670244742
 21
62.99588884358527
 31
0.0
  0
LINE
  5
57A0
  8
240
 10
135.99166702447431
 20
48.295888843585281
 30
0.0
 11
135.9916670244742
 21
61.995888843585277
 31
0.0
  0
LINE
  5
57A1
  8
240
 10
54.291667024474251
 20
47.995888843585263
 30
0.0
 11
135.6916670244743
 21
47.995888843585263
 31
0.0
  0
LINE
  5
57A2
  8
245
 10
94.991667024474225
 20
88.334226992261435
 30
0.0
 11
94.991667024474225
 21
45.360568558296592
 31
0.0
1001
GRPNAME
1000
00000002
  0
CIRCLE
  5
57A3
  8
241
 10
94.991667024474225
 20
69.995888843585277
 30
0.0
 40
7.4590846147115109
1001
GRPNAME
1000
00000002
  0
CIRCLE
  5
57A4
  8
242
 10
94.991667024474225
 20
69.995888843585277
 30
0.0
 40
8.3308125000000182
1001
GRPNAME
1000
00000002
  0
LINE
  5
57A5
  8
245
 10
83.210119001386914
 20
69.995888843585277
 30
0.0
 11
106.77321504756161
 21
69.995888843585277
 31
0.0
1001
GRPNAME
1000
00000002
  0
LINE
  5
57A6
  8
245
 10
209.27825693851361
 20
69.995888843585277
 30
0.0
 11
237.7124747445304
 21
69.995888843585277
 31
0.0
1001
GRPNAME
1000
00000001
  0
LINE
  5
57A7
  8
241
 10
212.15008856398421
 20
77.195888843585266
 30
0.0
 11
232.01927606398431
 21
77.195888843585266
 31
0.0
1001
GRPNAME
1000
00000001
  0
LINE
  5
57A8
  8
241
 10
212.15008856398421
 20
62.795888843585288
 30
0.0
 11
232.01927606398431
 21
62.795888843585288
 31
0.0
1001
GRPNAME
1000
00000001
  0
LINE
  5
57A9
  8
250
 62
     3
 10
224.01927606398431
 20
69.995888843585277
 30
0.0
 11
224.01927606398431
 21
62.071326343585291
 31
0.0
1001
GRPNAME
1000
00000001
  0
LINE
  5
57AA
  8
250
 62
     3
 10
211.01927606398431
 20
61.665076343585298
 30
0.0
 11
224.01927606398431
 21
62.071326343585291
 31
0.0
1001
GRPNAME
1000
00000001
  0
LINE
  5
57AB
  8
241
 10
212.15008856398421
 20
62.795888843585288
 30
0.0
 11
211.01927606398431
 21
61.665076343585298
 31
0.0
1001
GRPNAME
1000
00000001
  0
LINE
  5
57AC
  8
241
 10
212.15008856398421
 20
62.795888843585288
 30
0.0
 11
212.15008856398421
 21
64.706460471474742
 31
0.0
1001
GRPNAME
1000
00000001
  0
LINE
  5
57AD
  8
250
 62
     3
 10
224.01927606398431
 20
62.071326343585291
 30
0.0
 11
226.42067104649999
 21
62.795888843585288
 31
0.0
1001
GRPNAME
1000
00000001
  0
LINE
  5
57AE
  8
250
 62
     3
 10
211.01927606398431
 20
78.326701343585256
 30
0.0
 11
224.01927606398431
 21
77.920451343585256
 31
0.0
1001
GRPNAME
1000
00000001
  0
LINE
  5
57AF
  8
241
 10
212.15008856398421
 20
77.195888843585266
 30
0.0
 11
212.15008856398421
 21
75.285317215695812
 31
0.0
1001
GRPNAME
1000
00000001
  0
LINE
  5
57B0
  8
241
 10
212.15008856398421
 20
77.195888843585266
 30
0.0
 11
211.01927606398431
 21
78.326701343585256
 31
0.0
1001
GRPNAME
1000
00000001
  0
LINE
  5
57B1
  8
250
 62
     3
 10
224.01927606398431
 20
69.995888843585277
 30
0.0
 11
224.01927606398431
 21
77.920451343585256
 31
0.0
1001
GRPNAME
1000
00000001
  0
LINE
  5
57B2
  8
250
 62
     3
 10
224.01927606398431
 20
77.920451343585256
 30
0.0
 11
226.42067104649999
 21
77.195888843585266
 31
0.0
1001
GRPNAME
1000
00000001
  0
LINE
  5
57B3
  8
241
 10
232.01927606398431
 20
69.995888843585277
 30
0.0
 11
232.01927606398431
 21
62.795888843585288
 31
0.0
1001
GRPNAME
1000
00000001
  0
LINE
  5
57B4
  8
241
 10
236.1761980021499
 20
69.995888843585277
 30
0.0
 11
232.01927606398431
 21
62.795888843585288
 31
0.0
1001
GRPNAME
1000
00000001
  0
LINE
  5
57B5
  8
241
 10
232.01927606398431
 20
69.995888843585277
 30
0.0
 11
232.01927606398431
 21
77.195888843585266
 31
0.0
1001
GRPNAME
1000
00000001
  0
LINE
  5
57B6
  8
241
 10
236.1761980021499
 20
69.995888843585277
 30
0.0
 11
232.01927606398431
 21
77.195888843585266
 31
0.0
1001
GRPNAME
1000
00000001
  0
LINE
  5
57B7
  8
240
 10
79.991667024474268
 20
62.99588884358527
 30
0.0
 11
79.991667024474268
 21
89.995888843585263
 31
0.0
  0
LINE
  5
57B8
  8
243
  6
HIDDEN2
 10
91.491667024474225
 20
76.58284134754534
 30
0.0
 11
91.491667024474197
 21
81.495888843586371
 31
0.0
  0
LINE
  5
57B9
  8
243
  6
HIDDEN2
 10
98.491667024474253
 20
76.582841347545383
 30
0.0
 11
98.491667024474197
 21
81.495888843586371
 31
0.0
  0
LINE
  5
57BA
  8
240
 10
109.9916670244742
 20
62.99588884358527
 30
0.0
 11
109.9916670244742
 21
89.995888843585263
 31
0.0
  0
LINE
  5
57BB
  8
240
 10
103.9916670244742
 20
81.995888843585263
 30
0.0
 11
94.991667024474225
 21
81.995888843585263
 31
0.0
  0
LINE
  5
57BE
  8
243
  6
HIDDEN2
 10
96.419160800554295
 20
81.495888843585277
 30
0.0
 11
98.491667024474239
 21
81.495888843585277
 31
0.0
  0
LINE
  5
57C0
  8
240
 10
80.991667024474225
 20
90.995888843585206
 30
0.0
 11
84.691667024473375
 21
90.995888843585305
 31
0.0
  0
LINE
  5
57C4
  8
240
 10
85.991667024474239
 20
86.458863387891043
 30
0.0
 11
85.278491113307709
 21
90.503484967079089
 31
0.0
  0
LINE
  5
57C7
  8
240
 10
85.991667024474239
 20
81.995888843585263
 30
0.0
 11
94.991667024474225
 21
81.995888843585263
 31
0.0
  0
LINE
  5
57CA
  8
240
 10
85.991667024474239
 20
81.995888843585263
 30
0.0
 11
85.991667024474239
 21
86.458863387891043
 31
0.0
  0
LINE
  5
57CC
  8
243
  6
HIDDEN2
 10
86.691667024474256
 20
79.995888843585263
 30
0.0
 11
86.691667024474256
 21
81.995888843585263
 31
0.0
  0
LINE
  5
57CD
  8
243
  6
HIDDEN2
 10
86.691667024474256
 20
79.995888843585263
 30
0.0
 11
88.991667024474253
 21
79.995888843585263
 31
0.0
  0
LINE
  5
57CE
  8
243
  6
HIDDEN2
 10
88.991667024474253
 20
79.995888843585263
 30
0.0
 11
88.991667024474253
 21
81.995888843585263
 31
0.0
  0
LINE
  5
57D2
  8
243
  6
HIDDEN2
 10
91.491667024474225
 20
81.495888843585277
 30
0.0
 11
93.336383260930347
 21
81.495888843585277
 31
0.0
  0
LINE
  5
57D3
  8
243
  6
HIDDEN2
 10
91.491667024474225
 20
81.495888843585277
 30
0.0
 11
90.991667024474239
 21
81.995888843585263
 31
0.0
  0
LINE
  5
57D4
  8
240
 10
84.691667024473375
 20
90.995888843585305
 30
0.0
 11
85.278491113307709
 21
90.503484967079089
 31
0.0
  0
LINE
  5
57D5
  8
240
 10
105.2916670244698
 20
90.995888843585206
 30
0.0
 11
108.9916670244742
 21
90.995888843585206
 31
0.0
  0
LINE
  5
57D6
  8
240
 10
103.9916670244742
 20
86.458863387891043
 30
0.0
 11
104.7048429356408
 21
90.503484967079089
 31
0.0
  0
LINE
  5
57D7
  8
240
 10
103.9916670244742
 20
81.995888843585263
 30
0.0
 11
103.9916670244742
 21
86.458863387891043
 31
0.0
  0
LINE
  5
57D8
  8
243
  6
HIDDEN2
 10
103.29166702447419
 20
79.995888843585263
 30
0.0
 11
100.9916670244742
 21
79.995888843585263
 31
0.0
  0
LINE
  5
57DA
  8
243
  6
HIDDEN2
 10
98.491667024474239
 20
81.495888843585277
 30
0.0
 11
98.991667024474225
 21
81.995888843585263
 31
0.0
  0
LINE
  5
57DB
  8
243
  6
HIDDEN2
 10
100.9916670244742
 20
79.995888843585263
 30
0.0
 11
100.9916670244742
 21
81.995888843585263
 31
0.0
  0
LINE
  5
57DC
  8
243
  6
HIDDEN2
 10
103.29166702447419
 20
79.995888843585263
 30
0.0
 11
103.29166702447419
 21
81.995888843585263
 31
0.0
  0
LINE
  5
57DD
  8
240
 10
105.2916670244698
 20
90.995888843585206
 30
0.0
 11
104.7048429356408
 21
90.503484967079089
 31
0.0
  0
LINE
  5
57DE
  8
250
 62
     3
 10
104.4916670244742
 20
81.995888843585263
 30
0.0
 11
136.05643155502111
 21
81.995888843585263
 31
0.0
  0
LINE
  5
57DF
  8
250
 62
     3
 10
116.9916670244742
 20
90.995888843585305
 30
0.0
 11
136.05643155502111
 21
90.995888843585305
 31
0.0
  0
LINE
  5
57E0
  8
250
 62
     3
 10
135.05643155502111
 20
84.225888843585267
 30
0.0
 11
135.05643155502111
 21
88.765888843585287
 31
0.0
  0
TEXT
  5
57E1
  8
250
 62
     3
 10
134.05643155502099
 20
81.543031700728164
 30
0.0
 40
3.0
  1
9
 50
90.0
  0
TEXT
  5
57E2
  8
250
 62
     3
 10
134.03354456097
 20
83.896851432735929
 30
0.0
 40
2.1000000000000001
  1
\U+00B10.1
 50
90.0
  0
LINE
  5
57E5
  8
250
 62
     3
 10
211.01927606398411
 20
79.887804856342626
 30
0.0
 11
213.12736005122679
 21
81.995888843585263
 31
0.0
  0
LINE
  5
57E7
  8
250
 62
     3
 10
213.85954229213181
 20
78.237943023955623
 30
0.0
 11
217.61748811176139
 21
81.995888843585263
 31
0.0
  0
LINE
  5
57E8
  8
250
 62
     3
 10
218.21360586598351
 20
78.101878537272768
 30
0.0
 11
222.10761617229591
 21
81.995888843585263
 31
0.0
  0
LINE
  5
57EA
  8
250
 62
     3
 10
222.56766943983521
 20
77.965814050589927
 30
0.0
 11
224.51927606398419
 21
79.917420674738992
 31
0.0
  0
LINE
  5
57EB
  8
250
 62
     3
 10
236.31927606398429
 20
81.717420674739046
 30
0.0
 11
236.59774423283051
 21
81.995888843585263
 31
0.0
  0
LINE
  5
57EE
  8
250
 62
     3
 10
211.01927606398431
 20
57.437164553669852
 30
0.0
 11
215.38357210518731
 21
61.801460594872893
 31
0.0
  0
LINE
  5
57EF
  8
250
 62
     3
 10
231.51927606398411
 20
77.937164553669845
 30
0.0
 11
234.01927606398431
 21
80.437164553669987
 31
0.0
  0
LINE
  5
57F0
  8
250
 62
     3
 10
211.01927606398411
 20
52.947036493135222
 30
0.0
 11
220.01854300638431
 21
61.946303435535299
 31
0.0
  0
LINE
  5
57F1
  8
250
 62
     3
 10
233.20843855739389
 20
75.136198986544812
 30
0.0
 11
239.01927606398431
 21
80.947036493135343
 31
0.0
  0
LINE
  5
57F2
  8
250
 62
     3
 10
211.01927606398411
 20
48.456908432600642
 30
0.0
 11
217.08321233240181
 21
54.520844701018262
 31
0.0
  0
LINE
  5
57F3
  8
250
 62
     3
 10
234.8519394937949
 20
72.28957186241135
 30
0.0
 11
239.01927606398431
 21
76.456908432600741
 31
0.0
  0
LINE
  5
57F4
  8
250
 62
     3
 10
215.0483845355034
 20
47.995888843585263
 30
0.0
 11
219.8369058170841
 21
52.784410125166019
 31
0.0
  0
LINE
  5
57F5
  8
250
 62
     3
 10
234.98476904075019
 20
67.932273348832013
 30
0.0
 11
239.01927606398431
 21
71.966780372066182
 31
0.0
  0
LINE
  5
57F6
  8
250
 62
     3
 10
219.538512596038
 20
47.995888843585291
 30
0.0
 11
239.01927606398431
 21
67.476652311531595
 31
0.0
  0
LINE
  5
57F7
  8
250
 62
     3
 10
224.02864065657261
 20
47.995888843585263
 30
0.0
 11
239.01927606398431
 21
62.986524250997
 31
0.0
  0
LINE
  5
57F8
  8
250
 62
     3
 10
228.51876871710721
 20
47.995888843585291
 30
0.0
 11
239.01927606398431
 21
58.49639619046242
 31
0.0
  0
LINE
  5
57F9
  8
250
 62
     3
 10
233.00889677764181
 20
47.995888843585291
 30
0.0
 11
239.01927606398431
 21
54.006268129927847
 31
0.0
  0
LINE
  5
57FA
  8
250
 62
     3
 10
237.4990248381763
 20
47.995888843585291
 30
0.0
 11
239.01927606398431
 21
49.516140069393273
 31
0.0
  0
LINE
  5
57FB
  8
250
 62
     3
 10
221.74891852869371
 20
59.186550897310177
 30
0.0
 11
224.89918512108491
 21
62.336817489701389
 31
0.0
  0
LINE
  5
57FC
  8
250
 62
     3
 10
224.64113321140439
 20
57.58863751948634
 30
0.0
 11
229.84838453550341
 21
62.795888843585288
 31
0.0
  0
LINE
  5
57FD
  8
250
 62
     3
 10
79.991667024474268
 20
143.2940877495472
 30
0.0
 11
79.991667024474268
 21
136.49905914989969
 31
0.0
  0
LINE
  5
57FE
  8
250
 62
     3
 10
109.9916670244742
 20
143.2940877495472
 30
0.0
 11
109.9916670244742
 21
136.49905914989969
 31
0.0
  0
LINE
  5
57FF
  8
250
 62
     3
 10
82.221667024474272
 20
137.49905914989969
 30
0.0
 11
107.76166702447421
 21
137.49905914989969
 31
0.0
  0
LINE
  5
5800
  8
250
 62
     3
 10
134.68476488835441
 20
88.765888843585287
 30
0.0
 11
135.05643155502111
 21
90.995888843585305
 31
0.0
  0
LINE
  5
5801
  8
250
 62
     3
 10
135.42809822168769
 20
88.765888843585287
 30
0.0
 11
135.05643155502111
 21
90.995888843585305
 31
0.0
  0
LINE
  5
5802
  8
250
 62
     3
 10
135.05643155502111
 20
90.995888843585305
 30
0.0
 11
135.05643155502111
 21
88.765888843585287
 31
0.0
  0
LINE
  5
5803
  8
250
 62
     3
 10
135.42809822168769
 20
84.225888843585267
 30
0.0
 11
135.05643155502111
 21
81.995888843585263
 31
0.0
  0
LINE
  5
5804
  8
250
 62
     3
 10
134.68476488835441
 20
84.225888843585267
 30
0.0
 11
135.05643155502111
 21
81.995888843585263
 31
0.0
  0
LINE
  5
5805
  8
250
 62
     3
 10
135.05643155502111
 20
81.995888843585263
 30
0.0
 11
135.05643155502111
 21
84.225888843585267
 31
0.0
  0
LINE
  5
5806
  8
250
 62
     3
 10
104.8784911133077
 20
91.488292720091209
 30
0.0
 11
108.26576053307549
 21
110.6984521985665
 31
0.0
  0
LINE
  5
5807
  8
250
 62
     3
 10
104.7916670244751
 20
110.49588884358531
 30
0.0
 11
104.7916670244759
 21
111.0023959965982
 31
0.0
  0
ARC
  5
5808
  8
250
 62
     3
 10
104.79166702447419
 20
90.995888843585135
 30
0.0
 40
19.006507153013111
 50
86.726274694770368
 51
89.999999999999545
  0
LINE
  5
5809
  8
250
 62
     3
 10
85.1916670244659
 20
110.49588884358531
 30
0.0
 11
85.191667024457374
 21
110.9971478076512
 31
0.0
  0
LINE
  5
580A
  8
250
 62
     3
 10
85.104842935640761
 20
91.488292720091394
 30
0.0
 11
81.718484854319769
 21
110.6932837414024
 31
0.0
  0
ARC
  5
580B
  8
250
 62
     3
 10
85.191667024474228
 20
90.995888843585305
 30
0.0
 40
19.00125896406599
 50
89.999999999999687
 51
93.27186535607909
  0
LINE
  5
580C
  8
250
 62
     3
 10
85.191667024474228
 20
91.495888843585206
 30
0.0
 11
85.191667024474228
 21
110.99588884358521
 31
0.0
  0
LINE
  5
580D
  8
250
 62
     3
 10
104.79166702447419
 20
91.495888843585206
 30
0.0
 11
104.79166702447419
 21
110.99588884358521
 31
0.0
  0
LINE
  5
580E
  8
250
 62
     3
 10
87.421667024474246
 20
109.99588884358521
 30
0.0
 11
102.5616670244742
 21
109.99588884358521
 31
0.0
  0
LINE
  5
580F
  8
250
 62
     3
 10
85.991667024474239
 20
86.958863387891043
 30
0.0
 11
85.991667024474239
 21
103.99588884358521
 31
0.0
  0
LINE
  5
5810
  8
250
 62
     3
 10
103.9916670244742
 20
86.958863387891043
 30
0.0
 11
103.9916670244742
 21
103.99588884358521
 31
0.0
  0
LINE
  5
5811
  8
250
 62
     3
 10
88.221667024474229
 20
102.99588884358531
 30
0.0
 11
101.76166702447421
 21
102.99588884358531
 31
0.0
  0
TEXT
  5
5812
  8
250
 62
     3
 10
242.4122478996766
 20
87.589398361464859
 30
0.0
 40
3.0
  1
O-ring(P12)
  7
YOKO
1001
ITEMNAME
1000
LNSP3
  0
LINE
  5
5813
  8
250
 62
     3
 10
224.51927606398431
 20
81.995888843585263
 30
0.0
 11
224.51927606398431
 21
95.172193510790592
 31
0.0
  0
LINE
  5
5814
  8
250
 62
     3
 10
231.51927606398431
 20
81.995888843585263
 30
0.0
 11
231.51927606398431
 21
95.172193510790592
 31
0.0
  0
LINE
  5
5815
  8
250
 62
     3
 10
226.7492760639843
 20
94.172193510790606
 30
0.0
 11
229.28927606398429
 21
94.172193510790606
 31
0.0
  0
LINE
  5
5816
  8
250
 62
     3
 10
219.7192760639843
 20
82.495888843585263
 30
0.0
 11
219.7192760639843
 21
109.17219351079061
 31
0.0
  0
LINE
  5
5817
  8
250
 62
     3
 10
236.3192760639844
 20
82.495888843585263
 30
0.0
 11
236.3192760639844
 21
109.17219351079061
 31
0.0
  0
LINE
  5
5818
  8
250
 62
     3
 10
221.94927606398431
 20
108.17219351079061
 30
0.0
 11
234.08927606398441
 21
108.17219351079061
 31
0.0
  0
LINE
  5
5819
  8
250
 62
     3
 10
222.01927606398431
 20
82.495888843585263
 30
0.0
 11
222.01927606398431
 21
102.17219351079061
 31
0.0
  0
LINE
  5
581A
  8
250
 62
     3
 10
234.01927606398431
 20
82.495888843585263
 30
0.0
 11
234.01927606398431
 21
102.17219351079061
 31
0.0
  0
LINE
  5
581B
  8
250
 62
     3
 10
224.2492760639843
 20
101.17219351079061
 30
0.0
 11
231.78927606398429
 21
101.17219351079061
 31
0.0
  0
LINE
  5
581C
  8
250
 62
     3
 10
219.7192760639843
 20
79.995888843585263
 30
0.0
 11
195.71553344847439
 21
79.995888843585263
 31
0.0
  0
LINE
  5
581D
  8
250
 62
     3
 10
210.51927606398411
 20
81.995888843585263
 30
0.0
 11
195.71553344847439
 21
81.995888843585263
 31
0.0
  0
LINE
  5
581E
  8
250
 62
     3
 10
196.71553344847439
 20
77.765888843585259
 30
0.0
 11
196.71553344847439
 21
75.535888843585283
 31
0.0
  0
LINE
  5
581F
  8
250
 62
     3
 10
196.71553344847439
 20
84.225888843585267
 30
0.0
 11
196.71553344847439
 21
86.455888843585242
 31
0.0
  0
LINE
  5
5820
  8
250
 62
     3
 10
196.71553344847439
 20
79.995888843585263
 30
0.0
 11
196.71553344847439
 21
81.995888843585263
 31
0.0
  0
LINE
  5
5821
  8
250
 62
     3
 10
53.791667024474251
 20
47.995888843585263
 30
0.0
 11
40.44148477553081
 21
47.995888843585277
 31
0.0
  0
LINE
  5
5822
  8
250
 62
     3
 10
82.710119001386914
 20
69.995888843585277
 30
0.0
 11
40.44148477553081
 21
69.995888843585277
 31
0.0
  0
LINE
  5
5823
  8
250
 62
     3
 10
41.44148477553081
 20
50.225888843585281
 30
0.0
 11
41.44148477553081
 21
67.765888843585273
 31
0.0
  0
LINE
  5
5824
  8
250
 62
     3
 10
136.19166702447421
 20
47.995888843585263
 30
0.0
 11
143.6916670244743
 21
47.995888843585263
 31
0.0
  0
LINE
  5
5825
  8
250
 62
     3
 10
135.4916670244742
 20
62.99588884358527
 30
0.0
 11
143.6916670244743
 21
62.99588884358527
 31
0.0
  0
LINE
  5
5826
  8
250
 62
     3
 10
142.6916670244743
 20
50.225888843585267
 30
0.0
 11
142.6916670244743
 21
60.76588884358528
 31
0.0
  0
LINE
  5
5827
  8
250
 62
     3
 10
136.19166702447421
 20
47.995888843585263
 30
0.0
 11
150.68421264455259
 21
47.995888843585263
 31
0.0
  0
LINE
  5
5828
  8
250
 62
     3
 10
109.3849239860033
 20
90.995888843585206
 30
0.0
 11
150.6842126445527
 21
90.995888843585206
 31
0.0
  0
LINE
  5
5829
  8
250
 62
     3
 10
149.68421264455259
 20
50.22588884358526
 30
0.0
 11
149.6842126445527
 21
88.765888843585245
 31
0.0
  0
LINE
  5
582A
  8
250
 62
     3
 10
135.4916670244742
 20
62.99588884358527
 30
0.0
 11
143.69166702447421
 21
62.99588884358527
 31
0.0
  0
LINE
  5
582B
  8
250
 62
     3
 10
109.3849239860033
 20
90.995888843585206
 30
0.0
 11
143.6916670244743
 21
90.995888843585206
 31
0.0
  0
LINE
  5
582C
  8
250
 62
     3
 10
142.6916670244743
 20
65.225888843585281
 30
0.0
 11
142.6916670244743
 21
88.765888843585245
 31
0.0
  0
LINE
  5
582D
  8
250
 62
     3
 10
74.991667024474268
 20
144.5322490150802
 30
0.0
 11
74.991667024474268
 21
129.65980962306239
 31
0.0
  0
LINE
  5
582E
  8
250
 62
     3
 10
114.9916670244742
 20
144.5893510860648
 30
0.0
 11
114.9916670244742
 21
129.65980962306239
 31
0.0
  0
LINE
  5
582F
  8
250
 62
     3
 10
77.221667024474272
 20
130.65980962306239
 30
0.0
 11
112.76166702447421
 21
130.65980962306239
 31
0.0
  0
LINE
  5
5830
  8
250
 62
     3
 10
72.491667024474268
 20
166.30893253055839
 30
0.0
 11
72.491667024474268
 21
177.3841098063686
 31
0.0
  0
LINE
  5
5831
  8
250
 62
     3
 10
62.491667024474253
 20
166.18111251935139
 30
0.0
 11
62.491667024474253
 21
177.3841098063686
 31
0.0
  0
LINE
  5
5832
  8
250
 62
     3
 10
70.261667024474249
 20
176.3841098063686
 30
0.0
 11
64.721667024474257
 21
176.3841098063686
 31
0.0
  0
LINE
  5
5833
  8
250
 62
     3
 10
117.4916670244742
 20
166.42607475150811
 30
0.0
 11
117.4916670244742
 21
177.3841098063686
 31
0.0
  0
LINE
  5
5834
  8
250
 62
     3
 10
127.4916670244742
 20
166.18758353340391
 30
0.0
 11
127.4916670244742
 21
177.3841098063686
 31
0.0
  0
LINE
  5
5835
  8
250
 62
     3
 10
119.7216670244742
 20
176.3841098063686
 30
0.0
 11
125.26166702447421
 21
176.3841098063686
 31
0.0
  0
LINE
  5
5836
  8
250
 62
     3
 10
72.491667024474268
 20
166.30893253055839
 30
0.0
 11
72.491667024474268
 21
177.3841098063686
 31
0.0
  0
LINE
  5
5837
  8
250
 62
     3
 10
117.4916670244742
 20
166.42607475150811
 30
0.0
 11
117.4916670244742
 21
177.3841098063686
 31
0.0
  0
LINE
  5
5838
  8
250
 62
     3
 10
74.721667024474272
 20
176.3841098063686
 30
0.0
 11
115.26166702447421
 21
176.3841098063686
 31
0.0
  0
LINE
  5
5839
  8
250
 62
     3
 10
135.9916670244742
 20
170.2940877495472
 30
0.0
 11
135.9916670244742
 21
184.3841098063684
 31
0.0
  0
LINE
  5
583A
  8
250
 62
     3
 10
53.991667024474232
 20
170.2940877495472
 30
0.0
 11
53.991667024474232
 21
184.3841098063684
 31
0.0
  0
LINE
  5
583B
  8
250
 62
     3
 10
133.76166702447421
 20
183.3841098063684
 30
0.0
 11
56.221667024474222
 21
183.3841098063684
 31
0.0
  0
LINE
  5
583C
  8
250
 62
     3
 10
113.9750065260786
 20
142.7940877495474
 30
0.0
 11
133.1947340327651
 21
142.7940877495474
 31
0.0
  0
ARC
  5
583D
  8
250
 62
     3
 10
113.4750065260786
 20
142.7940877495474
 30
0.0
 40
18.719727506686478
 50
6.8294401093761881
 51
23.170559890623441
  0
LINE
  5
583E
  8
250
 62
     3
 10
54.491667024474239
 20
170.7940877495472
 30
0.0
 11
41.425167891720548
 21
170.7940877495472
 31
0.0
  0
LINE
  5
583F
  8
250
 62
     3
 10
53.491667024474239
 20
155.7940877495472
 30
0.0
 11
41.425167891720548
 21
155.7940877495472
 31
0.0
  0
LINE
  5
5840
  8
250
 62
     3
 10
42.425167891720541
 20
168.5640877495473
 30
0.0
 11
42.425167891720541
 21
158.02408774954731
 31
0.0
  0
LINE
  5
5841
  8
250
 62
     3
 10
54.491667024474239
 20
170.7940877495472
 30
0.0
 11
48.425167891720541
 21
170.7940877495472
 31
0.0
  0
LINE
  5
5842
  8
250
 62
     3
 10
55.925168891720531
 20
159.7940877495472
 30
0.0
 11
48.425167891720541
 21
159.7940877495472
 31
0.0
  0
LINE
  5
5843
  8
250
 62
     3
 10
49.425167891720541
 20
168.5640877495473
 30
0.0
 11
49.425167891720541
 21
162.02408774954731
 31
0.0
  0
LINE
  5
5844
  8
250
 62
     3
 10
54.491667024474239
 20
170.7940877495472
 30
0.0
 11
34.425167891720562
 21
170.7940877495472
 31
0.0
  0
LINE
  5
5845
  8
250
 62
     3
 10
76.008327522869735
 20
142.7940877495472
 30
0.0
 11
34.425167891720562
 21
142.7940877495474
 31
0.0
  0
LINE
  5
5846
  8
250
 62
     3
 10
35.425167891720569
 20
168.5640877495473
 30
0.0
 11
35.425167891720569
 21
145.02408774954731
 31
0.0
  0
LINE
  5
5847
  8
250
 62
     3
 10
211.01927606398411
 20
54.091554313396131
 30
0.0
 11
211.01927606398411
 21
54.591554313396131
 31
0.0
  0
LINE
  5
5848
  8
250
 62
     3
 10
232.01927606398431
 20
62.295888843585288
 30
0.0
 11
232.01927606398431
 21
52.591554313396138
 31
0.0
  0
LINE
  5
5849
  8
250
 62
     3
 10
213.24927606398421
 20
53.591554313396152
 30
0.0
 11
229.78927606398429
 21
53.591554313396152
 31
0.0
  0
LINE
  5
584A
  8
250
 62
     3
 10
127.9916670244742
 20
164.2940877495472
 30
0.0
 11
141.64434405517491
 21
164.2940877495472
 31
0.0
  0
LINE
  5
584B
  8
250
 62
     3
 10
127.9916670244742
 20
155.2940877495472
 30
0.0
 11
141.64434405517491
 21
155.2940877495472
 31
0.0
  0
LINE
  5
584C
  8
250
 62
     3
 10
140.64434405517491
 20
162.0640877495473
 30
0.0
 11
140.64434405517491
 21
157.52408774954731
 31
0.0
  0
LINE
  5
584D
  8
250
 62
     3
 10
70.630580562560425
 20
148.7940877495472
 30
0.0
 11
48.425167891720569
 21
148.7940877495472
 31
0.0
  0
LINE
  5
584E
  8
250
 62
     3
 10
76.008327522869735
 20
142.7940877495472
 30
0.0
 11
48.425167891720562
 21
142.7940877495474
 31
0.0
  0
LINE
  5
584F
  8
250
 62
     3
 10
49.425167891720562
 20
151.02408774954731
 30
0.0
 11
49.425167891720562
 21
153.2540877495473
 31
0.0
  0
LINE
  5
5850
  8
250
 62
     3
 10
49.425167891720562
 20
140.56408774954741
 30
0.0
 11
49.425167891720562
 21
138.33408774954731
 31
0.0
  0
LINE
  5
5851
  8
250
 62
     3
 10
49.425167891720562
 20
148.7940877495472
 30
0.0
 11
49.425167891720562
 21
142.7940877495474
 31
0.0
  0
LINE
  5
5852
  8
250
 62
     3
 10
191.88863538850109
 20
64.261192109287805
 30
0.0
 11
205.3058991093946
 21
64.261192109287805
 31
0.0
  0
LINE
  5
5853
  8
250
 62
     3
 10
205.3058991093946
 20
64.261192109287805
 30
0.0
 11
209.44242794193821
 21
68.397720941831452
 31
0.0
  0
LINE
  5
5854
  8
250
 62
     3
 10
209.44242794193821
 20
68.397720941831452
 30
0.0
 11
211.01927606398411
 21
69.974569063877453
 31
0.0
  0
LINE
  5
5855
  8
250
 62
     3
 10
209.2348319492811
 20
68.60531693448857
 30
0.0
 11
211.01927606398411
 21
69.974569063877453
 31
0.0
  0
LINE
  5
5856
  8
250
 62
     3
 10
211.01927606398411
 20
69.974569063877453
 30
0.0
 11
209.65002393459531
 21
68.190124949174333
 31
0.0
  0
TEXT
  5
5857
  8
250
 62
     3
 10
92.134524167331406
 20
138.49905914989969
 30
0.0
 40
3.0
  1
30
  0
LINE
  5
5858
  8
250
 62
     3
 10
107.76166702447421
 20
137.87072581656639
 30
0.0
 11
109.9916670244742
 21
137.49905914989969
 31
0.0
  0
LINE
  5
5859
  8
250
 62
     3
 10
107.76166702447421
 20
137.127392483233
 30
0.0
 11
109.9916670244742
 21
137.49905914989969
 31
0.0
  0
LINE
  5
585A
  8
250
 62
     3
 10
109.9916670244742
 20
137.49905914989969
 30
0.0
 11
107.76166702447421
 21
137.49905914989969
 31
0.0
  0
LINE
  5
585B
  8
250
 62
     3
 10
82.221667024474272
 20
137.127392483233
 30
0.0
 11
79.991667024474268
 21
137.49905914989969
 31
0.0
  0
LINE
  5
585C
  8
250
 62
     3
 10
82.221667024474272
 20
137.87072581656639
 30
0.0
 11
79.991667024474268
 21
137.49905914989969
 31
0.0
  0
LINE
  5
585D
  8
250
 62
     3
 10
79.991667024474268
 20
137.49905914989969
 30
0.0
 11
82.221667024474272
 21
137.49905914989969
 31
0.0
  0
TEXT
  5
585E
  8
250
 62
     3
 10
110.05226834990241
 20
110.6391271285965
 30
0.0
 40
3.0
  1
10\U+00B0
 50
334.68802169150263
  0
LINE
  5
585F
  8
250
 62
     3
 10
105.8770564498422
 20
109.97137945523571
 30
0.0
 11
112.52222416654141
 21
109.1981744261919
 31
0.0
  0
LINE
  5
5860
  8
250
 62
     3
 10
108.0921123554086
 20
109.71364444555439
 30
0.0
 11
110.318271799318
 21
109.84446543122959
 31
0.0
  0
LINE
  5
5861
  8
250
 62
     3
 10
108.0921123554086
 20
109.71364444555439
 30
0.0
 11
110.2287613698137
 21
109.0751845883657
 31
0.0
  0
TEXT
  5
5862
  8
250
 62
     3
 10
77.003283822889983
 20
109.60425118031191
 30
0.0
 40
3.0
  1
10\U+00B0
 50
13.429093046377609
  0
LINE
  5
5863
  8
250
 62
     3
 10
84.107193120588775
 20
109.966175045203
 30
0.0
 11
77.462012854782614
 21
109.1930778747644
 31
0.0
  0
LINE
  5
5864
  8
250
 62
     3
 10
81.892133031986731
 20
109.70847598839021
 30
0.0
 11
79.755473654945561
 21
109.0700508114884
 31
0.0
  0
LINE
  5
5865
  8
250
 62
     3
 10
81.892133031986731
 20
109.70847598839021
 30
0.0
 11
79.665975711741453
 21
109.8393331071054
 31
0.0
  0
TEXT
  5
5866
  8
250
 62
     3
 10
84.913095595902817
 20
110.99588884358521
 30
0.0
 40
3.0
  1
19.6
  0
TEXT
  5
5867
  8
250
 62
     3
 10
94.913095595902803
 20
110.99588884358521
 30
0.0
 40
2.1000000000000001
  1
\U+00B10.02
  0
LINE
  5
5868
  8
250
 62
     3
 10
102.5616670244742
 20
110.3675555102519
 30
0.0
 11
104.79166702447419
 21
109.99588884358521
 31
0.0
  0
LINE
  5
5869
  8
250
 62
     3
 10
102.5616670244742
 20
109.62422217691859
 30
0.0
 11
104.79166702447419
 21
109.99588884358521
 31
0.0
  0
LINE
  5
586A
  8
250
 62
     3
 10
104.79166702447419
 20
109.99588884358521
 30
0.0
 11
102.5616670244742
 21
109.99588884358521
 31
0.0
  0
LINE
  5
586B
  8
250
 62
     3
 10
87.421667024474246
 20
109.62422217691859
 30
0.0
 11
85.191667024474228
 21
109.99588884358521
 31
0.0
  0
LINE
  5
586C
  8
250
 62
     3
 10
87.421667024474246
 20
110.3675555102519
 30
0.0
 11
85.191667024474228
 21
109.99588884358521
 31
0.0
  0
LINE
  5
586D
  8
250
 62
     3
 10
85.191667024474228
 20
109.99588884358521
 30
0.0
 11
87.421667024474246
 21
109.99588884358521
 31
0.0
  0
TEXT
  5
586E
  8
250
 62
     3
 10
86.425952738759932
 20
103.99588884358521
 30
0.0
 40
3.0
  1
18
  0
TEXT
  5
586F
  8
250
 62
     3
 10
92.140238453045697
 20
106.7958888435852
 30
0.0
 40
2.1000000000000001
  1
 +0.03
  0
TEXT
  5
5870
  8
250
 62
     3
 10
92.140238453045697
 20
103.99588884358521
 30
0.0
 40
2.1000000000000001
  1
 +0.01
  0
LINE
  5
5871
  8
250
 62
     3
 10
101.76166702447421
 20
103.3675555102519
 30
0.0
 11
103.9916670244742
 21
102.99588884358531
 31
0.0
  0
LINE
  5
5872
  8
250
 62
     3
 10
101.76166702447421
 20
102.62422217691859
 30
0.0
 11
103.9916670244742
 21
102.99588884358531
 31
0.0
  0
LINE
  5
5873
  8
250
 62
     3
 10
103.9916670244742
 20
102.99588884358531
 30
0.0
 11
101.76166702447421
 21
102.99588884358531
 31
0.0
  0
LINE
  5
5874
  8
250
 62
     3
 10
88.221667024474229
 20
102.62422217691859
 30
0.0
 11
85.991667024474239
 21
102.99588884358531
 31
0.0
  0
LINE
  5
5875
  8
250
 62
     3
 10
88.221667024474229
 20
103.3675555102519
 30
0.0
 11
85.991667024474239
 21
102.99588884358531
 31
0.0
  0
LINE
  5
5876
  8
250
 62
     3
 10
85.991667024474239
 20
102.99588884358531
 30
0.0
 11
88.221667024474229
 21
102.99588884358531
 31
0.0
  0
LINE
  5
5877
  8
250
 62
     3
 10
237.6696012107578
 20
81.897355176947187
 30
0.0
 11
242.50914944229629
 21
85.589398361464873
 31
0.0
1001
ACAD
1000
DSTYLE
1002
{
1070
    78
1070
     8
1070
   140
1040
3.0
1070
   289
1070
     0
1002
}
  0
LINE
  5
5878
  8
250
 62
     3
 10
237.8950314409671
 20
81.601860130594645
 30
0.0
 11
235.89663093264249
 21
80.544773795691398
 31
0.0
  0
LINE
  5
5879
  8
250
 62
     3
 10
237.44417098054851
 20
82.1928502232997
 30
0.0
 11
235.89663093264249
 21
80.544773795691398
 31
0.0
  0
LINE
  5
587A
  8
250
 62
     3
 10
235.89663093264249
 20
80.544773795691398
 30
0.0
 11
237.6696012107578
 21
81.897355176947187
 31
0.0
  0
LINE
  5
587B
  8
250
 62
     3
 10
229.28927606398429
 20
94.543860177457276
 30
0.0
 11
231.51927606398431
 21
94.172193510790606
 31
0.0
  0
LINE
  5
587C
  8
250
 62
     3
 10
229.28927606398429
 20
93.800526844123993
 30
0.0
 11
231.51927606398431
 21
94.172193510790606
 31
0.0
  0
LINE
  5
587D
  8
250
 62
     3
 10
231.51927606398431
 20
94.172193510790606
 30
0.0
 11
229.28927606398429
 21
94.172193510790606
 31
0.0
  0
LINE
  5
587E
  8
250
 62
     3
 10
226.7492760639843
 20
93.800526844123993
 30
0.0
 11
224.51927606398431
 21
94.172193510790606
 31
0.0
  0
LINE
  5
587F
  8
250
 62
     3
 10
226.7492760639843
 20
94.543860177457276
 30
0.0
 11
224.51927606398431
 21
94.172193510790606
 31
0.0
  0
LINE
  5
5880
  8
250
 62
     3
 10
224.51927606398431
 20
94.172193510790606
 30
0.0
 11
226.7492760639843
 21
94.172193510790606
 31
0.0
  0
TEXT
  5
5881
  8
250
 62
     3
 10
225.7301770659034
 20
95.333160581992317
 30
0.0
 40
3.0
  1
\U+22057
  0
TEXT
  5
5882
  8
250
 62
     3
 10
217.16784749255581
 20
109.17219351079061
 30
0.0
 40
3.0
  1
\U+220516.6
  0
TEXT
  5
5883
  8
250
 62
     3
 10
229.8821332068415
 20
111.9721935107906
 30
0.0
 40
2.1000000000000001
  1
 0
  0
TEXT
  5
5884
  8
250
 62
     3
 10
229.8821332068415
 20
109.17219351079061
 30
0.0
 40
2.1000000000000001
  1
 -0.1
  0
LINE
  5
5885
  8
250
 62
     3
 10
234.08927606398441
 20
108.5438601774573
 30
0.0
 11
236.3192760639844
 21
108.17219351079061
 31
0.0
  0
LINE
  5
5886
  8
250
 62
     3
 10
234.08927606398441
 20
107.80052684412399
 30
0.0
 11
236.3192760639844
 21
108.17219351079061
 31
0.0
  0
LINE
  5
5887
  8
250
 62
     3
 10
236.3192760639844
 20
108.17219351079061
 30
0.0
 11
234.08927606398441
 21
108.17219351079061
 31
0.0
  0
LINE
  5
5888
  8
250
 62
     3
 10
221.94927606398431
 20
107.80052684412399
 30
0.0
 11
219.7192760639843
 21
108.17219351079061
 31
0.0
  0
LINE
  5
5889
  8
250
 62
     3
 10
221.94927606398431
 20
108.5438601774573
 30
0.0
 11
219.7192760639843
 21
108.17219351079061
 31
0.0
  0
LINE
  5
588A
  8
250
 62
     3
 10
219.7192760639843
 20
108.17219351079061
 30
0.0
 11
221.94927606398431
 21
108.17219351079061
 31
0.0
  0
TEXT
  5
588B
  8
250
 62
     3
 10
219.3107046354128
 20
102.17219351079061
 30
0.0
 40
3.0
  1
\U+220512
  0
TEXT
  5
588C
  8
250
 62
     3
 10
227.73927606398431
 20
104.9721935107906
 30
0.0
 40
2.1000000000000001
  1
 +0.1
  0
TEXT
  5
588D
  8
250
 62
     3
 10
227.73927606398431
 20
102.17219351079061
 30
0.0
 40
2.1000000000000001
  1
 0
  0
LINE
  5
588E
  8
250
 62
     3
 10
231.78927606398429
 20
101.5438601774573
 30
0.0
 11
234.01927606398431
 21
101.17219351079061
 31
0.0
  0
LINE
  5
588F
  8
250
 62
     3
 10
231.78927606398429
 20
100.80052684412399
 30
0.0
 11
234.01927606398431
 21
101.17219351079061
 31
0.0
  0
LINE
  5
5890
  8
250
 62
     3
 10
234.01927606398431
 20
101.17219351079061
 30
0.0
 11
231.78927606398429
 21
101.17219351079061
 31
0.0
  0
LINE
  5
5891
  8
250
 62
     3
 10
224.2492760639843
 20
100.80052684412399
 30
0.0
 11
222.01927606398431
 21
101.17219351079061
 31
0.0
  0
LINE
  5
5892
  8
250
 62
     3
 10
224.2492760639843
 20
101.5438601774573
 30
0.0
 11
222.01927606398431
 21
101.17219351079061
 31
0.0
  0
LINE
  5
5893
  8
250
 62
     3
 10
222.01927606398431
 20
101.17219351079061
 30
0.0
 11
224.2492760639843
 21
101.17219351079061
 31
0.0
  0
TEXT
  5
5894
  8
250
 62
     3
 10
195.71553344847439
 20
75.073031700728123
 30
0.0
 40
3.0
  1
2
 50
90.0
  0
TEXT
  5
5895
  8
250
 62
     3
 10
192.91553344847449
 20
77.930174557871013
 30
0.0
 40
2.1000000000000001
  1
 0
 50
90.0
  0
TEXT
  5
5896
  8
250
 62
     3
 10
195.71553344847439
 20
77.930174557871013
 30
0.0
 40
2.1000000000000001
  1
 -0.1
 50
90.0
  0
LINE
  5
5897
  8
250
 62
     3
 10
197.08720011514109
 20
84.225888843585267
 30
0.0
 11
196.71553344847439
 21
81.995888843585263
 31
0.0
  0
LINE
  5
5898
  8
250
 62
     3
 10
196.3438667818078
 20
84.225888843585267
 30
0.0
 11
196.71553344847439
 21
81.995888843585263
 31
0.0
  0
LINE
  5
5899
  8
250
 62
     3
 10
196.71553344847439
 20
81.995888843585263
 30
0.0
 11
196.71553344847439
 21
84.225888843585267
 31
0.0
  0
LINE
  5
589A
  8
250
 62
     3
 10
196.3438667818078
 20
77.765888843585259
 30
0.0
 11
196.71553344847439
 21
79.995888843585263
 31
0.0
  0
LINE
  5
589B
  8
250
 62
     3
 10
197.08720011514109
 20
77.765888843585259
 30
0.0
 11
196.71553344847439
 21
79.995888843585263
 31
0.0
  0
LINE
  5
589C
  8
250
 62
     3
 10
196.71553344847439
 20
79.995888843585263
 30
0.0
 11
196.71553344847439
 21
77.765888843585259
 31
0.0
  0
TEXT
  5
589D
  8
250
 62
     3
 10
40.44148477553081
 20
56.329222176918627
 30
0.0
 40
2.799999999999998
  1
22
 50
90.0
  0
LINE
  5
589E
  8
250
 62
     3
 10
41.069818108864162
 20
67.765888843585273
 30
0.0
 11
41.44148477553081
 21
69.995888843585277
 31
0.0
  0
LINE
  5
589F
  8
250
 62
     3
 10
41.813151442197487
 20
67.765888843585273
 30
0.0
 11
41.44148477553081
 21
69.995888843585277
 31
0.0
  0
LINE
  5
58A0
  8
250
 62
     3
 10
41.44148477553081
 20
69.995888843585277
 30
0.0
 11
41.44148477553081
 21
67.765888843585273
 31
0.0
  0
LINE
  5
58A1
  8
250
 62
     3
 10
41.813151442197473
 20
50.225888843585281
 30
0.0
 11
41.44148477553081
 21
47.995888843585277
 31
0.0
  0
LINE
  5
58A2
  8
250
 62
     3
 10
41.069818108864148
 20
50.225888843585281
 30
0.0
 11
41.44148477553081
 21
47.995888843585277
 31
0.0
  0
LINE
  5
58A3
  8
250
 62
     3
 10
41.44148477553081
 20
47.995888843585277
 30
0.0
 11
41.44148477553081
 21
50.225888843585281
 31
0.0
  0
TEXT
  5
58A4
  8
250
 62
     3
 10
141.6916670244743
 20
52.629222176918631
 30
0.0
 40
2.799999999999998
  1
15
 50
90.0
  0
LINE
  5
58A5
  8
250
 62
     3
 10
142.3200003578076
 20
60.76588884358528
 30
0.0
 11
142.6916670244743
 21
62.99588884358527
 31
0.0
  0
LINE
  5
58A6
  8
250
 62
     3
 10
143.06333369114091
 20
60.76588884358528
 30
0.0
 11
142.6916670244743
 21
62.99588884358527
 31
0.0
  0
LINE
  5
58A7
  8
250
 62
     3
 10
142.6916670244743
 20
62.99588884358527
 30
0.0
 11
142.6916670244743
 21
60.76588884358528
 31
0.0
  0
LINE
  5
58A8
  8
250
 62
     3
 10
143.06333369114091
 20
50.225888843585267
 30
0.0
 11
142.6916670244743
 21
47.995888843585263
 31
0.0
  0
LINE
  5
58A9
  8
250
 62
     3
 10
142.3200003578076
 20
50.225888843585267
 30
0.0
 11
142.6916670244743
 21
47.995888843585263
 31
0.0
  0
LINE
  5
58AA
  8
250
 62
     3
 10
142.6916670244743
 20
47.995888843585263
 30
0.0
 11
142.6916670244743
 21
50.225888843585267
 31
0.0
  0
TEXT
  5
58AB
  8
250
 62
     3
 10
148.78110888103851
 20
68.294128118717012
 30
0.0
 40
2.799999999999998
  1
43
 50
90.0
  0
LINE
  5
58AC
  8
250
 62
     3
 10
149.312545977886
 20
88.765888843585245
 30
0.0
 11
149.6842126445527
 21
90.995888843585206
 31
0.0
  0
LINE
  5
58AD
  8
250
 62
     3
 10
150.05587931121929
 20
88.765888843585245
 30
0.0
 11
149.6842126445527
 21
90.995888843585206
 31
0.0
  0
LINE
  5
58AE
  8
250
 62
     3
 10
149.6842126445527
 20
90.995888843585206
 30
0.0
 11
149.6842126445527
 21
88.765888843585245
 31
0.0
  0
LINE
  5
58AF
  8
250
 62
     3
 10
150.05587931121929
 20
50.22588884358526
 30
0.0
 11
149.68421264455259
 21
47.995888843585263
 31
0.0
  0
LINE
  5
58B0
  8
250
 62
     3
 10
149.312545977886
 20
50.22588884358526
 30
0.0
 11
149.68421264455259
 21
47.995888843585263
 31
0.0
  0
LINE
  5
58B1
  8
250
 62
     3
 10
149.68421264455259
 20
47.995888843585263
 30
0.0
 11
149.68421264455259
 21
50.22588884358526
 31
0.0
  0
TEXT
  5
58B2
  8
250
 62
     3
 10
141.64341306996241
 20
74.16839653272956
 30
0.0
 40
2.799999999999998
  1
28
 50
90.0
  0
LINE
  5
58B3
  8
250
 62
     3
 10
142.3200003578076
 20
88.765888843585245
 30
0.0
 11
142.6916670244743
 21
90.995888843585206
 31
0.0
  0
LINE
  5
58B4
  8
250
 62
     3
 10
143.06333369114091
 20
88.765888843585245
 30
0.0
 11
142.6916670244743
 21
90.995888843585206
 31
0.0
  0
LINE
  5
58B5
  8
250
 62
     3
 10
142.6916670244743
 20
90.995888843585206
 30
0.0
 11
142.6916670244743
 21
88.765888843585245
 31
0.0
  0
LINE
  5
58B6
  8
250
 62
     3
 10
143.06333369114091
 20
65.225888843585281
 30
0.0
 11
142.6916670244741
 21
62.99588884358527
 31
0.0
  0
LINE
  5
58B7
  8
250
 62
     3
 10
142.3200003578076
 20
65.225888843585281
 30
0.0
 11
142.6916670244741
 21
62.99588884358527
 31
0.0
  0
LINE
  5
58B8
  8
250
 62
     3
 10
142.6916670244741
 20
62.99588884358527
 30
0.0
 11
142.6916670244741
 21
65.225888843585281
 31
0.0
  0
LINE
  5
58B9
  8
250
 62
     3
 10
112.76166702447421
 20
131.03147628972911
 30
0.0
 11
114.9916670244742
 21
130.65980962306239
 31
0.0
  0
LINE
  5
58BA
  8
250
 62
     3
 10
112.76166702447421
 20
130.28814295639569
 30
0.0
 11
114.9916670244742
 21
130.65980962306239
 31
0.0
  0
LINE
  5
58BB
  8
250
 62
     3
 10
114.9916670244742
 20
130.65980962306239
 30
0.0
 11
112.76166702447421
 21
130.65980962306239
 31
0.0
  0
LINE
  5
58BC
  8
250
 62
     3
 10
77.221667024474272
 20
130.28814295639569
 30
0.0
 11
74.991667024474268
 21
130.65980962306239
 31
0.0
  0
LINE
  5
58BD
  8
250
 62
     3
 10
77.221667024474272
 20
131.03147628972911
 30
0.0
 11
74.991667024474268
 21
130.65980962306239
 31
0.0
  0
LINE
  5
58BE
  8
250
 62
     3
 10
74.991667024474268
 20
130.65980962306239
 30
0.0
 11
77.221667024474272
 21
130.65980962306239
 31
0.0
  0
TEXT
  5
58BF
  8
250
 62
     3
 10
92.325000357807554
 20
132.4839262829943
 30
0.0
 40
2.799999999999998
  1
40
  0
TEXT
  5
58C0
  8
250
 62
     3
 10
64.625000357807593
 20
177.3841098063686
 30
0.0
 40
2.799999999999998
  1
10
  0
LINE
  5
58C1
  8
250
 62
     3
 10
64.721667024474257
 20
176.0124431397019
 30
0.0
 11
62.491667024474253
 21
176.3841098063686
 31
0.0
  0
LINE
  5
58C2
  8
250
 62
     3
 10
64.721667024474257
 20
176.75577647303521
 30
0.0
 11
62.491667024474253
 21
176.3841098063686
 31
0.0
  0
LINE
  5
58C3
  8
250
 62
     3
 10
62.491667024474253
 20
176.3841098063686
 30
0.0
 11
64.721667024474257
 21
176.3841098063686
 31
0.0
  0
LINE
  5
58C4
  8
250
 62
     3
 10
70.261667024474249
 20
176.75577647303521
 30
0.0
 11
72.491667024474268
 21
176.3841098063686
 31
0.0
  0
LINE
  5
58C5
  8
250
 62
     3
 10
70.261667024474249
 20
176.0124431397019
 30
0.0
 11
72.491667024474268
 21
176.3841098063686
 31
0.0
  0
LINE
  5
58C6
  8
250
 62
     3
 10
72.491667024474268
 20
176.3841098063686
 30
0.0
 11
70.261667024474249
 21
176.3841098063686
 31
0.0
  0
TEXT
  5
58C7
  8
250
 62
     3
 10
119.62500035780759
 20
177.3841098063686
 30
0.0
 40
2.799999999999998
  1
10
  0
LINE
  5
58C8
  8
250
 62
     3
 10
125.26166702447421
 20
176.75577647303521
 30
0.0
 11
127.4916670244742
 21
176.3841098063686
 31
0.0
  0
LINE
  5
58C9
  8
250
 62
     3
 10
125.26166702447421
 20
176.0124431397019
 30
0.0
 11
127.4916670244742
 21
176.3841098063686
 31
0.0
  0
LINE
  5
58CA
  8
250
 62
     3
 10
127.4916670244742
 20
176.3841098063686
 30
0.0
 11
125.26166702447421
 21
176.3841098063686
 31
0.0
  0
LINE
  5
58CB
  8
250
 62
     3
 10
119.7216670244742
 20
176.0124431397019
 30
0.0
 11
117.4916670244742
 21
176.3841098063686
 31
0.0
  0
LINE
  5
58CC
  8
250
 62
     3
 10
119.7216670244742
 20
176.75577647303521
 30
0.0
 11
117.4916670244742
 21
176.3841098063686
 31
0.0
  0
LINE
  5
58CD
  8
250
 62
     3
 10
117.4916670244742
 20
176.3841098063686
 30
0.0
 11
119.7216670244742
 21
176.3841098063686
 31
0.0
  0
TEXT
  5
58CE
  8
250
 62
     3
 10
92.325000357807554
 20
177.3841098063686
 30
0.0
 40
2.799999999999998
  1
45
  0
LINE
  5
58CF
  8
250
 62
     3
 10
115.26166702447421
 20
176.75577647303521
 30
0.0
 11
117.4916670244742
 21
176.3841098063686
 31
0.0
  0
LINE
  5
58D0
  8
250
 62
     3
 10
115.26166702447421
 20
176.0124431397019
 30
0.0
 11
117.4916670244742
 21
176.3841098063686
 31
0.0
  0
LINE
  5
58D1
  8
250
 62
     3
 10
117.4916670244742
 20
176.3841098063686
 30
0.0
 11
115.26166702447421
 21
176.3841098063686
 31
0.0
  0
LINE
  5
58D2
  8
250
 62
     3
 10
74.721667024474272
 20
176.0124431397019
 30
0.0
 11
72.491667024474268
 21
176.3841098063686
 31
0.0
  0
LINE
  5
58D3
  8
250
 62
     3
 10
74.721667024474272
 20
176.75577647303521
 30
0.0
 11
72.491667024474268
 21
176.3841098063686
 31
0.0
  0
LINE
  5
58D4
  8
250
 62
     3
 10
72.491667024474268
 20
176.3841098063686
 30
0.0
 11
74.721667024474272
 21
176.3841098063686
 31
0.0
  0
TEXT
  5
58D5
  8
250
 62
     3
 10
92.325000357807554
 20
184.3841098063684
 30
0.0
 40
2.799999999999998
  1
82
  0
LINE
  5
58D6
  8
250
 62
     3
 10
56.221667024474222
 20
183.0124431397019
 30
0.0
 11
53.991667024474232
 21
183.3841098063684
 31
0.0
  0
LINE
  5
58D7
  8
250
 62
     3
 10
56.221667024474222
 20
183.75577647303521
 30
0.0
 11
53.991667024474232
 21
183.3841098063684
 31
0.0
  0
LINE
  5
58D8
  8
250
 62
     3
 10
53.991667024474232
 20
183.3841098063684
 30
0.0
 11
56.221667024474222
 21
183.3841098063684
 31
0.0
  0
LINE
  5
58D9
  8
250
 62
     3
 10
133.76166702447421
 20
183.75577647303521
 30
0.0
 11
135.9916670244742
 21
183.3841098063684
 31
0.0
  0
LINE
  5
58DA
  8
250
 62
     3
 10
133.76166702447421
 20
183.0124431397019
 30
0.0
 11
135.9916670244742
 21
183.3841098063684
 31
0.0
  0
LINE
  5
58DB
  8
250
 62
     3
 10
135.9916670244742
 20
183.3841098063684
 30
0.0
 11
133.76166702447421
 21
183.3841098063684
 31
0.0
  0
TEXT
  5
58DC
  8
250
 62
     3
 10
131.97735979744641
 20
150.32871291338071
 30
0.0
 40
2.799999999999998
  1
30\U+00B0
 50
282.94012065672968
  0
LINE
  5
58DD
  8
250
 62
     3
 10
130.3523864871093
 20
149.99339934898009
 30
0.0
 11
129.68676609879151
 21
152.15395150289041
 31
0.0
  0
LINE
  5
58DE
  8
250
 62
     3
 10
131.01712662414411
 20
150.32606283459191
 30
0.0
 11
129.68676609879151
 21
152.15395150289041
 31
0.0
  0
LINE
  5
58DF
  8
250
 62
     3
 10
129.68676609879151
 20
152.15395150289041
 30
0.0
 11
130.68475655562671
 21
150.159731091786
 31
0.0
  0
LINE
  5
58E0
  8
250
 62
     3
 10
132.43291570976319
 20
145.04226603426
 30
0.0
 11
132.1947340327651
 21
142.7940877495474
 31
0.0
  0
LINE
  5
58E1
  8
250
 62
     3
 10
131.69090212136999
 20
144.99799099519379
 30
0.0
 11
132.1947340327651
 21
142.7940877495474
 31
0.0
  0
LINE
  5
58E2
  8
250
 62
     3
 10
132.1947340327651
 20
142.7940877495474
 30
0.0
 11
132.06190891556659
 21
145.02012851472691
 31
0.0
  0
TEXT
  5
58E3
  8
250
 62
     3
 10
41.42516789172052
 20
160.4274210828807
 30
0.0
 40
2.799999999999998
  1
15
 50
90.0
  0
LINE
  5
58E4
  8
250
 62
     3
 10
42.796834558387197
 20
158.02408774954731
 30
0.0
 11
42.425167891720541
 21
155.7940877495472
 31
0.0
  0
LINE
  5
58E5
  8
250
 62
     3
 10
42.053501225053893
 20
158.02408774954731
 30
0.0
 11
42.425167891720541
 21
155.7940877495472
 31
0.0
  0
LINE
  5
58E6
  8
250
 62
     3
 10
42.425167891720541
 20
155.7940877495472
 30
0.0
 11
42.425167891720541
 21
158.02408774954731
 31
0.0
  0
LINE
  5
58E7
  8
250
 62
     3
 10
42.053501225053893
 20
168.5640877495473
 30
0.0
 11
42.425167891720541
 21
170.7940877495472
 31
0.0
  0
LINE
  5
58E8
  8
250
 62
     3
 10
42.796834558387197
 20
168.5640877495473
 30
0.0
 11
42.425167891720541
 21
170.7940877495472
 31
0.0
  0
LINE
  5
58E9
  8
250
 62
     3
 10
42.425167891720541
 20
170.7940877495472
 30
0.0
 11
42.425167891720541
 21
168.5640877495473
 31
0.0
  0
TEXT
  5
58EA
  8
250
 62
     3
 10
48.425167891720513
 20
162.8274210828807
 30
0.0
 40
2.799999999999998
  1
11
 50
90.0
  0
LINE
  5
58EB
  8
250
 62
     3
 10
49.796834558387211
 20
162.02408774954731
 30
0.0
 11
49.425167891720541
 21
159.7940877495472
 31
0.0
  0
LINE
  5
58EC
  8
250
 62
     3
 10
49.053501225053893
 20
162.02408774954731
 30
0.0
 11
49.425167891720541
 21
159.7940877495472
 31
0.0
  0
LINE
  5
58ED
  8
250
 62
     3
 10
49.425167891720541
 20
159.7940877495472
 30
0.0
 11
49.425167891720541
 21
162.02408774954731
 31
0.0
  0
LINE
  5
58EE
  8
250
 62
     3
 10
49.053501225053893
 20
168.5640877495473
 30
0.0
 11
49.425167891720541
 21
170.7940877495472
 31
0.0
  0
LINE
  5
58EF
  8
250
 62
     3
 10
49.796834558387211
 20
168.5640877495473
 30
0.0
 11
49.425167891720541
 21
170.7940877495472
 31
0.0
  0
LINE
  5
58F0
  8
250
 62
     3
 10
49.425167891720541
 20
170.7940877495472
 30
0.0
 11
49.425167891720541
 21
168.5640877495473
 31
0.0
  0
TEXT
  5
58F1
  8
250
 62
     3
 10
34.425167891720527
 20
154.12742108288069
 30
0.0
 40
2.799999999999998
  1
28
 50
90.0
  0
LINE
  5
58F2
  8
250
 62
     3
 10
35.796834558387218
 20
145.02408774954731
 30
0.0
 11
35.425167891720569
 21
142.7940877495474
 31
0.0
  0
LINE
  5
58F3
  8
250
 62
     3
 10
35.053501225053893
 20
145.02408774954731
 30
0.0
 11
35.425167891720569
 21
142.7940877495474
 31
0.0
  0
LINE
  5
58F4
  8
250
 62
     3
 10
35.425167891720569
 20
142.7940877495474
 30
0.0
 11
35.425167891720569
 21
145.02408774954731
 31
0.0
  0
LINE
  5
58F5
  8
250
 62
     3
 10
35.053501225053893
 20
168.5640877495473
 30
0.0
 11
35.425167891720569
 21
170.7940877495472
 31
0.0
  0
LINE
  5
58F6
  8
250
 62
     3
 10
35.796834558387218
 20
168.5640877495473
 30
0.0
 11
35.425167891720569
 21
170.7940877495472
 31
0.0
  0
LINE
  5
58F7
  8
250
 62
     3
 10
35.425167891720569
 20
170.7940877495472
 30
0.0
 11
35.425167891720569
 21
168.5640877495473
 31
0.0
  0
TEXT
  5
58F8
  8
250
 62
     3
 10
218.37739499081439
 20
54.591554313396131
 30
0.0
 40
2.799999999999998
  1
21
  0
LINE
  5
58F9
  8
250
 62
     3
 10
229.78927606398429
 20
53.9632209800628
 30
0.0
 11
232.01927606398431
 21
53.591554313396152
 31
0.0
  0
LINE
  5
58FA
  8
250
 62
     3
 10
229.78927606398429
 20
53.219887646729482
 30
0.0
 11
232.01927606398431
 21
53.591554313396152
 31
0.0
  0
LINE
  5
58FB
  8
250
 62
     3
 10
232.01927606398431
 20
53.591554313396152
 30
0.0
 11
229.78927606398429
 21
53.591554313396152
 31
0.0
  0
LINE
  5
58FC
  8
250
 62
     3
 10
213.24927606398421
 20
53.219887646729482
 30
0.0
 11
211.01927606398411
 21
53.591554313396152
 31
0.0
  0
LINE
  5
58FD
  8
250
 62
     3
 10
213.24927606398421
 20
53.9632209800628
 30
0.0
 11
211.01927606398411
 21
53.591554313396152
 31
0.0
  0
LINE
  5
58FE
  8
250
 62
     3
 10
211.01927606398411
 20
53.591554313396152
 30
0.0
 11
213.24927606398421
 21
53.591554313396152
 31
0.0
  0
TEXT
  5
58FF
  8
250
 62
     3
 10
139.64434405517491
 20
158.52742108288069
 30
0.0
 40
2.799999999999998
  1
9
 50
90.0
  0
LINE
  5
5900
  8
250
 62
     3
 10
141.01601072184161
 20
157.52408774954731
 30
0.0
 11
140.64434405517491
 21
155.2940877495472
 31
0.0
  0
LINE
  5
5901
  8
250
 62
     3
 10
140.2726773885083
 20
157.52408774954731
 30
0.0
 11
140.64434405517491
 21
155.2940877495472
 31
0.0
  0
LINE
  5
5902
  8
250
 62
     3
 10
140.64434405517491
 20
155.2940877495472
 30
0.0
 11
140.64434405517491
 21
157.52408774954731
 31
0.0
  0
LINE
  5
5903
  8
250
 62
     3
 10
140.2726773885083
 20
162.0640877495473
 30
0.0
 11
140.64434405517491
 21
164.2940877495472
 31
0.0
  0
LINE
  5
5904
  8
250
 62
     3
 10
141.01601072184161
 20
162.0640877495473
 30
0.0
 11
140.64434405517491
 21
164.2940877495472
 31
0.0
  0
LINE
  5
5905
  8
250
 62
     3
 10
140.64434405517491
 20
164.2940877495472
 30
0.0
 11
140.64434405517491
 21
162.0640877495473
 31
0.0
  0
TEXT
  5
5906
  8
250
 62
     3
 10
48.425167891720541
 20
144.39408774954731
 30
0.0
 40
2.799999999999998
  1
6
 50
90.0
  0
LINE
  5
5907
  8
250
 62
     3
 10
49.053501225053893
 20
140.56408774954741
 30
0.0
 11
49.425167891720562
 21
142.7940877495474
 31
0.0
  0
LINE
  5
5908
  8
250
 62
     3
 10
49.796834558387218
 20
140.56408774954741
 30
0.0
 11
49.425167891720562
 21
142.7940877495474
 31
0.0
  0
LINE
  5
5909
  8
250
 62
     3
 10
49.425167891720562
 20
142.7940877495474
 30
0.0
 11
49.425167891720562
 21
140.56408774954741
 31
0.0
  0
LINE
  5
590A
  8
250
 62
     3
 10
49.796834558387239
 20
151.02408774954731
 30
0.0
 11
49.425167891720562
 21
148.7940877495472
 31
0.0
  0
LINE
  5
590B
  8
250
 62
     3
 10
49.0535012250539
 20
151.02408774954731
 30
0.0
 11
49.425167891720562
 21
148.7940877495472
 31
0.0
  0
LINE
  5
590C
  8
250
 62
     3
 10
49.425167891720562
 20
148.7940877495472
 30
0.0
 11
49.425167891720562
 21
151.02408774954731
 31
0.0
  0
TEXT
  5
590D
  8
250
 62
     3
 10
191.77039776745181
 20
65.47103706579243
 30
0.0
 40
3.0
  1
PT3/8
  0
TEXT
  5
591E
  8
241
 62
   211
 10
149.6592098736873
 20
178.78030075415711
 30
0.0
 40
5.0
  1
SB-B
  7
YOKO
 11
149.6592098736873
 21
178.78030075415711
 31
0.0
 73
     1
  0
POINT
  5
591F
  8
0
 10
0.0
 20
-210.0
 30
0.0
1001
GENIUS_GENODEF_13
1002
{
1000
HIER
1070
     1
1002
}
1002
{
1000
MANEDIT
1070
     0
1002
}
1002
{
1000
NOSEL
1070
     0
1002
}
1002
{
1000
BEHIND
1070
     0
1002
}
1002
{
1000
OTHER
1070
     0
1002
}
1002
{
1000
REACTOR
1002
}
1001
GENIUS_GENOLIS_13
1002
{
1000
ENT
1005
0
1005
576E
1002
}
1001
GENIUS_GENOENT_13
1002
{
1000
MYREF
1005
591F
1002
}
1002
{
1000
GRP
1005
0
1002
}
1001
GENIUS_GENOBJ-N-CHA_13
1002
{
1000
OWNER
1000
GEN
1002
}
  0
POINT
  5
5920
  8
0
 10
0.0
 20
-210.0
 30
0.0
1001
GENIUS_GENOENT_13
1002
{
1000
MYREF
1005
5920
1002
}
1002
{
1000
GRP
1005
0
1002
}
1001
GENIUS_GENOBJ-N-CHA_13
1002
{
1000
OWNER
1000
GEN
1002
}
1001
GENIUS_GENODEF_13
1002
{
1000
HIER
1070
     1
1002
}
1002
{
1000
MANEDIT
1070
     0
1002
}
1002
{
1000
NOSEL
1070
     0
1002
}
1002
{
1000
BEHIND
1070
     0
1002
}
1002
{
1000
OTHER
1070
     0
1002
}
1002
{
1000
REACTOR
1002
}
1001
GENIUS_GENOLIS_13
1002
{
1000
ENT
1005
0
1005
576D
1002
}
  0
POINT
  5
5921
  8
0
 10
0.0
 20
-210.0
 30
0.0
1001
GENIUS_GENOLIS_13
1002
{
1000
ENT
1005
0
1005
576C
1002
}
1001
GENIUS_GENOENT_13
1002
{
1000
MYREF
1005
5921
1002
}
1002
{
1000
GRP
1005
0
1002
}
1001
GENIUS_GENOBJ-N-CHA_13
1002
{
1000
OWNER
1000
GEN
1002
}
1001
GENIUS_GENODEF_13
1002
{
1000
HIER
1070
     1
1002
}
1002
{
1000
MANEDIT
1070
     1
1002
}
1002
{
1000
NOSEL
1070
     0
1002
}
1002
{
1000
BEHIND
1070
     0
1002
}
1002
{
1000
OTHER
1070
     0
1002
}
1002
{
1000
REACTOR
1002
}
  0
POINT
  5
5922
  8
0
 10
0.0
 20
-210.0
 30
0.0
1001
GENIUS_GENOLIS_13
1002
{
1000
ENT
1005
0
1005
576B
1002
}
1001
GENIUS_GENOENT_13
1002
{
1000
MYREF
1005
5922
1002
}
1002
{
1000
GRP
1005
0
1002
}
1001
GENIUS_GENOBJ-N-CHA_13
1002
{
1000
OWNER
1000
GEN
1002
}
1001
GENIUS_GENODEF_13
1002
{
1000
HIER
1070
     1
1002
}
1002
{
1000
MANEDIT
1070
     1
1002
}
1002
{
1000
NOSEL
1070
     0
1002
}
1002
{
1000
BEHIND
1070
     0
1002
}
1002
{
1000
OTHER
1070
     0
1002
}
1002
{
1000
REACTOR
1002
}
  0
POINT
  5
5923
  8
0
 10
0.0
 20
-210.0
 30
0.0
1001
GENIUS_GENOLIS_13
1002
{
1000
ENT
1005
0
1005
576A
1002
}
1001
GENIUS_GENOENT_13
1002
{
1000
MYREF
1005
5923
1002
}
1002
{
1000
GRP
1005
0
1002
}
1001
GENIUS_GENOBJ-N-CHA_13
1002
{
1000
OWNER
1000
GEN
1002
}
1001
GENIUS_GENODEF_13
1002
{
1000
HIER
1070
     1
1002
}
1002
{
1000
MANEDIT
1070
     1
1002
}
1002
{
1000
NOSEL
1070
     0
1002
}
1002
{
1000
BEHIND
1070
     0
1002
}
1002
{
1000
OTHER
1070
     0
1002
}
1002
{
1000
REACTOR
1002
}
  0
POINT
  5
5924
  8
0
 10
0.0
 20
-210.0
 30
0.0
1001
GENIUS_GENOENT_13
1002
{
1000
MYREF
1005
5924
1002
}
1002
{
1000
GRP
1005
0
1002
}
1001
GENIUS_GENOBJ-N-CHA_13
1002
{
1000
OWNER
1000
GEN
1002
}
1001
GENIUS_GENOLIS_13
1002
{
1000
ENT
1005
0
1005
5769
1002
}
1001
GENIUS_GENODEF_13
1002
{
1000
HIER
1070
     1
1002
}
1002
{
1000
MANEDIT
1070
     1
1002
}
1002
{
1000
NOSEL
1070
     0
1002
}
1002
{
1000
BEHIND
1070
     0
1002
}
1002
{
1000
OTHER
1070
     0
1002
}
1002
{
1000
REACTOR
1002
}
  0
POINT
  5
5925
  8
0
 10
0.0
 20
-210.0
 30
0.0
1001
GENIUS_GENOLIS_13
1002
{
1000
ENT
1005
0
1005
5768
1002
}
1001
GENIUS_GENOENT_13
1002
{
1000
MYREF
1005
5925
1002
}
1002
{
1000
GRP
1005
0
1002
}
1001
GENIUS_GENOBJ-N-CHA_13
1002
{
1000
OWNER
1000
GEN
1002
}
1001
GENIUS_GENODEF_13
1002
{
1000
HIER
1070
     1
1002
}
1002
{
1000
MANEDIT
1070
     1
1002
}
1002
{
1000
NOSEL
1070
     0
1002
}
1002
{
1000
BEHIND
1070
     0
1002
}
1002
{
1000
OTHER
1070
     0
1002
}
1002
{
1000
REACTOR
1002
}
  0
POINT
  5
5926
  8
0
 10
0.0
 20
-210.0
 30
0.0
1001
GENIUS_GENOLIS_13
1002
{
1000
ENT
1005
0
1005
5767
1002
}
1001
GENIUS_GENOENT_13
1002
{
1000
MYREF
1005
5926
1002
}
1002
{
1000
GRP
1005
0
1002
}
1001
GENIUS_GENOBJ-N-CHA_13
1002
{
1000
OWNER
1000
GEN
1002
}
1001
GENIUS_GENODEF_13
1002
{
1000
HIER
1070
     1
1002
}
1002
{
1000
MANEDIT
1070
     1
1002
}
1002
{
1000
NOSEL
1070
     0
1002
}
1002
{
1000
BEHIND
1070
     0
1002
}
1002
{
1000
OTHER
1070
     0
1002
}
1002
{
1000
REACTOR
1002
}
  0
POINT
  5
5927
  8
0
 10
0.0
 20
-210.0
 30
0.0
1001
GENIUS_GENOLIS_13
1002
{
1000
ENT
1005
0
1005
5766
1002
}
1001
GENIUS_GENOENT_13
1002
{
1000
MYREF
1005
5927
1002
}
1002
{
1000
GRP
1005
0
1002
}
1001
GENIUS_GENOBJ-N-CHA_13
1002
{
1000
OWNER
1000
GEN
1002
}
1001
GENIUS_GENODEF_13
1002
{
1000
HIER
1070
     1
1002
}
1002
{
1000
MANEDIT
1070
     1
1002
}
1002
{
1000
NOSEL
1070
     0
1002
}
1002
{
1000
BEHIND
1070
     0
1002
}
1002
{
1000
OTHER
1070
     0
1002
}
1002
{
1000
REACTOR
1002
}
  0
POINT
  5
5928
  8
0
 10
0.0
 20
-210.0
 30
0.0
1001
GENIUS_GENOBJ-N-CHA_13
1002
{
1000
OWNER
1000
GEN
1002
}
1001
GENIUS_GENODEF_13
1002
{
1000
HIER
1070
     1
1002
}
1002
{
1000
MANEDIT
1070
     0
1002
}
1002
{
1000
NOSEL
1070
     0
1002
}
1002
{
1000
BEHIND
1070
     0
1002
}
1002
{
1000
OTHER
1070
     0
1002
}
1002
{
1000
REACTOR
1002
}
1001
GENIUS_GENOLIS_13
1002
{
1000
ENT
1005
0
1005
5765
1002
}
1001
GENIUS_GENOENT_13
1002
{
1000
MYREF
1005
5928
1002
}
1002
{
1000
GRP
1005
0
1002
}
  0
POINT
  5
5929
  8
0
 10
0.0
 20
-210.0
 30
0.0
1001
GENIUS_GENOENT_13
1002
{
1000
MYREF
1005
5929
1002
}
1002
{
1000
GRP
1005
0
1002
}
1001
GENIUS_GENOBJ-N-CHA_13
1002
{
1000
OWNER
1000
GEN
1002
}
1001
GENIUS_GENODEF_13
1002
{
1000
HIER
1070
     1
1002
}
1002
{
1000
MANEDIT
1070
     0
1002
}
1002
{
1000
NOSEL
1070
     0
1002
}
1002
{
1000
BEHIND
1070
     0
1002
}
1002
{
1000
OTHER
1070
     0
1002
}
1002
{
1000
REACTOR
1002
}
1001
GENIUS_GENOLIS_13
1002
{
1000
ENT
1005
0
1005
5764
1002
}
  0
POINT
  5
592A
  8
0
 10
0.0
 20
-210.0
 30
0.0
1001
GENIUS_GENOLIS_13
1002
{
1000
ENT
1005
0
1005
5763
1002
}
1001
GENIUS_GENOENT_13
1002
{
1000
MYREF
1005
592A
1002
}
1002
{
1000
GRP
1005
0
1002
}
1001
GENIUS_GENOBJ-N-CHA_13
1002
{
1000
OWNER
1000
GEN
1002
}
1001
GENIUS_GENODEF_13
1002
{
1000
HIER
1070
     1
1002
}
1002
{
1000
MANEDIT
1070
     0
1002
}
1002
{
1000
NOSEL
1070
     0
1002
}
1002
{
1000
BEHIND
1070
     0
1002
}
1002
{
1000
OTHER
1070
     0
1002
}
1002
{
1000
REACTOR
1002
}
  0
POINT
  5
592B
  8
0
 10
0.0
 20
-210.0
 30
0.0
1001
GENIUS_GENOBJ-N-CHA_13
1002
{
1000
OWNER
1000
GEN
1002
}
1001
GENIUS_GENOENT_13
1002
{
1000
MYREF
1005
592B
1002
}
1002
{
1000
GRP
1005
0
1002
}
1001
GENIUS_GENOLIS_13
1002
{
1000
ENT
1005
0
1005
5762
1002
}
1001
GENIUS_GENODEF_13
1002
{
1000
HIER
1070
     1
1002
}
1002
{
1000
MANEDIT
1070
     0
1002
}
1002
{
1000
NOSEL
1070
     0
1002
}
1002
{
1000
BEHIND
1070
     0
1002
}
1002
{
1000
OTHER
1070
     0
1002
}
1002
{
1000
REACTOR
1002
}
  0
POINT
  5
592C
  8
0
 10
0.0
 20
-210.0
 30
0.0
1001
GENIUS_GENOBJ-N-CHA_13
1002
{
1000
OWNER
1000
GEN
1002
}
1001
GENIUS_GENOENT_13
1002
{
1000
MYREF
1005
592C
1002
}
1002
{
1000
GRP
1005
0
1002
}
1001
GENIUS_GENOLIS_13
1002
{
1000
ENT
1005
0
1005
5761
1002
}
1001
GENIUS_GENODEF_13
1002
{
1000
HIER
1070
     1
1002
}
1002
{
1000
MANEDIT
1070
     1
1002
}
1002
{
1000
NOSEL
1070
     0
1002
}
1002
{
1000
BEHIND
1070
     0
1002
}
1002
{
1000
OTHER
1070
     0
1002
}
1002
{
1000
REACTOR
1002
}
  0
POINT
  5
592D
  8
0
 10
0.0
 20
-210.0
 30
0.0
1001
GENIUS_GENOBJ-N-CHA_13
1002
{
1000
OWNER
1000
GEN
1002
}
1001
GENIUS_GENOENT_13
1002
{
1000
MYREF
1005
592D
1002
}
1002
{
1000
GRP
1005
0
1002
}
1001
GENIUS_GENOLIS_13
1002
{
1000
ENT
1005
0
1005
5760
1002
}
1001
GENIUS_GENODEF_13
1002
{
1000
HIER
1070
     1
1002
}
1002
{
1000
MANEDIT
1070
     1
1002
}
1002
{
1000
NOSEL
1070
     0
1002
}
1002
{
1000
BEHIND
1070
     0
1002
}
1002
{
1000
OTHER
1070
     0
1002
}
1002
{
1000
REACTOR
1002
}
  0
POINT
  5
592E
  8
0
 10
0.0
 20
-210.0
 30
0.0
1001
GENIUS_GENOLIS_13
1002
{
1000
ENT
1005
0
1005
575F
1002
}
1001
GENIUS_GENOENT_13
1002
{
1000
MYREF
1005
592E
1002
}
1002
{
1000
GRP
1005
0
1002
}
1001
GENIUS_GENOBJ-N-CHA_13
1002
{
1000
OWNER
1000
GEN
1002
}
1001
GENIUS_GENODEF_13
1002
{
1000
HIER
1070
     1
1002
}
1002
{
1000
MANEDIT
1070
     1
1002
}
1002
{
1000
NOSEL
1070
     0
1002
}
1002
{
1000
BEHIND
1070
     0
1002
}
1002
{
1000
OTHER
1070
     0
1002
}
1002
{
1000
REACTOR
1002
}
  0
POINT
  5
592F
  8
0
 10
0.0
 20
-210.0
 30
0.0
1001
GENIUS_GENODEF_13
1002
{
1000
HIER
1070
     1
1002
}
1002
{
1000
MANEDIT
1070
     0
1002
}
1002
{
1000
NOSEL
1070
     0
1002
}
1002
{
1000
BEHIND
1070
     0
1002
}
1002
{
1000
OTHER
1070
     0
1002
}
1002
{
1000
REACTOR
1002
}
1001
GENIUS_GENOLIS_13
1002
{
1000
ENT
1005
0
1005
575E
1002
}
1001
GENIUS_GENOENT_13
1002
{
1000
MYREF
1005
592F
1002
}
1002
{
1000
GRP
1005
0
1002
}
1001
GENIUS_GENOBJ-N-CHA_13
1002
{
1000
OWNER
1000
GEN
1002
}
  0
POINT
  5
5930
  8
0
 10
0.0
 20
-210.0
 30
0.0
1001
GENIUS_GENODEF_13
1002
{
1000
HIER
1070
     1
1002
}
1002
{
1000
MANEDIT
1070
     0
1002
}
1002
{
1000
NOSEL
1070
     0
1002
}
1002
{
1000
BEHIND
1070
     0
1002
}
1002
{
1000
OTHER
1070
     0
1002
}
1002
{
1000
REACTOR
1002
}
1001
GENIUS_GENOLIS_13
1002
{
1000
ENT
1005
0
1005
575D
1002
}
1001
GENIUS_GENOENT_13
1002
{
1000
MYREF
1005
5930
1002
}
1002
{
1000
GRP
1005
0
1002
}
1001
GENIUS_GENOBJ-N-CHA_13
1002
{
1000
OWNER
1000
GEN
1002
}
  0
POINT
  5
5931
  8
0
 10
0.0
 20
-210.0
 30
0.0
1001
GENIUS_GENOBJ-N-CHA_13
1002
{
1000
OWNER
1000
GEN
1002
}
1001
GENIUS_GENOLIS_13
1002
{
1000
ENT
1005
0
1005
575C
1002
}
1001
GENIUS_GENOENT_13
1002
{
1000
MYREF
1005
5931
1002
}
1002
{
1000
GRP
1005
0
1002
}
1001
GENIUS_GENODEF_13
1002
{
1000
HIER
1070
     1
1002
}
1002
{
1000
MANEDIT
1070
     1
1002
}
1002
{
1000
NOSEL
1070
     0
1002
}
1002
{
1000
BEHIND
1070
     0
1002
}
1002
{
1000
OTHER
1070
     0
1002
}
1002
{
1000
REACTOR
1002
}
  0
POINT
  5
5932
  8
0
 10
0.0
 20
-210.0
 30
0.0
1001
GENIUS_GENOLIS_13
1002
{
1000
ENT
1005
0
1005
575B
1002
}
1001
GENIUS_GENOBJ-N-CHA_13
1002
{
1000
OWNER
1000
GEN
1002
}
1001
GENIUS_GENOENT_13
1002
{
1000
MYREF
1005
5932
1002
}
1002
{
1000
GRP
1005
0
1002
}
1001
GENIUS_GENODEF_13
1002
{
1000
HIER
1070
     1
1002
}
1002
{
1000
MANEDIT
1070
     1
1002
}
1002
{
1000
NOSEL
1070
     0
1002
}
1002
{
1000
BEHIND
1070
     0
1002
}
1002
{
1000
OTHER
1070
     0
1002
}
1002
{
1000
REACTOR
1002
}
  0
VIEWPORT
  5
22
 67
     1
  8
0
 10
261.51769911504419
 20
148.5
 30
0.0
 40
523.0353982300885
 41
297.0
 68
     1
 69
     1
1001
ACAD
1000
MVIEW
1002
{
1070
    16
1010
0.0
1020
0.0
1030
0.0
1010
0.0
1020
0.0
1030
1.0
1040
0.0
1040
297.0
1040
261.51769911504419
1040
148.5
1040
50.0
1040
0.0
1040
0.0
1070
     0
1070
   100
1070
     1
1070
     1
1070
     0
1070
     0
1070
     0
1070
     0
1040
0.0
1040
0.0
1040
0.0
1040
1.0
1040
1.0
1040
10.0
1040
10.0
1070
     0
1002
{
1002
}
1002
}
1001
GENIUS_GENODEF_13
1002
{
1000
HIER
1070
     0
1002
}
1002
{
1000
MANEDIT
1070
     0
1002
}
1002
{
1000
NOSEL
1070
     0
1002
}
1002
{
1000
BEHIND
1070
     0
1002
}
1002
{
1000
OTHER
1070
     0
1002
}
1002
{
1000
REACTOR
1002
}
1001
GENIUS_GENOBJ-N-SDF_13
1002
{
1000
OWNER
1000
GEN
1002
}
1001
GENIUS_GENSCREG_15
1000
PF
1040
1.0
1000
DF
1040
1.0
1000
MIN
1011
0.0
1021
0.0
1031
0.0
1021
0.0
1031
0.0
1000
MAX
1011
523.0353982300885
1021
0.0
1031
0.0
1021
297.0
1031
0.0
1000
FLAGS
1070
     4
  0
ENDSEC
  0
EOF
