  0
SECTION
  2
HEADER
  9
$ACADVER
  1
AC1009
  9
$INSBASE
 10
0.0
 20
0.0
 30
0.0
  9
$EXTMIN
 10
-63.273778838114822
 20
-45.846690343232353
 30
0.0
  9
$EXTMAX
 10
63.772230098617911
 20
54.0
 30
0.0
  9
$LIMMIN
 10
0.0
 20
0.0
  9
$LIMMAX
 10
297.0
 20
210.0
  9
$ORTHOMODE
 70
     0
  9
$REGENMODE
 70
     1
  9
$FILLMODE
 70
     1
  9
$QTEXTMODE
 70
     0
  9
$MIRRTEXT
 70
     1
  9
$DRAGMODE
 70
     2
  9
$LTSCALE
 40
10.0
  9
$OSMODE
 70
  2799
  9
$ATTMODE
 70
     1
  9
$TEXTSIZE
 40
3.0
  9
$TRACEWID
 40
1.0
  9
$TEXTSTYLE
  7
YOKO
  9
$CLAYER
  8
240
  9
$CELTYPE
  6
BYLAYER
  9
$CECOLOR
 62
   256
  9
$DIMSCALE
 40
1.0
  9
$DIMASZ
 40
2.2299999999999991
  9
$DIMEXO
 40
0.5
  9
$DIMDLI
 40
7.0
  9
$DIMRND
 40
0.0
  9
$DIMDLE
 40
0.0
  9
$DIMEXE
 40
1.0
  9
$DIMTP
 40
0.0
  9
$DIMTM
 40
0.01
  9
$DIMTXT
 40
2.7999999999999989
  9
$DIMCEN
 40
0.0
  9
$DIMTSZ
 40
0.0
  9
$DIMTOL
 70
     0
  9
$DIMLIM
 70
     0
  9
$DIMTIH
 70
     0
  9
$DIMTOH
 70
     0
  9
$DIMSE1
 70
     0
  9
$DIMSE2
 70
     0
  9
$DIMTAD
 70
     3
  9
$DIMZIN
 70
     9
  9
$DIMBLK
  1
OPEN
  9
$DIMASO
 70
     1
  9
$DIMSHO
 70
     1
  9
$DIMPOST
  1

  9
$DIMAPOST
  1

  9
$DIMALT
 70
     0
  9
$DIMALTD
 70
     2
  9
$DIMALTF
 40
25.399999999999999
  9
$DIMLFAC
 40
1.0
  9
$DIMTOFL
 70
     1
  9
$DIMTVP
 40
0.0
  9
$DIMTIX
 70
     1
  9
$DIMSOXD
 70
     0
  9
$DIMSAH
 70
     0
  9
$DIMBLK1
  1

  9
$DIMBLK2
  1

  9
$DIMSTYLE
  2
BIGT
  9
$DIMCLRD
 70
   256
  9
$DIMCLRE
 70
   256
  9
$DIMCLRT
 70
    40
  9
$DIMTFAC
 40
1.0
  9
$DIMGAP
 40
1.0
  9
$LUNITS
 70
     2
  9
$LUPREC
 70
     3
  9
$SKETCHINC
 40
1.0
  9
$FILLETRAD
 40
0.0
  9
$AUNITS
 70
     0
  9
$AUPREC
 70
     3
  9
$MENU
  1
.
  9
$ELEVATION
 40
0.0
  9
$PELEVATION
 40
0.0
  9
$THICKNESS
 40
0.0
  9
$LIMCHECK
 70
     0
  9
$BLIPMODE
 70
     0
  9
$CHAMFERA
 40
0.25
  9
$CHAMFERB
 40
0.25
  9
$SKPOLY
 70
     0
  9
$TDCREATE
 40
2454701.3665632182
  9
$TDUPDATE
 40
2454701.3738035299
  9
$TDINDWG
 40
0.0053669444
  9
$TDUSRTIMER
 40
0.0053669444
  9
$USRTIMER
 70
     1
  9
$ANGBASE
 50
0.0
  9
$ANGDIR
 70
     0
  9
$PDMODE
 70
     1
  9
$PDSIZE
 40
0.0
  9
$PLINEWID
 40
0.0
  9
$COORDS
 70
     1
  9
$SPLFRAME
 70
     0
  9
$SPLINETYPE
 70
     6
  9
$SPLINESEGS
 70
     4
  9
$ATTDIA
 70
     1
  9
$ATTREQ
 70
     1
  9
$HANDLING
 70
     1
  9
$HANDSEED
  5
16A8
  9
$SURFTAB1
 70
     6
  9
$SURFTAB2
 70
     6
  9
$SURFTYPE
 70
     6
  9
$SURFU
 70
     6
  9
$SURFV
 70
     6
  9
$UCSNAME
  2

  9
$UCSORG
 10
0.0
 20
0.0
 30
0.0
  9
$UCSXDIR
 10
1.0
 20
0.0
 30
0.0
  9
$UCSYDIR
 10
0.0
 20
1.0
 30
0.0
  9
$PUCSNAME
  2

  9
$PUCSORG
 10
0.0
 20
0.0
 30
0.0
  9
$PUCSXDIR
 10
1.0
 20
0.0
 30
0.0
  9
$PUCSYDIR
 10
0.0
 20
1.0
 30
0.0
  9
$USERI1
 70
     1
  9
$USERI2
 70
     0
  9
$USERI3
 70
     0
  9
$USERI4
 70
     0
  9
$USERI5
 70
     0
  9
$USERR1
 40
0.0
  9
$USERR2
 40
0.0
  9
$USERR3
 40
0.0
  9
$USERR4
 40
0.0
  9
$USERR5
 40
0.0
  9
$WORLDVIEW
 70
     1
  9
$SHADEDGE
 70
     3
  9
$SHADEDIF
 70
    70
  9
$TILEMODE
 70
     1
  9
$MAXACTVP
 70
    16
  9
$PLIMCHECK
 70
     0
  9
$PEXTMIN
 10
1.0000000000000000E+020
 20
1.0000000000000000E+020
 30
1.0000000000000000E+020
  9
$PEXTMAX
 10
-1.0000000000000000E+020
 20
-1.0000000000000000E+020
 30
-1.0000000000000000E+020
  9
$PLIMMIN
 10
0.0
 20
0.0
  9
$PLIMMAX
 10
420.0
 20
297.0
  9
$UNITMODE
 70
     0
  9
$VISRETAIN
 70
     1
  9
$PLINEGEN
 70
     0
  9
$PSLTSCALE
 70
     1
  0
ENDSEC
  0
SECTION
  2
TABLES
  0
TABLE
  2
VPORT
 70
     3
  0
VPORT
  2
*ACTIVE
 70
     0
 10
0.0
 20
0.0
 11
1.0
 21
1.0
 12
0.2515187684347921
 22
4.0711215872680242
 13
0.0
 23
0.0
 14
7.0
 24
7.0
 15
7.0
 25
7.0
 16
0.0
 26
0.0
 36
1.0
 17
0.0
 27
0.0
 37
0.0
 40
100.49481184054279
 41
1.5958115183246071
 42
50.0
 43
0.0
 44
0.0
 50
0.0
 51
0.0
 71
     0
 72
  2000
 73
     1
 74
     0
 75
     0
 76
     0
 77
     0
 78
     0
  0
ENDTAB
  0
TABLE
  2
LTYPE
 70
    13
  0
LTYPE
  2
CONTINUOUS
 70
     0
  3
Solid line
 72
    65
 73
     0
 40
0.0
  0
LTYPE
  2
CENTER2
 70
     0
  3
___ _ ___ _ ___ _ ___ _ ___ _ ___ _ ___ _ ___ _
 72
    65
 73
     4
 40
1.125
 49
0.75
 49
-0.125
 49
0.125
 49
-0.125
  0
LTYPE
  2
HIDDEN2
 70
     0
  3
_ _ _ _ _ _ _ _ _ _ _ _ _ _ _ _ _ _ _ _ _ _ _ _
 72
    65
 73
     2
 40
0.1875
 49
0.125
 49
-0.0625
  0
LTYPE
  2
PHANTOM2
 70
     0
  3
___ _ _ ___ _ _ ___ _ _ ___ _ _ ___ _ _ ___ _ _
 72
    65
 73
     6
 40
1.25
 49
0.625
 49
-0.125
 49
0.125
 49
-0.125
 49
0.125
 49
-0.125
  0
LTYPE
  2
CENTER
 70
     0
  3
____ _ ____ _ ____ _ ____ _ ____ _ ____ _ ____ 
 72
    65
 73
     4
 40
2.0
 49
1.25
 49
-0.25
 49
0.25
 49
-0.25
  0
LTYPE
  2
AM_ISO02W050
 70
     0
  3
__ __ __ __ __ __ __ __ __ __ __ __ __ __ __
 72
    65
 73
     2
 40
7.5
 49
6.0
 49
-1.5
  0
LTYPE
  2
AMCONSTR
 70
     0
  3
_______________________
 72
    65
 73
     2
 40
9999.0
 49
9999.0
 49
0.0
  0
LTYPE
  2
ACISOWELD
 70
     0
  3
_ _ _ _ _
 72
    65
 73
     2
 40
2.0
 49
2.0
 49
-1.0
  0
LTYPE
  2
ACISOTGB
 70
     0
  3
__ . . __ . .
 72
    65
 73
     6
 40
9.0
 49
4.0
 49
-1.0
 49
1.0
 49
-1.0
 49
1.0
 49
-1.0
  0
LTYPE
  2
ACISOTGL
 70
     0
  3
_ _ _ _ _
 72
    65
 73
     2
 40
3.0
 49
2.0
 49
-1.0
  0
LTYPE
  2
ACJISTGB
 70
     0
  3
__ . . __ . .
 72
    65
 73
     6
 40
9.0
 49
4.0
 49
-1.0
 49
1.0
 49
-1.0
 49
1.0
 49
-1.0
  0
LTYPE
  2
ACJISTGL
 70
     0
  3
_ _ _ _ _
 72
    65
 73
     2
 40
3.0
 49
2.0
 49
-1.0
  0
LTYPE
  2
HIDDEN
 70
     0
  3
Hidden __ __ __ __ __ __ __ __ __ __ __ __ __ _
 72
    65
 73
     2
 40
9.5249999999999986
 49
6.3499999999999988
 49
-3.1749999999999989
  0
ENDTAB
  0
TABLE
  2
LAYER
 70
     8
  0
LAYER
  2
0
 70
     0
 62
     7
  6
CONTINUOUS
  0
LAYER
  2
DEFPOINTS
 70
     0
 62
     7
  6
CONTINUOUS
  0
LAYER
  2
245
 70
     0
 62
     2
  6
CENTER2
  0
LAYER
  2
240
 70
     0
 62
     4
  6
CONTINUOUS
  0
LAYER
  2
241
 70
     0
 62
   211
  6
CONTINUOUS
  0
LAYER
  2
242
 70
     0
 62
     3
  6
CONTINUOUS
  0
LAYER
  2
244
 70
     0
 62
     3
  6
HIDDEN2
  0
LAYER
  2
250
 70
     0
 62
     3
  6
CONTINUOUS
  0
ENDTAB
  0
TABLE
  2
STYLE
 70
     6
  0
STYLE
  2
STANDARD
 70
     0
 40
0.0
 41
1.0
 50
0.0
 71
     0
 42
3.0
  3
romans.shx
  4
extfont.shx
  0
STYLE
  2
ACISOTS
 70
     0
 40
1.0
 41
1.0
 50
0.0
 71
     0
 42
3.0
  3
amgdt.shx
  4
extfont.shx
  0
STYLE
  2
ACISOGDT
 70
     0
 40
0.0
 41
1.0
 50
0.0
 71
     0
 42
3.0
  3
amgdt.shx
  4
extfont.shx
  0
STYLE
  2
ACJISTS
 70
     0
 40
1.0
 41
1.0
 50
0.0
 71
     0
 42
3.0
  3
amgdt.shx
  4
extfont.shx
  0
STYLE
  2
ACJISGDT
 70
     0
 40
0.0
 41
1.0
 50
0.0
 71
     0
 42
3.0
  3
amgdt.shx
  4
extfont.shx
  0
STYLE
  2
YOKO
 70
     0
 40
0.0
 41
1.0
 50
0.0
 71
     0
 42
3.0
  3
romans.shx
  4
extfont.shx
  0
ENDTAB
  0
TABLE
  2
VIEW
 70
     0
  0
ENDTAB
  0
TABLE
  2
UCS
 70
     0
  0
ENDTAB
  0
TABLE
  2
APPID
 70
    28
  0
APPID
  2
ACAD
 70
     0
  0
APPID
  2
GLOBAL
 70
     0
  0
APPID
  2
DETAIL
 70
     0
  0
APPID
  2
GRPNAME
 70
     0
  0
APPID
  2
GPARA
 70
     0
  0
APPID
  2
MCAD_NO_VIS
 70
     0
  0
APPID
  2
ACAD_TEMP_GRAPHIC
 70
     0
  0
APPID
  2
ACATTRIBSERVICES
 70
     0
  0
APPID
  2
GENIUS_GENSCREG_15
 70
     0
  0
APPID
  2
GENIUS_GENODEF_13
 70
     0
  0
APPID
  2
GENIUS_GENOBJ-N-SDF_13
 70
     0
  0
APPID
  2
GENIUS_GENREC_14
 70
     0
  0
APPID
  2
GENIUS_GENOBJ-N-REC_13
 70
     0
  0
APPID
  2
GENIUS_GENDIMSH_14
 70
     0
  0
APPID
  2
GENIUS_GENOBJ-N-DIM_13
 70
     0
  0
APPID
  2
GENIUS_GENDIM_13
 70
     0
  0
APPID
  2
GENIUS_GENDTOL_13
 70
     0
  0
APPID
  2
GENIUS_GENOLIS_13
 70
     0
  0
APPID
  2
GENIUS_GENOENT_13
 70
     0
  0
APPID
  2
GENIUS_GENOBJ-F-FEM_13
 70
     0
  0
APPID
  2
GENIUS_GENOREF_13
 70
     0
  0
APPID
  2
GENIUS_GEFFEM_13
 70
     0
  0
APPID
  2
GENIUS_GEFFEMP_13
 70
     0
  0
APPID
  2
AD_DRAW
 70
     0
  0
APPID
  2
DESIGNERASSEMBLIES
 70
     0
  0
APPID
  2
ACADM_DIM_EDIT
 70
     0
  0
APPID
  2
AMDT_DM_ADJ
 70
     0
  0
APPID
  2
ITEMNAME
 70
     0
  0
ENDTAB
  0
TABLE
  2
DIMSTYLE
 70
    23
  0
DIMSTYLE
  2
BIGT
 70
     0
  3

  4

  5
OPEN
  6

  7

 40
1.0
 41
2.2299999999999991
 42
0.5
 43
7.0
 44
1.0
 45
0.0
 46
0.0
 47
0.0
 48
0.01
140
2.7999999999999989
141
0.0
142
0.0
143
25.399999999999999
144
1.0
145
0.0
146
1.0
147
1.0
 71
     0
 72
     0
 73
     0
 74
     0
 75
     0
 76
     0
 77
     3
 78
     9
170
     0
171
     2
172
     1
173
     0
174
     1
175
     0
176
   256
177
   256
178
    40
  0
DIMSTYLE
  2
AM_ISO
 70
     0
  3

  4
"
  5

  6

  7

 40
1.0
 41
2.5
 42
1.0
 43
10.0
 44
1.0
 45
0.0
 46
0.0
 47
0.1
 48
0.1
140
3.5
141
0.0
142
0.0
143
0.0393701
144
1.0
145
0.0
146
0.71
147
1.5
 71
     0
 72
     0
 73
     0
 74
     0
 75
     0
 76
     0
 77
     1
 78
     8
170
     0
171
     2
172
     1
173
     0
174
     0
175
     0
176
   256
177
   256
178
     2
  0
DIMSTYLE
  2
AM_ISO$3
 70
     0
  3

  4
"
  5

  6

  7

 40
1.0
 41
2.5
 42
1.0
 43
10.0
 44
1.0
 45
0.0
 46
0.0
 47
0.1
 48
0.1
140
3.5
141
0.0
142
0.0
143
0.0393701
144
1.0
145
0.0
146
0.71
147
1.5
 71
     0
 72
     0
 73
     0
 74
     1
 75
     0
 76
     0
 77
     1
 78
     8
170
     0
171
     2
172
     0
173
     0
174
     0
175
     0
176
   256
177
   256
178
     2
  0
DIMSTYLE
  2
AM_ISO$4
 70
     0
  3

  4
"
  5

  6

  7

 40
1.0
 41
2.5
 42
1.0
 43
10.0
 44
1.0
 45
0.0
 46
0.0
 47
0.1
 48
0.1
140
3.5
141
0.0
142
0.0
143
0.0393701
144
1.0
145
0.0
146
0.71
147
1.5
 71
     0
 72
     0
 73
     0
 74
     1
 75
     0
 76
     0
 77
     1
 78
     8
170
     0
171
     2
172
     0
173
     0
174
     0
175
     0
176
   256
177
   256
178
     2
  0
DIMSTYLE
  2
AM_ISO$6
 70
     0
  3

  4
"
  5

  6

  7

 40
1.0
 41
2.5
 42
1.0
 43
10.0
 44
1.0
 45
0.0
 46
0.0
 47
0.1
 48
0.1
140
3.5
141
0.0
142
0.0
143
0.0393701
144
1.0
145
0.0
146
0.71
147
1.5
 71
     0
 72
     0
 73
     0
 74
     0
 75
     0
 76
     0
 77
     0
 78
     8
170
     0
171
     2
172
     1
173
     0
174
     0
175
     0
176
   256
177
   256
178
     2
  0
DIMSTYLE
  2
AM_ISO$7
 70
     0
  3

  4
"
  5

  6

  7

 40
1.0
 41
2.5
 42
1.0
 43
10.0
 44
1.0
 45
0.0
 46
0.0
 47
0.1
 48
0.1
140
5.0
141
0.0
142
0.0
143
0.0393701
144
1.0
145
0.0
146
0.71
147
1.5
 71
     0
 72
     0
 73
     0
 74
     0
 75
     0
 76
     0
 77
     1
 78
     8
170
     0
171
     2
172
     1
173
     0
174
     0
175
     0
176
   256
177
   256
178
     2
  0
DIMSTYLE
  2
AM_ISO$SF
 70
     0
  3

  4
"
  5

  6

  7

 40
1.0
 41
2.5
 42
1.0
 43
10.0
 44
1.0
 45
0.0
 46
0.0
 47
0.1
 48
0.1
140
3.5
141
0.0
142
0.0
143
0.0393701
144
1.0
145
0.0
146
0.71
147
1.5
 71
     0
 72
     0
 73
     0
 74
     0
 75
     1
 76
     1
 77
     1
 78
     8
170
     0
171
     2
172
     1
173
     0
174
     0
175
     0
176
   256
177
   256
178
     2
  0
DIMSTYLE
  2
AM_ISO$SH
 70
     0
  3

  4
"
  5

  6
GENAXEH
  7

 40
1.0
 41
2.5
 42
1.0
 43
10.0
 44
1.0
 45
0.0
 46
0.0
 47
0.1
 48
0.1
140
3.5
141
0.0
142
0.0
143
0.0393701
144
2.0
145
0.0
146
0.71
147
1.5
 71
     0
 72
     0
 73
     0
 74
     0
 75
     1
 76
     1
 77
     1
 78
     8
170
     0
171
     2
172
     1
173
     1
174
     0
175
     0
176
   256
177
   256
178
     2
  0
DIMSTYLE
  2
BIGT$2
 70
     0
  3

  4

  5
OPEN
  6

  7

 40
1.0
 41
2.2299999999999991
 42
0.5
 43
7.0
 44
1.0
 45
0.0
 46
0.0
 47
0.0
 48
0.01
140
2.7999999999999989
141
0.0
142
0.0
143
25.399999999999999
144
1.0
145
0.0
146
1.0
147
1.0
 71
     0
 72
     0
 73
     0
 74
     0
 75
     0
 76
     0
 77
     3
 78
     9
170
     0
171
     2
172
     1
173
     0
174
     0
175
     0
176
   256
177
   256
178
    40
  0
DIMSTYLE
  2
BIGT$3
 70
     0
  3

  4

  5
OPEN
  6

  7

 40
1.0
 41
2.2299999999999991
 42
0.5
 43
2.5
 44
1.0
 45
0.0
 46
0.0
 47
0.0
 48
0.01
140
2.7999999999999989
141
0.0
142
0.0
143
25.399999999999999
144
1.0
145
0.0
146
1.0
147
1.0
 71
     0
 72
     0
 73
     0
 74
     0
 75
     0
 76
     0
 77
     3
 78
     9
170
     0
171
     2
172
     1
173
     0
174
     0
175
     0
176
   256
177
   256
178
    40
  0
DIMSTYLE
  2
BIGT$7
 70
     0
  3

  4

  5
OPEN
  6

  7

 40
0.0
 41
2.2299999999999991
 42
0.5
 43
7.0
 44
1.0
 45
0.0
 46
0.0
 47
0.0
 48
0.01
140
2.7999999999999989
141
0.0
142
0.0
143
25.399999999999999
144
1.0
145
0.0
146
1.0
147
1.0
 71
     0
 72
     0
 73
     0
 74
     0
 75
     0
 76
     0
 77
     3
 78
     9
170
     0
171
     2
172
     0
173
     0
174
     0
175
     0
176
   256
177
   256
178
    40
  0
DIMSTYLE
  2
BIGT$6
 70
     0
  3

  4

  5
OPEN
  6

  7

 40
1.0
 41
2.2299999999999991
 42
0.5
 43
2.5
 44
1.0
 45
0.0
 46
0.0
 47
0.0
 48
0.01
140
2.7999999999999989
141
0.0
142
0.0
143
25.399999999999999
144
1.0
145
0.0
146
1.0
147
1.0
 71
     0
 72
     0
 73
     0
 74
     0
 75
     0
 76
     0
 77
     3
 78
     9
170
     0
171
     2
172
     1
173
     0
174
     0
175
     0
176
   256
177
   256
178
    40
  0
DIMSTYLE
  2
BIGT$0
 70
     0
  3

  4

  5
OPEN
  6

  7

 40
1.0
 41
2.2299999999999991
 42
0.5
 43
7.0
 44
1.0
 45
0.0
 46
0.0
 47
0.0
 48
0.01
140
2.7999999999999989
141
0.0
142
0.0
143
25.399999999999999
144
1.0
145
0.0
146
1.0
147
1.0
 71
     0
 72
     0
 73
     0
 74
     0
 75
     0
 76
     0
 77
     3
 78
     9
170
     0
171
     2
172
     1
173
     0
174
     0
175
     0
176
   256
177
   256
178
    40
  0
DIMSTYLE
  2
BIGT$4
 70
     0
  3

  4

  5
OPEN
  6

  7

 40
1.0
 41
2.2299999999999991
 42
0.5
 43
2.5
 44
1.0
 45
0.0
 46
0.0
 47
0.0
 48
0.01
140
2.7999999999999989
141
0.0
142
0.0
143
25.399999999999999
144
1.0
145
0.0
146
1.0
147
1.0
 71
     0
 72
     0
 73
     0
 74
     0
 75
     0
 76
     0
 77
     3
 78
     9
170
     0
171
     2
172
     1
173
     0
174
     0
175
     0
176
   256
177
   256
178
    40
  0
DIMSTYLE
  2
BIGT$SH
 70
     0
  3

  4

  5
OPEN
  6

  7

 40
1.0
 41
2.2299999999999991
 42
0.5
 43
7.0
 44
1.0
 45
0.0
 46
0.0
 47
0.0
 48
0.0
140
2.7999999999999989
141
0.0
142
0.0
143
25.399999999999999
144
1.0
145
0.0
146
1.0
147
1.0
 71
     0
 72
     0
 73
     0
 74
     0
 75
     0
 76
     0
 77
     3
 78
     9
170
     0
171
     2
172
     1
173
     0
174
     0
175
     0
176
   256
177
   256
178
    40
  0
DIMSTYLE
  2
BIGT$SF
 70
     0
  3

  4

  5
OPEN
  6

  7

 40
1.0
 41
2.2299999999999991
 42
0.5
 43
7.0
 44
1.0
 45
0.0
 46
0.0
 47
0.0
 48
0.0
140
2.7999999999999989
141
0.0
142
0.0
143
25.399999999999999
144
1.0
145
0.0
146
1.0
147
1.0
 71
     0
 72
     0
 73
     0
 74
     0
 75
     0
 76
     0
 77
     3
 78
     9
170
     0
171
     2
172
     1
173
     0
174
     0
175
     0
176
   256
177
   256
178
    40
  0
DIMSTYLE
  2
TECHNICAL_OSAKA
 70
     0
  3

  4
"
  5
OPEN30
  6

  7

 40
1.0
 41
2.5
 42
1.0
 43
10.0
 44
1.0
 45
0.0
 46
0.0
 47
0.1
 48
0.1
140
2.7999999999999989
141
0.0
142
0.0
143
0.0393701
144
1.0
145
0.0
146
0.71
147
1.5
 71
     0
 72
     0
 73
     0
 74
     0
 75
     0
 76
     0
 77
     3
 78
     8
170
     0
171
     2
172
     1
173
     0
174
     0
175
     0
176
   256
177
   256
178
    40
  0
DIMSTYLE
  2
TECHNICAL_OSAKA$3
 70
     0
  3

  4
"
  5
OPEN30
  6

  7

 40
1.0
 41
2.5
 42
1.0
 43
10.0
 44
1.0
 45
0.0
 46
0.0
 47
0.1
 48
0.1
140
2.7999999999999989
141
0.0
142
0.0
143
0.0393701
144
1.0
145
0.0
146
0.71
147
1.5
 71
     0
 72
     0
 73
     0
 74
     1
 75
     0
 76
     0
 77
     3
 78
     8
170
     0
171
     2
172
     0
173
     0
174
     0
175
     0
176
   256
177
   256
178
    40
  0
DIMSTYLE
  2
TECHNICAL_OSAKA$4
 70
     0
  3

  4
"
  5
OPEN30
  6

  7

 40
1.0
 41
2.5
 42
1.0
 43
10.0
 44
1.0
 45
0.0
 46
0.0
 47
0.1
 48
0.1
140
2.7999999999999989
141
0.0
142
0.0
143
0.0393701
144
1.0
145
0.0
146
0.71
147
1.5
 71
     0
 72
     0
 73
     0
 74
     1
 75
     0
 76
     0
 77
     3
 78
     8
170
     0
171
     2
172
     0
173
     0
174
     0
175
     0
176
   256
177
   256
178
    40
  0
DIMSTYLE
  2
TECHNICAL_OSAKA$6
 70
     0
  3

  4
"
  5
OPEN30
  6

  7

 40
1.0
 41
2.5
 42
1.0
 43
10.0
 44
1.0
 45
0.0
 46
0.0
 47
0.1
 48
0.1
140
2.7999999999999989
141
0.0
142
0.0
143
0.0393701
144
1.0
145
0.0
146
0.71
147
1.5
 71
     0
 72
     0
 73
     0
 74
     0
 75
     0
 76
     0
 77
     0
 78
     8
170
     0
171
     2
172
     1
173
     0
174
     0
175
     0
176
   256
177
   256
178
    40
  0
DIMSTYLE
  2
TECHNICAL_OSAKA$7
 70
     0
  3

  4
"
  5
OPEN30
  6

  7

 40
1.0
 41
2.5
 42
1.0
 43
10.0
 44
1.0
 45
0.0
 46
0.0
 47
0.1
 48
0.1
140
2.7999999999999989
141
0.0
142
0.0
143
0.0393701
144
1.0
145
0.0
146
0.71
147
1.5
 71
     0
 72
     0
 73
     0
 74
     0
 75
     0
 76
     0
 77
     3
 78
     8
170
     0
171
     2
172
     1
173
     0
174
     0
175
     0
176
   256
177
   256
178
    40
  0
DIMSTYLE
  2
TECHNICAL_OSAKA$SF
 70
     0
  3

  4
"
  5
OPEN30
  6
OPEN30
  7
OPEN30
 40
1.0
 41
2.5
 42
1.0
 43
10.0
 44
1.0
 45
0.0
 46
0.0
 47
0.1
 48
0.1
140
3.5
141
0.0
142
0.0
143
0.0393701
144
1.0
145
0.0
146
0.71
147
1.5
 71
     0
 72
     0
 73
     0
 74
     0
 75
     1
 76
     1
 77
     3
 78
     8
170
     0
171
     2
172
     1
173
     0
174
     0
175
     0
176
   256
177
   256
178
    40
  0
DIMSTYLE
  2
TECHNICAL_OSAKA$SH
 70
     0
  3

  4
"
  5
OPEN30
  6
GENAXEH
  7
OPEN30
 40
1.0
 41
2.5
 42
1.0
 43
10.0
 44
1.0
 45
0.0
 46
0.0
 47
0.1
 48
0.1
140
3.5
141
0.0
142
0.0
143
0.0393701
144
2.0
145
0.0
146
0.71
147
1.5
 71
     0
 72
     0
 73
     0
 74
     0
 75
     1
 76
     1
 77
     3
 78
     8
170
     0
171
     2
172
     1
173
     1
174
     0
175
     0
176
   256
177
   256
178
    40
  0
ENDTAB
  0
ENDSEC
  0
SECTION
  2
BLOCKS
  0
BLOCK
  8
0
  2
$MODEL_SPACE
 70
     0
 10
0.0
 20
0.0
 30
0.0
  3
$MODEL_SPACE
  1

  0
ENDBLK
  5
1C
  8
0
  0
BLOCK
 67
     1
  8
0
  2
$PAPER_SPACE
 70
     0
 10
0.0
 20
0.0
 30
0.0
  3
$PAPER_SPACE
  1

  0
ENDBLK
  5
19
 67
     1
  8
0
  0
BLOCK
  8
0
  2
_OPEN
 70
     0
 10
0.0
 20
0.0
 30
0.0
  3
_OPEN
  1

  0
LINE
  5
163E
  8
0
  6
BYBLOCK
 62
     0
 10
-1.0
 20
0.1666666666666666
 30
0.0
 11
0.0
 21
0.0
 31
0.0
  0
LINE
  5
163F
  8
0
  6
BYBLOCK
 62
     0
 10
-1.0
 20
-0.1666666666666666
 30
0.0
 11
0.0
 21
0.0
 31
0.0
  0
LINE
  5
1640
  8
0
  6
BYBLOCK
 62
     0
 10
0.0
 20
0.0
 30
0.0
 11
-1.0
 21
0.0
 31
0.0
  0
ENDBLK
  5
1641
  8
0
  0
BLOCK
  8
0
  2
GENAXEH
 70
     0
 10
0.0
 20
0.0
 30
0.0
  3
GENAXEH
  1

  0
LINE
  5
1669
  8
0
 10
-1.0
 20
0.0
 30
0.0
 11
1.0
 21
0.0
 31
0.0
  0
ENDBLK
  5
166A
  8
0
  0
BLOCK
  8
0
  2
_OPEN30
 70
     0
 10
0.0
 20
0.0
 30
0.0
  3
_OPEN30
  1

  0
LINE
  5
168E
  8
0
  6
BYBLOCK
 62
     0
 10
-1.0
 20
0.26794919
 30
0.0
 11
0.0
 21
0.0
 31
0.0
  0
LINE
  5
168F
  8
0
  6
BYBLOCK
 62
     0
 10
0.0
 20
0.0
 30
0.0
 11
-1.0
 21
-0.26794919
 31
0.0
  0
LINE
  5
1690
  8
0
  6
BYBLOCK
 62
     0
 10
0.0
 20
0.0
 30
0.0
 11
-1.0
 21
0.0
 31
0.0
  0
ENDBLK
  5
1691
  8
0
  0
BLOCK
  8
0
  2
A$C3A2955F2
 70
     0
 10
0.0
 20
0.0
 30
0.0
  3
A$C3A2955F2
  1

  0
LINE
  5
1566
  8
240
 10
8.5
 20
11.5
 30
0.0
 11
8.5
 21
12.0
 31
0.0
  0
LINE
  5
1567
  8
240
 10
5.7999999999999536
 20
11.69999999863589
 30
0.0
 11
5.7999999999999536
 21
12.5
 31
0.0
  0
LINE
  5
1568
  8
240
 10
4.2000000000000446
 20
11.700000001507799
 30
0.0
 11
4.2000000000000446
 21
12.5
 31
0.0
  0
LINE
  5
1569
  8
241
 10
8.5
 20
-11.49999999939393
 30
0.0
 11
8.5
 21
11.5
 31
0.0
  0
LINE
  5
156A
  8
241
 10
5.7999999999999554
 20
-11.70000000000004
 30
0.0
 11
5.7999999999999536
 21
11.69999999863589
 31
0.0
  0
LINE
  5
156B
  8
241
 10
4.2000000000000446
 20
-11.700000001004851
 30
0.0
 11
4.2000000000000446
 21
11.700000001507799
 31
0.0
  0
LINE
  5
156C
  8
240
 10
0.0
 20
-12.999999999865279
 30
0.0
 11
0.0
 21
12.99999999939439
 31
0.0
1001
GRPNAME
1000
PASTMDAC
  0
LINE
  5
156D
  8
240
 10
0.0
 20
12.99999999939439
 30
0.0
 11
0.0
 21
18.0
 31
0.0
1001
GRPNAME
1000
PASTMDAC
  0
LINE
  5
156E
  8
240
 10
37.000000000000227
 20
12.0
 30
0.0
 11
39.999999999999773
 21
9.0
 31
0.0
1001
GRPNAME
1000
PASTMDAC
  0
LINE
  5
156F
  8
240
 10
13.50000000000205
 20
10.0
 30
0.0
 11
16.96410161514018
 21
12.0
 31
0.0
  0
LINE
  5
1570
  8
242
 10
38.499999999999773
 20
10.499999999999771
 30
0.0
 11
14.36602540378612
 21
10.499999999999771
 31
0.0
1001
GRPNAME
1000
PASTMDAC
  0
LINE
  5
1571
  8
240
 10
37.000000000000227
 20
12.0
 30
0.0
 11
16.96410161514018
 21
12.0
 31
0.0
1001
GRPNAME
1000
PASTMDAC
  0
ARC
  5
1572
  8
240
 10
10.0
 20
11.5
 30
0.0
 40
1.5
 50
179.99999995112711
 51
269.99999995112722
  0
LINE
  5
1573
  8
240
 10
5.7999999999999536
 20
12.5
 30
0.0
 11
8.0
 21
12.5
 31
0.0
1001
GRPNAME
1000
PASTMDAJ
  0
ARC
  5
1574
  8
240
 10
5.0
 20
11.70000000000004
 30
0.0
 40
0.7999999999999546
 50
359.99999990229981
 51
179.99999989201461
1001
GRPNAME
1000
PASTMDAJ
  0
ARC
  5
1575
  8
240
 10
8.0
 20
12.0
 30
0.0
 40
0.5
 50
0.0000000899813015
 51
90.000000089981285
1001
GRPNAME
1000
PASTMDAJ
  0
ARC
  5
1576
  8
240
 10
0.5
 20
13.0
 30
0.0
 40
0.5
 50
180.0000000693978
 51
270.00000006939769
1001
GRPNAME
1000
PASTMDAJ
  0
LINE
  5
1577
  8
240
 10
0.5
 20
12.5
 30
0.0
 11
4.2000000000000446
 21
12.5
 31
0.0
1001
GRPNAME
1000
PASTMDAJ
  0
LINE
  5
1578
  8
241
 10
-5.0
 20
9.9498743710661302
 30
0.0
 11
-5.0
 21
18.0
 31
0.0
  0
LINE
  5
1579
  8
240
 10
-12.500000000000229
 20
10.5
 30
0.0
 11
-5.0
 21
18.0
 31
0.0
  0
LINE
  5
157A
  8
241
 10
-5.0
 20
9.9498743710661302
 30
0.0
 11
0.0
 21
9.9498743710661302
 31
0.0
1001
GRPNAME
1000
PASTMDAC
  0
LINE
  5
157B
  8
240
 10
0.0
 20
18.0
 30
0.0
 11
-5.0
 21
18.0
 31
0.0
1001
GRPNAME
1000
PASTMDAC
  0
LINE
  5
157C
  8
240
 10
13.50000000000227
 20
10.0
 30
0.0
 11
10.0
 21
10.0
 31
0.0
1001
GRPNAME
1000
PASTMDAC
  0
LINE
  5
157D
  8
240
 10
37.000000000000227
 20
-12.000000000000229
 30
0.0
 11
39.999999999999773
 21
-9.0000000000001137
 31
0.0
1001
GRPNAME
1000
PASTMDAC
  0
LINE
  5
157E
  8
240
 10
16.964101615140631
 20
-12.000000000000229
 30
0.0
 11
13.50000000000227
 21
-10.0
 31
0.0
  0
LINE
  5
157F
  8
242
 10
38.499999999999773
 20
-10.5
 30
0.0
 11
14.36602540378658
 21
-10.5
 31
0.0
1001
GRPNAME
1000
PASTMDAC
  0
LINE
  5
1580
  8
240
 10
37.000000000000227
 20
-12.000000000000229
 30
0.0
 11
16.964101615140631
 21
-12.000000000000229
 31
0.0
1001
GRPNAME
1000
PASTMDAC
  0
LINE
  5
1581
  8
240
 10
5.7999999999999536
 20
-12.5
 30
0.0
 11
8.0
 21
-12.5
 31
0.0
1001
GRPNAME
1000
PASTMDAJ
  0
ARC
  5
1582
  8
240
 10
5.0
 20
-11.70000000000004
 30
0.0
 40
0.7999999999999546
 50
180.00000007196419
 51
0.0000000616789448
1001
GRPNAME
1000
PASTMDAJ
  0
ARC
  5
1583
  8
240
 10
8.0
 20
-12.0
 30
0.0
 40
0.5
 50
269.99999995368711
 51
359.999999953687
1001
GRPNAME
1000
PASTMDAJ
  0
ARC
  5
1584
  8
240
 10
10.0
 20
-11.5
 30
0.0
 40
1.5
 50
89.999999976850034
 51
179.99999997685001
1001
GRPNAME
1000
PASTMDAC
  0
ARC
  5
1585
  8
240
 10
0.5
 20
-13.0
 30
0.0
 40
0.5
 50
89.999999984562351
 51
179.99999998456229
1001
GRPNAME
1000
PASTMDAJ
  0
LINE
  5
1586
  8
240
 10
0.5
 20
-12.5
 30
0.0
 11
4.2000000000000446
 21
-12.5
 31
0.0
1001
GRPNAME
1000
PASTMDAJ
  0
LINE
  5
1587
  8
241
 10
-5.0
 20
-9.9498743710662438
 30
0.0
 11
0.0
 21
-9.9498743710662438
 31
0.0
1001
GRPNAME
1000
PASTMDAC
  0
LINE
  5
1588
  8
240
 10
0.0
 20
-18.0
 30
0.0
 11
-5.0
 21
-18.0
 31
0.0
1001
GRPNAME
1000
PASTMDAC
  0
LINE
  5
1589
  8
241
 10
-5.0
 20
-18.0
 30
0.0
 11
-5.0
 21
-9.9498743710662438
 31
0.0
  0
LINE
  5
158A
  8
240
 10
-5.0
 20
-18.0
 30
0.0
 11
-12.500000000000229
 21
-10.5
 31
0.0
  0
LINE
  5
158B
  8
240
 10
13.50000000000227
 20
-10.0
 30
0.0
 11
10.0
 21
-10.0
 31
0.0
1001
GRPNAME
1000
PASTMDAC
  0
LINE
  5
158C
  8
240
 10
39.999999999999773
 20
-9.0000000000001137
 30
0.0
 11
39.999999999999773
 21
9.0
 31
0.0
  0
LINE
  5
158D
  8
241
 10
13.50000000000227
 20
-10.0
 30
0.0
 11
13.50000000000227
 21
10.0
 31
0.0
  0
LINE
  5
158E
  8
240
 10
8.5
 20
-12.0
 30
0.0
 11
8.5
 21
-11.49999999939393
 31
0.0
  0
LINE
  5
158F
  8
240
 10
4.2000000000000446
 20
-12.5
 30
0.0
 11
4.2000000000000446
 21
-11.700000001004851
 31
0.0
  0
LINE
  5
1590
  8
240
 10
5.7999999999999536
 20
-12.5
 30
0.0
 11
5.7999999999999554
 21
-11.70000000000004
 31
0.0
  0
LINE
  5
1591
  8
242
 10
-5.0
 20
-9.9498743710662438
 30
0.0
 11
0.0
 21
9.9498743710661302
 31
0.0
  0
LINE
  5
1592
  8
242
 10
-5.0
 20
9.9498743710661302
 30
0.0
 11
0.0
 21
-9.9498743710662438
 31
0.0
  0
ARC
  5
1593
  8
241
 10
2.3999999999998631
 20
0.0
 30
0.0
 40
12.39999999999997
 50
126.6392139442973
 51
233.3607860557027
  0
LINE
  5
1594
  8
241
 10
-12.500000000005461
 20
-10.5
 30
0.0
 11
-12.500000000005461
 21
10.5
 31
0.0
1001
GRPNAME
1000
PASTMDAC
  0
LINE
  5
1595
  8
240
 10
0.0
 20
-18.0
 30
0.0
 11
0.0
 21
-12.999999999865279
 31
0.0
1001
GRPNAME
1000
PASTMDAC
  0
LINE
  5
1596
  8
241
 10
16.964101615140631
 20
12.000000000000229
 30
0.0
 11
16.96410161514148
 21
-12.000000000000229
 31
0.0
  0
LINE
  5
1597
  8
241
 10
36.955746629593932
 20
12.0
 30
0.0
 11
36.955746629594401
 21
-12.000000000000229
 31
0.0
1001
GRPNAME
1000
PASTMDAC
  0
LINE
  5
1598
  8
240
 10
-24.062177826496509
 20
10.5
 30
0.0
 11
-25.000000000005461
 21
14.0
 31
0.0
  0
LINE
  5
1599
  8
240
 10
-34.0
 20
12.84529946162081
 30
0.0
 11
-32.0
 21
14.0
 31
0.0
  0
LINE
  5
159A
  8
240
 10
-25.0
 20
14.0
 30
0.0
 11
-32.0
 21
14.0
 31
0.0
  0
ARC
  5
159B
  8
244
 10
-33.0
 20
6.75
 30
0.0
 40
1.0
 50
180.0
 51
270.0
  0
LINE
  5
159C
  8
240
 10
-24.062177826496509
 20
-10.5
 30
0.0
 11
-25.000000000005461
 21
-14.0
 31
0.0
  0
LINE
  5
159D
  8
240
 10
-32.0
 20
-14.0
 30
0.0
 11
-34.0
 21
-12.84529946162081
 31
0.0
  0
ARC
  5
159E
  8
244
 10
-33.0
 20
-6.75
 30
0.0
 40
1.0
 50
90.0
 51
180.0
  0
LINE
  5
159F
  8
240
 10
-25.0
 20
-14.0
 30
0.0
 11
-32.0
 21
-14.0
 31
0.0
  0
LINE
  5
15A0
  8
241
 10
-25.000000000005461
 20
-14.0
 30
0.0
 11
-25.000000000005461
 21
14.0
 31
0.0
  0
LINE
  5
15A1
  8
241
 10
-24.062177826496509
 20
-10.5
 30
0.0
 11
-24.062177826496509
 21
10.5
 31
0.0
  0
LINE
  5
15A2
  8
240
 10
-34.0
 20
-12.84529946162081
 30
0.0
 11
-34.0
 21
12.84529946162081
 31
0.0
1001
GRPNAME
1000
PASTMDAC
  0
LINE
  5
15A3
  8
241
 10
-32.0
 20
-14.0
 30
0.0
 11
-32.0
 21
14.0
 31
0.0
  0
LINE
  5
15A4
  8
240
 10
-12.500000000005461
 20
-10.5
 30
0.0
 11
-24.062177826496509
 21
-10.5
 31
0.0
  0
LINE
  5
15A5
  8
240
 10
-12.500000000005461
 20
10.5
 30
0.0
 11
-24.062177826496509
 21
10.5
 31
0.0
  0
LINE
  5
15A6
  8
245
  6
CENTER2
 10
-38.644090204599927
 20
0.0
 30
0.0
 11
43.703801490689102
 21
0.0
 31
0.0
1001
GRPNAME
1000
PASTMDAC
  0
LINE
  5
15A7
  8
244
 10
-33.0
 20
-5.75
 30
0.0
 11
40.0
 21
-5.75
 31
0.0
  0
LINE
  5
15A8
  8
244
 10
-33.0
 20
5.75
 30
0.0
 11
40.0
 21
5.75
 31
0.0
  0
ENDBLK
  5
15AB
  8
0
  0
ENDSEC
  0
SECTION
  2
ENTITIES
  0
LINE
  5
13AD
  8
250
 10
42.343658670046572
 20
-29.298107910768412
 30
0.0
 11
63.772230098617911
 21
-29.298107910768412
 31
0.0
1001
ITEMNAME
1000
LNSP2
  0
LINE
  5
13BB
  8
250
 10
-48.273778838114822
 20
-19.18732288097976
 30
0.0
 11
-63.273778838114822
 21
-19.18732288097976
 31
0.0
1001
ITEMNAME
1000
LNSP2
  0
LINE
  5
13F2
  8
250
 10
16.127587136963712
 20
28.623631679321988
 30
0.0
 11
36.484729994106381
 21
28.623631679321988
 31
0.0
1001
ITEMNAME
1000
LNSP2
  0
TEXT
  5
14D1
  8
250
 10
20.199015708392292
 20
30.623631679321988
 30
0.0
 40
4.5
  1
\U+220525
  7
YOKO
1001
ITEMNAME
1000
LNSP3
  0
LINE
  5
14D4
  8
250
 10
-25.194114283832349
 20
14.724444369716799
 30
0.0
 11
-29.694313595449241
 21
31.519416844857229
 31
0.0
  0
ARC
  5
14D5
  8
250
 10
-25.000000000005219
 20
13.99999999999911
 30
0.0
 40
16.637434954156799
 50
90.000000000000867
 51
93.461042524820087
  0
LINE
  5
14D8
  8
250
 10
-25.000000000005461
 20
14.75
 30
0.0
 11
-25.000000000005461
 21
32.131939035466992
 31
0.0
  0
LINE
  5
14D9
  8
250
 10
0.0
 20
18.75
 30
0.0
 11
0.0000000000000009
 21
32.131939035466992
 31
0.0
  0
LINE
  5
14DA
  8
250
 10
-21.655000000005462
 20
30.631939035466988
 30
0.0
 11
-3.344999999999998
 21
30.631939035466988
 31
0.0
  0
LINE
  5
14DE
  8
250
 10
-23.312177826496509
 20
-10.5
 30
0.0
 11
-12.99990539085502
 21
-10.5
 31
0.0
  0
LINE
  5
14DF
  8
250
 10
-23.312177826496509
 20
10.5
 30
0.0
 11
-12.99990539085502
 21
10.5
 31
0.0
  0
LINE
  5
14E0
  8
250
 10
-14.49990539085502
 20
-7.155000000000002
 30
0.0
 11
-14.49990539085502
 21
7.1549999999999976
 31
0.0
  0
LINE
  5
14E1
  8
250
 10
-14.49990539085502
 20
10.5
 30
0.0
 11
-14.499905390855011
 21
26.91642857142865
 31
0.0
  0
LINE
  5
14E5
  8
250
 10
40.749999999999773
 20
-5.75
 30
0.0
 11
58.938181514639602
 21
-5.7500000000000053
 31
0.0
  0
LINE
  5
14E6
  8
250
 10
40.749999999999773
 20
5.75
 30
0.0
 11
58.938181514639602
 21
5.7499999999999938
 31
0.0
  0
LINE
  5
14E7
  8
250
 10
57.438181514639609
 20
-2.4050000000000051
 30
0.0
 11
57.438181514639609
 21
2.4049999999999949
 31
0.0
  0
LINE
  5
14E8
  8
250
 10
57.438181514639609
 20
5.7499999999999947
 30
0.0
 11
57.438181514639624
 21
29.8807142857145
 31
0.0
  0
TEXT
  5
14EC
  8
250
 10
45.986515812903718
 20
-27.298107910768412
 30
0.0
 40
4.5
  1
M24
  7
YOKO
1001
ITEMNAME
1000
LNSP3
  0
LINE
  5
14EF
  8
250
 10
0.0
 20
-18.74999999981139
 30
0.0
 11
-0.0000000000000011
 21
-35.84669034323236
 31
0.0
  0
LINE
  5
14F0
  8
250
 10
39.999999999999773
 20
-9.7500000000001137
 30
0.0
 11
39.999999999999773
 21
-35.84669034323236
 31
0.0
  0
LINE
  5
14F1
  8
250
 10
3.344999999999998
 20
-34.346690343232353
 30
0.0
 11
36.654999999999767
 21
-34.346690343232353
 31
0.0
  0
LINE
  5
14F5
  8
250
 10
-34.0
 20
-13.59529946162081
 30
0.0
 11
-34.0
 21
-35.84669034323236
 31
0.0
  0
LINE
  5
14F6
  8
250
 10
0.0
 20
-18.75
 30
0.0
 11
-0.0000000000000011
 21
-35.84669034323236
 31
0.0
  0
LINE
  5
14F7
  8
250
 10
-30.655000000000001
 20
-34.346690343232353
 30
0.0
 11
-3.3450000000000002
 21
-34.346690343232353
 31
0.0
  0
LINE
  5
14FB
  8
250
 10
-34.0
 20
-13.59529946162081
 30
0.0
 11
-34.0
 21
-45.846690343232353
 31
0.0
  0
LINE
  5
14FC
  8
250
 10
39.999999999999773
 20
-9.7500000000001137
 30
0.0
 11
39.999999999999773
 21
-45.846690343232353
 31
0.0
  0
LINE
  5
14FD
  8
250
 10
-30.655000000000001
 20
-44.346690343232353
 30
0.0
 11
36.654999999999767
 21
-44.346690343232353
 31
0.0
  0
TEXT
  5
1503
  8
250
 10
-59.630921695257683
 20
-17.18732288097976
 30
0.0
 40
4.5
  1
R1
  7
YOKO
1001
ITEMNAME
1000
LNSP3
  0
LINE
  5
1504
  8
250
 10
-32.75
 20
-14.0
 30
0.0
 11
-49.53422385292459
 21
-13.999999999999989
 31
0.0
  0
LINE
  5
1505
  8
250
 10
-32.75
 20
14.0
 30
0.0
 11
-49.53422385292459
 21
14.0
 31
0.0
  0
LINE
  5
1506
  8
250
 10
-48.034223852924583
 20
-10.65499999999999
 30
0.0
 11
-48.034223852924583
 21
10.654999999999999
 31
0.0
  0
TEXT
  5
150A
  8
250
 10
55.938181514639609
 20
10.16642857142879
 30
0.0
 40
4.5
  1
\U+2205
 50
90.0
  0
TEXT
  5
150B
  8
250
 10
55.938181514639609
 20
14.23785714285736
 30
0.0
 40
4.5
  1
11.5
 50
90.0
  0
TEXT
  5
150C
  8
250
 10
-15.99990539085502
 20
14.916428571428639
 30
0.0
 40
4.5
  1
\U+2205
 50
90.0
  0
TEXT
  5
150D
  8
250
 10
-15.99990539085502
 20
18.987857142857219
 30
0.0
 40
4.5
  1
21
 50
90.0
  0
TEXT
  5
150E
  8
250
 10
-16.78571428571701
 20
32.131939035466992
 30
0.0
 40
4.5
  1
25
  0
LINE
  5
150F
  8
250
 10
-3.344999999999998
 20
31.189439035466989
 30
0.0
 11
0.0000000000000008
 21
30.631939035466988
 31
0.0
  0
LINE
  5
1510
  8
250
 10
-3.344999999999998
 20
30.074439035466991
 30
0.0
 11
0.0000000000000008
 21
30.631939035466988
 31
0.0
  0
LINE
  5
1511
  8
250
 10
0.0000000000000008
 20
30.631939035466988
 30
0.0
 11
-3.344999999999998
 21
30.631939035466988
 31
0.0
  0
LINE
  5
1512
  8
250
 10
-21.655000000005462
 20
30.074439035466991
 30
0.0
 11
-25.000000000005461
 21
30.631939035466988
 31
0.0
  0
LINE
  5
1513
  8
250
 10
-21.655000000005462
 20
31.189439035466989
 30
0.0
 11
-25.000000000005461
 21
30.631939035466988
 31
0.0
  0
LINE
  5
1514
  8
250
 10
-25.000000000005461
 20
30.631939035466988
 30
0.0
 11
-21.655000000005462
 21
30.631939035466988
 31
0.0
  0
TEXT
  5
1515
  8
250
 10
-33.625646570369469
 20
31.685018235789801
 30
0.0
 40
4.5
  1
15üï
 50
3.1886957174625379
  0
LINE
  5
1516
  8
250
 10
-26.004399577075581
 20
30.60708955065126
 30
0.0
 11
-35.909455929235179
 21
28.997405214968399
 31
0.0
  0
LINE
  5
1517
  8
250
 10
-29.306085027795451
 20
30.070528105423641
 30
0.0
 11
-32.464437540501862
 21
28.96878657244913
 31
0.0
  0
LINE
  5
1518
  8
250
 10
-29.306085027795451
 20
30.070528105423641
 30
0.0
 11
-32.650783374842078
 21
30.11544989594297
 31
0.0
  0
LINE
  5
1519
  8
250
 10
8.4911040465927812
 20
15.39685497565894
 30
0.0
 11
16.127587136963712
 21
28.623631679321988
 31
0.0
1001
ACAD
1000
DSTYLE
1002
{
1070
    40
1040
1.5
1070
    41
1040
2.2299999999999991
1070
   140
1040
3.0
1070
   145
1040
1.0
1070
   289
1070
     3
1002
}
  0
LINE
  5
151A
  8
250
 10
56.880681514639612
 20
2.4049999999999949
 30
0.0
 11
57.438181514639609
 21
5.7499999999999947
 31
0.0
  0
LINE
  5
151B
  8
250
 10
57.995681514639607
 20
2.4049999999999949
 30
0.0
 11
57.438181514639609
 21
5.7499999999999947
 31
0.0
  0
LINE
  5
151C
  8
250
 10
57.438181514639609
 20
5.7499999999999947
 30
0.0
 11
57.438181514639609
 21
2.4049999999999949
 31
0.0
  0
LINE
  5
151D
  8
250
 10
57.995681514639607
 20
-2.4050000000000038
 30
0.0
 11
57.438181514639609
 21
-5.7500000000000044
 31
0.0
  0
LINE
  5
151E
  8
250
 10
56.880681514639612
 20
-2.4050000000000038
 30
0.0
 11
57.438181514639609
 21
-5.7500000000000044
 31
0.0
  0
LINE
  5
151F
  8
250
 10
57.438181514639609
 20
-5.7500000000000044
 30
0.0
 11
57.438181514639609
 21
-2.4050000000000038
 31
0.0
  0
TEXT
  5
1520
  8
250
 10
-1.3928571428572549
 20
-42.846690343232353
 30
0.0
 40
4.5
  1
74
  0
LINE
  5
1521
  8
250
 10
36.654999999999767
 20
-43.789190343232349
 30
0.0
 11
39.999999999999773
 21
-44.346690343232353
 31
0.0
  0
LINE
  5
1522
  8
250
 10
36.654999999999767
 20
-44.904190343232351
 30
0.0
 11
39.999999999999773
 21
-44.346690343232353
 31
0.0
  0
LINE
  5
1523
  8
250
 10
39.999999999999773
 20
-44.346690343232353
 30
0.0
 11
36.654999999999767
 21
-44.346690343232353
 31
0.0
  0
LINE
  5
1524
  8
250
 10
-30.655000000000001
 20
-44.904190343232351
 30
0.0
 11
-34.0
 21
-44.346690343232353
 31
0.0
  0
LINE
  5
1525
  8
250
 10
-30.655000000000001
 20
-43.789190343232349
 30
0.0
 11
-34.0
 21
-44.346690343232353
 31
0.0
  0
LINE
  5
1526
  8
250
 10
-34.0
 20
-44.346690343232353
 30
0.0
 11
-30.655000000000001
 21
-44.346690343232353
 31
0.0
  0
TEXT
  5
1527
  8
250
 10
-21.392857142857139
 20
-32.846690343232353
 30
0.0
 40
4.5
  1
34
  0
LINE
  5
1528
  8
250
 10
-3.3450000000000002
 20
-33.789190343232363
 30
0.0
 11
-0.000000000000001
 21
-34.346690343232353
 31
0.0
  0
LINE
  5
1529
  8
250
 10
-3.3450000000000002
 20
-34.904190343232351
 30
0.0
 11
-0.000000000000001
 21
-34.346690343232353
 31
0.0
  0
LINE
  5
152A
  8
250
 10
-0.000000000000001
 20
-34.346690343232353
 30
0.0
 11
-3.3450000000000002
 21
-34.346690343232353
 31
0.0
  0
LINE
  5
152B
  8
250
 10
-30.655000000000001
 20
-34.904190343232351
 30
0.0
 11
-34.0
 21
-34.346690343232353
 31
0.0
  0
LINE
  5
152C
  8
250
 10
-30.655000000000001
 20
-33.789190343232363
 30
0.0
 11
-34.0
 21
-34.346690343232353
 31
0.0
  0
LINE
  5
152D
  8
250
 10
-34.0
 20
-34.346690343232353
 30
0.0
 11
-30.655000000000001
 21
-34.346690343232353
 31
0.0
  0
TEXT
  5
152E
  8
250
 10
15.7142857142856
 20
-32.846690343232353
 30
0.0
 40
4.5
  1
40
  0
LINE
  5
152F
  8
250
 10
36.654999999999767
 20
-33.789190343232363
 30
0.0
 11
39.999999999999773
 21
-34.346690343232353
 31
0.0
  0
LINE
  5
1530
  8
250
 10
36.654999999999767
 20
-34.904190343232351
 30
0.0
 11
39.999999999999773
 21
-34.346690343232353
 31
0.0
  0
LINE
  5
1531
  8
250
 10
39.999999999999773
 20
-34.346690343232353
 30
0.0
 11
36.654999999999767
 21
-34.346690343232353
 31
0.0
  0
LINE
  5
1532
  8
250
 10
3.344999999999998
 20
-34.904190343232351
 30
0.0
 11
-0.000000000000001
 21
-34.346690343232353
 31
0.0
  0
LINE
  5
1533
  8
250
 10
3.344999999999998
 20
-33.789190343232363
 30
0.0
 11
-0.000000000000001
 21
-34.346690343232353
 31
0.0
  0
LINE
  5
1534
  8
250
 10
-0.000000000000001
 20
-34.346690343232353
 30
0.0
 11
3.344999999999998
 21
-34.346690343232353
 31
0.0
  0
LINE
  5
1535
  8
250
 10
34.029091411293066
 20
-14.896854975658931
 30
0.0
 11
42.343658670046572
 21
-29.298107910768412
 31
0.0
1001
ACAD
1000
DSTYLE
1002
{
1070
    40
1040
1.5
1070
    41
1040
2.2299999999999991
1070
   140
1040
3.0
1070
   145
1040
1.0
1070
   289
1070
     3
1002
}
  0
TEXT
  5
1536
  8
250
 10
-49.53422385292459
 20
-6.1071428571428568
 30
0.0
 40
4.5
  1
\U+2205
 50
90.0
  0
TEXT
  5
1537
  8
250
 10
-49.53422385292459
 20
-2.035714285714286
 30
0.0
 40
4.5
  1
28
 50
90.0
  0
LINE
  5
1538
  8
250
 10
-48.591723852924581
 20
10.654999999999999
 30
0.0
 11
-48.034223852924583
 21
14.0
 31
0.0
  0
LINE
  5
1539
  8
250
 10
-47.476723852924579
 20
10.654999999999999
 30
0.0
 11
-48.034223852924583
 21
14.0
 31
0.0
  0
LINE
  5
153A
  8
250
 10
-48.034223852924583
 20
14.0
 30
0.0
 11
-48.034223852924583
 21
10.654999999999999
 31
0.0
  0
LINE
  5
153B
  8
250
 10
-47.476723852924579
 20
-10.65499999999999
 30
0.0
 11
-48.034223852924583
 21
-13.999999999999989
 31
0.0
  0
LINE
  5
153C
  8
250
 10
-48.591723852924581
 20
-10.65499999999999
 30
0.0
 11
-48.034223852924583
 21
-13.999999999999989
 31
0.0
  0
LINE
  5
153D
  8
250
 10
-48.034223852924583
 20
-13.999999999999989
 30
0.0
 11
-48.034223852924583
 21
-10.65499999999999
 31
0.0
  0
LINE
  5
153E
  8
250
 10
-35.379606781186467
 20
3.146038243154516
 30
0.0
 11
-48.273778838114822
 21
-19.18732288097976
 31
0.0
1001
ACAD
1000
DSTYLE
1002
{
1070
    40
1040
1.5
1070
    41
1040
2.2299999999999991
1070
   140
1040
3.0
1070
   145
1040
1.0
1070
   289
1070
     3
1002
}
  0
LINE
  5
153F
  8
250
 10
-15.05740539085502
 20
7.1549999999999976
 30
0.0
 11
-14.49990539085502
 21
10.5
 31
0.0
  0
LINE
  5
1540
  8
250
 10
-13.94240539085502
 20
7.1549999999999976
 30
0.0
 11
-14.49990539085502
 21
10.5
 31
0.0
  0
LINE
  5
1541
  8
250
 10
-14.49990539085502
 20
10.5
 30
0.0
 11
-14.49990539085502
 21
7.1549999999999976
 31
0.0
  0
LINE
  5
1542
  8
250
 10
-13.94240539085502
 20
-7.155000000000002
 30
0.0
 11
-14.49990539085502
 21
-10.5
 31
0.0
  0
LINE
  5
1543
  8
250
 10
-15.05740539085502
 20
-7.155000000000002
 30
0.0
 11
-14.49990539085502
 21
-10.5
 31
0.0
  0
LINE
  5
1544
  8
250
 10
-14.49990539085502
 20
-10.5
 30
0.0
 11
-14.49990539085502
 21
-7.155000000000002
 31
0.0
  0
LINE
  5
1545
  8
250
 10
-35.862415943796293
 20
3.4247882431545209
 30
0.0
 11
-33.70710678118644
 21
6.0428932188134459
 31
0.0
  0
LINE
  5
1546
  8
250
 10
-34.896797618576649
 20
2.867288243154511
 30
0.0
 11
-33.70710678118644
 21
6.0428932188134459
 31
0.0
  0
LINE
  5
1547
  8
250
 10
-33.70710678118644
 20
6.0428932188134459
 30
0.0
 11
-35.379606781186467
 21
3.146038243154516
 31
0.0
  0
LINE
  5
1548
  8
250
 10
8.973913209202605
 20
15.118104975658939
 30
0.0
 11
6.8186040465927809
 21
12.5
 31
0.0
  0
LINE
  5
1549
  8
250
 10
8.0082948839829555
 20
15.67560497565894
 30
0.0
 11
6.8186040465927809
 21
12.5
 31
0.0
  0
LINE
  5
154A
  8
250
 10
6.8186040465927809
 20
12.5
 30
0.0
 11
8.4911040465927812
 21
15.39685497565894
 31
0.0
  0
LINE
  5
154B
  8
250
 10
33.546282248683241
 20
-15.17560497565894
 30
0.0
 11
32.356591411293039
 21
-12.0
 31
0.0
  0
LINE
  5
154C
  8
250
 10
34.511900573902878
 20
-14.61810497565893
 30
0.0
 11
32.356591411293039
 21
-12.0
 31
0.0
  0
LINE
  5
154D
  8
250
 10
32.356591411293039
 20
-12.0
 30
0.0
 11
34.029091411293066
 21
-14.896854975658931
 31
0.0
  0
TEXT
  5
155A
  8
241
 10
-35.0
 20
49.0
 30
0.0
 40
5.0
  1
PVD50
  7
YOKO
  0
INSERT
  5
15AC
  8
240
  2
A$C3A2955F2
 10
0.0
 20
0.0
 30
0.0
  0
VIEWPORT
  5
22
 67
     1
  8
0
 10
261.51769911504419
 20
148.5
 30
0.0
 40
523.0353982300885
 41
297.0
 68
     1
 69
     1
1001
ACAD
1000
MVIEW
1002
{
1070
    16
1010
0.0
1020
0.0
1030
0.0
1010
0.0
1020
0.0
1030
1.0
1040
0.0
1040
297.0
1040
261.51769911504419
1040
148.5
1040
50.0
1040
0.0
1040
0.0
1070
     0
1070
   100
1070
     1
1070
     1
1070
     0
1070
     0
1070
     0
1070
     0
1040
0.0
1040
0.0
1040
0.0
1040
1.0
1040
1.0
1040
10.0
1040
10.0
1070
     0
1002
{
1002
}
1002
}
1001
GENIUS_GENODEF_13
1002
{
1000
HIER
1070
     0
1002
}
1002
{
1000
MANEDIT
1070
     0
1002
}
1002
{
1000
NOSEL
1070
     0
1002
}
1002
{
1000
BEHIND
1070
     0
1002
}
1002
{
1000
OTHER
1070
     0
1002
}
1002
{
1000
REACTOR
1002
}
1001
GENIUS_GENOBJ-N-SDF_13
1002
{
1000
OWNER
1000
GEN
1002
}
1001
GENIUS_GENSCREG_15
1000
PF
1040
1.0
1000
DF
1040
1.0
1000
MIN
1011
0.0
1021
-7.1525744415337473E+195
1031
-3.4742776523824653E+066
1021
0.0
1031
0.0
1000
MAX
1011
523.0353982300885
1021
-7.1525744415337473E+195
1031
-3.4742776523824653E+066
1021
297.0
1031
0.0
1000
FLAGS
1070
     2
  0
ENDSEC
  0
EOF
