  0
SECTION
  2
HEADER
  9
$ACADVER
  1
AC1009
  9
$INSBASE
 10
0.0
 20
0.0
 30
0.0
  9
$EXTMIN
 10
-53.939999999999998
 20
-39.79999999999994
 30
0.0
  9
$EXTMAX
 10
49.108946385646959
 20
47.0
 30
0.0
  9
$LIMMIN
 10
0.0
 20
0.0
  9
$LIMMAX
 10
297.0
 20
210.0
  9
$ORTHOMODE
 70
     0
  9
$REGENMODE
 70
     1
  9
$FILLMODE
 70
     1
  9
$QTEXTMODE
 70
     0
  9
$MIRRTEXT
 70
     1
  9
$DRAGMODE
 70
     2
  9
$LTSCALE
 40
10.0
  9
$OSMODE
 70
    37
  9
$ATTMODE
 70
     1
  9
$TEXTSIZE
 40
3.0
  9
$TRACEWID
 40
1.0
  9
$TEXTSTYLE
  7
YOKO
  9
$CLAYER
  8
240
  9
$CELTYPE
  6
BYLAYER
  9
$CECOLOR
 62
   256
  9
$DIMSCALE
 40
1.0
  9
$DIMASZ
 40
2.2299999999999991
  9
$DIMEXO
 40
0.5
  9
$DIMDLI
 40
7.0
  9
$DIMRND
 40
0.0
  9
$DIMDLE
 40
0.0
  9
$DIMEXE
 40
1.0
  9
$DIMTP
 40
0.0
  9
$DIMTM
 40
0.01
  9
$DIMTXT
 40
2.7999999999999989
  9
$DIMCEN
 40
0.0
  9
$DIMTSZ
 40
0.0
  9
$DIMTOL
 70
     0
  9
$DIMLIM
 70
     0
  9
$DIMTIH
 70
     0
  9
$DIMTOH
 70
     0
  9
$DIMSE1
 70
     0
  9
$DIMSE2
 70
     0
  9
$DIMTAD
 70
     3
  9
$DIMZIN
 70
     9
  9
$DIMBLK
  1
OPEN
  9
$DIMASO
 70
     1
  9
$DIMSHO
 70
     1
  9
$DIMPOST
  1

  9
$DIMAPOST
  1

  9
$DIMALT
 70
     0
  9
$DIMALTD
 70
     2
  9
$DIMALTF
 40
25.399999999999999
  9
$DIMLFAC
 40
1.0
  9
$DIMTOFL
 70
     1
  9
$DIMTVP
 40
0.0
  9
$DIMTIX
 70
     1
  9
$DIMSOXD
 70
     0
  9
$DIMSAH
 70
     0
  9
$DIMBLK1
  1

  9
$DIMBLK2
  1

  9
$DIMSTYLE
  2
BIGT
  9
$DIMCLRD
 70
   256
  9
$DIMCLRE
 70
   256
  9
$DIMCLRT
 70
    40
  9
$DIMTFAC
 40
1.0
  9
$DIMGAP
 40
1.0
  9
$LUNITS
 70
     2
  9
$LUPREC
 70
     6
  9
$SKETCHINC
 40
1.0
  9
$FILLETRAD
 40
0.0
  9
$AUNITS
 70
     0
  9
$AUPREC
 70
     6
  9
$MENU
  1
.
  9
$ELEVATION
 40
0.0
  9
$PELEVATION
 40
0.0
  9
$THICKNESS
 40
0.0
  9
$LIMCHECK
 70
     0
  9
$BLIPMODE
 70
     0
  9
$CHAMFERA
 40
0.2
  9
$CHAMFERB
 40
0.2
  9
$SKPOLY
 70
     0
  9
$TDCREATE
 40
2459695.4111841088
  9
$TDUPDATE
 40
2459695.4309380329
  9
$TDINDWG
 40
0.0196810532
  9
$TDUSRTIMER
 40
0.0196810185
  9
$USRTIMER
 70
     1
  9
$ANGBASE
 50
0.0
  9
$ANGDIR
 70
     0
  9
$PDMODE
 70
     1
  9
$PDSIZE
 40
0.0
  9
$PLINEWID
 40
0.0
  9
$COORDS
 70
     1
  9
$SPLFRAME
 70
     0
  9
$SPLINETYPE
 70
     6
  9
$SPLINESEGS
 70
     4
  9
$ATTDIA
 70
     1
  9
$ATTREQ
 70
     1
  9
$HANDLING
 70
     1
  9
$HANDSEED
  5
4513
  9
$SURFTAB1
 70
     6
  9
$SURFTAB2
 70
     6
  9
$SURFTYPE
 70
     6
  9
$SURFU
 70
     6
  9
$SURFV
 70
     6
  9
$UCSNAME
  2

  9
$UCSORG
 10
0.0
 20
0.0
 30
0.0
  9
$UCSXDIR
 10
1.0
 20
0.0
 30
0.0
  9
$UCSYDIR
 10
0.0
 20
1.0
 30
0.0
  9
$PUCSNAME
  2

  9
$PUCSORG
 10
0.0
 20
0.0
 30
0.0
  9
$PUCSXDIR
 10
1.0
 20
0.0
 30
0.0
  9
$PUCSYDIR
 10
0.0
 20
1.0
 30
0.0
  9
$USERI1
 70
     1
  9
$USERI2
 70
     0
  9
$USERI3
 70
     0
  9
$USERI4
 70
     0
  9
$USERI5
 70
     0
  9
$USERR1
 40
0.0
  9
$USERR2
 40
0.0
  9
$USERR3
 40
0.0
  9
$USERR4
 40
0.0
  9
$USERR5
 40
0.0
  9
$WORLDVIEW
 70
     1
  9
$SHADEDGE
 70
     3
  9
$SHADEDIF
 70
    70
  9
$TILEMODE
 70
     1
  9
$MAXACTVP
 70
    16
  9
$PLIMCHECK
 70
     0
  9
$PEXTMIN
 10
1.0000000000000000E+020
 20
1.0000000000000000E+020
 30
1.0000000000000000E+020
  9
$PEXTMAX
 10
-1.0000000000000000E+020
 20
-1.0000000000000000E+020
 30
-1.0000000000000000E+020
  9
$PLIMMIN
 10
0.0
 20
0.0
  9
$PLIMMAX
 10
420.0
 20
297.0
  9
$UNITMODE
 70
     0
  9
$VISRETAIN
 70
     1
  9
$PLINEGEN
 70
     0
  9
$PSLTSCALE
 70
     1
  0
ENDSEC
  0
SECTION
  2
TABLES
  0
TABLE
  2
VPORT
 70
     1
  0
VPORT
  2
*ACTIVE
 70
     0
 10
0.0
 20
0.0
 11
1.0
 21
1.0
 12
6.7056765073655242
 22
0.296129007336134
 13
0.0
 23
0.0
 14
7.0
 24
7.0
 15
7.0
 25
7.0
 16
0.0
 26
0.0
 36
1.0
 17
0.0
 27
0.0
 37
0.0
 40
149.99199843165661
 41
1.5992366412213741
 42
50.0
 43
0.0
 44
0.0
 50
0.0
 51
0.0
 71
     0
 72
  2000
 73
     1
 74
     0
 75
     1
 76
     1
 77
     0
 78
     0
  0
ENDTAB
  0
TABLE
  2
LTYPE
 70
    13
  0
LTYPE
  2
CONTINUOUS
 70
     0
  3
Solid line
 72
    65
 73
     0
 40
0.0
  0
LTYPE
  2
CENTER2
 70
     0
  3
___ _ ___ _ ___ _ ___ _ ___ _ ___ _ ___ _ ___ _
 72
    65
 73
     4
 40
1.125
 49
0.75
 49
-0.125
 49
0.125
 49
-0.125
  0
LTYPE
  2
HIDDEN2
 70
     0
  3
_ _ _ _ _ _ _ _ _ _ _ _ _ _ _ _ _ _ _ _ _ _ _ _
 72
    65
 73
     2
 40
0.1875
 49
0.125
 49
-0.0625
  0
LTYPE
  2
PHANTOM2
 70
     0
  3
___ _ _ ___ _ _ ___ _ _ ___ _ _ ___ _ _ ___ _ _
 72
    65
 73
     6
 40
1.25
 49
0.625
 49
-0.125
 49
0.125
 49
-0.125
 49
0.125
 49
-0.125
  0
LTYPE
  2
AM_ISO02W050
 70
     0
  3
__ __ __ __ __ __ __ __ __ __ __ __ __ __ __
 72
    65
 73
     2
 40
7.5
 49
6.0
 49
-1.5
  0
LTYPE
  2
AMCONSTR
 70
     0
  3
_______________________
 72
    65
 73
     2
 40
9999.0
 49
9999.0
 49
0.0
  0
LTYPE
  2
ACISOWELD
 70
     0
  3
_ _ _ _ _
 72
    65
 73
     2
 40
2.0
 49
2.0
 49
-1.0
  0
LTYPE
  2
ACISOTGB
 70
     0
  3
__ . . __ . .
 72
    65
 73
     6
 40
9.0
 49
4.0
 49
-1.0
 49
1.0
 49
-1.0
 49
1.0
 49
-1.0
  0
LTYPE
  2
ACISOTGL
 70
     0
  3
_ _ _ _ _
 72
    65
 73
     2
 40
3.0
 49
2.0
 49
-1.0
  0
LTYPE
  2
ACJISTGB
 70
     0
  3
__ . . __ . .
 72
    65
 73
     6
 40
9.0
 49
4.0
 49
-1.0
 49
1.0
 49
-1.0
 49
1.0
 49
-1.0
  0
LTYPE
  2
ACJISTGL
 70
     0
  3
_ _ _ _ _
 72
    65
 73
     2
 40
3.0
 49
2.0
 49
-1.0
  0
ENDTAB
  0
TABLE
  2
LAYER
 70
     7
  0
LAYER
  2
0
 70
     0
 62
     7
  6
CONTINUOUS
  0
LAYER
  2
DEFPOINTS
 70
     0
 62
     7
  6
CONTINUOUS
  0
LAYER
  2
245
 70
     0
 62
     2
  6
CENTER2
  0
LAYER
  2
240
 70
     0
 62
     4
  6
CONTINUOUS
  0
LAYER
  2
241
 70
     0
 62
   211
  6
CONTINUOUS
  0
LAYER
  2
242
 70
     0
 62
     3
  6
CONTINUOUS
  0
LAYER
  2
250
 70
     0
 62
     3
  6
CONTINUOUS
  0
ENDTAB
  0
TABLE
  2
STYLE
 70
     6
  0
STYLE
  2
STANDARD
 70
     0
 40
0.0
 41
1.0
 50
0.0
 71
     0
 42
3.0
  3
romans.shx
  4
extfont.shx
  0
STYLE
  2
ACISOTS
 70
     0
 40
1.0
 41
1.0
 50
0.0
 71
     0
 42
3.0
  3
amgdt.shx
  4
extfont.shx
  0
STYLE
  2
ACISOGDT
 70
     0
 40
0.0
 41
1.0
 50
0.0
 71
     0
 42
3.0
  3
amgdt.shx
  4
extfont.shx
  0
STYLE
  2
ACJISTS
 70
     0
 40
1.0
 41
1.0
 50
0.0
 71
     0
 42
3.0
  3
amgdt.shx
  4
extfont.shx
  0
STYLE
  2
ACJISGDT
 70
     0
 40
0.0
 41
1.0
 50
0.0
 71
     0
 42
3.0
  3
amgdt.shx
  4
extfont.shx
  0
STYLE
  2
YOKO
 70
     0
 40
0.0
 41
1.0
 50
0.0
 71
     0
 42
3.0
  3
romans.shx
  4
extfont.shx
  0
ENDTAB
  0
TABLE
  2
VIEW
 70
     0
  0
ENDTAB
  0
TABLE
  2
UCS
 70
     0
  0
ENDTAB
  0
TABLE
  2
APPID
 70
    35
  0
APPID
  2
ACAD
 70
     0
  0
APPID
  2
GLOBAL
 70
     0
  0
APPID
  2
DETAIL
 70
     0
  0
APPID
  2
GRPNAME
 70
     0
  0
APPID
  2
GPARA
 70
     0
  0
APPID
  2
MCAD_NO_VIS
 70
     0
  0
APPID
  2
ACAD_TEMP_GRAPHIC
 70
     0
  0
APPID
  2
ACATTRIBSERVICES
 70
     0
  0
APPID
  2
GENIUS_GENSCREG_15
 70
     0
  0
APPID
  2
GENIUS_GENODEF_13
 70
     0
  0
APPID
  2
GENIUS_GENOBJ-N-SDF_13
 70
     0
  0
APPID
  2
GENIUS_GENREC_14
 70
     0
  0
APPID
  2
GENIUS_GENOBJ-N-REC_13
 70
     0
  0
APPID
  2
GENIUS_GENDIMSH_14
 70
     0
  0
APPID
  2
GENIUS_GENOBJ-N-DIM_13
 70
     0
  0
APPID
  2
GENIUS_GENDIM_13
 70
     0
  0
APPID
  2
GENIUS_GENDTOL_13
 70
     0
  0
APPID
  2
GENIUS_GENOLIS_13
 70
     0
  0
APPID
  2
GENIUS_GENOENT_13
 70
     0
  0
APPID
  2
GENIUS_GENOBJ-F-FEM_13
 70
     0
  0
APPID
  2
GENIUS_GENOREF_13
 70
     0
  0
APPID
  2
GENIUS_GEFFEM_13
 70
     0
  0
APPID
  2
GENIUS_GEFFEMP_13
 70
     0
  0
APPID
  2
AD_DRAW
 70
     0
  0
APPID
  2
DESIGNERASSEMBLIES
 70
     0
  0
APPID
  2
ACADM_DIM_EDIT
 70
     0
  0
APPID
  2
AMDT_DM_ADJ
 70
     0
  0
APPID
  2
ITEMNAME
 70
     0
  0
APPID
  2
GENIUS_GENOBJ-N-FIL_13
 70
     0
  0
APPID
  2
GENIUS_GENFIL_13
 70
     0
  0
APPID
  2
GENIUS_GENOBJ-N-CHA_13
 70
     0
  0
APPID
  2
ACAD_NAV_VCDISPLAY
 70
     0
  0
APPID
  2
ACAD_PSEXT
 70
     0
  0
APPID
  2
ACAD_EXEMPT_FROM_CAD_STANDARDS
 70
     0
  0
APPID
  2
ACAD_MLEADERVER
 70
     0
  0
ENDTAB
  0
TABLE
  2
DIMSTYLE
 70
    23
  0
DIMSTYLE
  2
BIGT
 70
     0
  3

  4

  5
OPEN
  6

  7

 40
1.0
 41
2.2299999999999991
 42
0.5
 43
7.0
 44
1.0
 45
0.0
 46
0.0
 47
0.0
 48
0.01
140
2.7999999999999989
141
0.0
142
0.0
143
25.399999999999999
144
1.0
145
0.0
146
1.0
147
1.0
 71
     0
 72
     0
 73
     0
 74
     0
 75
     0
 76
     0
 77
     3
 78
     9
170
     0
171
     2
172
     1
173
     0
174
     1
175
     0
176
   256
177
   256
178
    40
  0
DIMSTYLE
  2
AM_ISO
 70
     0
  3

  4
"
  5

  6

  7

 40
1.0
 41
2.5
 42
1.0
 43
10.0
 44
1.0
 45
0.0
 46
0.0
 47
0.1
 48
0.1
140
3.5
141
0.0
142
0.0
143
0.0393701
144
1.0
145
0.0
146
0.71
147
1.5
 71
     0
 72
     0
 73
     0
 74
     0
 75
     0
 76
     0
 77
     1
 78
     8
170
     0
171
     2
172
     1
173
     0
174
     0
175
     0
176
   256
177
   256
178
     2
  0
DIMSTYLE
  2
AM_ISO$3
 70
     0
  3

  4
"
  5

  6

  7

 40
1.0
 41
2.5
 42
1.0
 43
10.0
 44
1.0
 45
0.0
 46
0.0
 47
0.1
 48
0.1
140
3.5
141
0.0
142
0.0
143
0.0393701
144
1.0
145
0.0
146
0.71
147
1.5
 71
     0
 72
     0
 73
     0
 74
     1
 75
     0
 76
     0
 77
     1
 78
     8
170
     0
171
     2
172
     0
173
     0
174
     0
175
     0
176
   256
177
   256
178
     2
  0
DIMSTYLE
  2
AM_ISO$4
 70
     0
  3

  4
"
  5

  6

  7

 40
1.0
 41
2.5
 42
1.0
 43
10.0
 44
1.0
 45
0.0
 46
0.0
 47
0.1
 48
0.1
140
3.5
141
0.0
142
0.0
143
0.0393701
144
1.0
145
0.0
146
0.71
147
1.5
 71
     0
 72
     0
 73
     0
 74
     1
 75
     0
 76
     0
 77
     1
 78
     8
170
     0
171
     2
172
     0
173
     0
174
     0
175
     0
176
   256
177
   256
178
     2
  0
DIMSTYLE
  2
AM_ISO$6
 70
     0
  3

  4
"
  5

  6

  7

 40
1.0
 41
2.5
 42
1.0
 43
10.0
 44
1.0
 45
0.0
 46
0.0
 47
0.1
 48
0.1
140
3.5
141
0.0
142
0.0
143
0.0393701
144
1.0
145
0.0
146
0.71
147
1.5
 71
     0
 72
     0
 73
     0
 74
     0
 75
     0
 76
     0
 77
     0
 78
     8
170
     0
171
     2
172
     1
173
     0
174
     0
175
     0
176
   256
177
   256
178
     2
  0
DIMSTYLE
  2
AM_ISO$7
 70
     0
  3

  4
"
  5

  6

  7

 40
1.0
 41
2.5
 42
1.0
 43
10.0
 44
1.0
 45
0.0
 46
0.0
 47
0.1
 48
0.1
140
5.0
141
0.0
142
0.0
143
0.0393701
144
1.0
145
0.0
146
0.71
147
1.5
 71
     0
 72
     0
 73
     0
 74
     0
 75
     0
 76
     0
 77
     1
 78
     8
170
     0
171
     2
172
     1
173
     0
174
     0
175
     0
176
   256
177
   256
178
     2
  0
DIMSTYLE
  2
AM_ISO$SF
 70
     0
  3

  4
"
  5

  6

  7

 40
1.0
 41
2.5
 42
1.0
 43
10.0
 44
1.0
 45
0.0
 46
0.0
 47
0.1
 48
0.1
140
3.5
141
0.0
142
0.0
143
0.0393701
144
1.0
145
0.0
146
0.71
147
1.5
 71
     0
 72
     0
 73
     0
 74
     0
 75
     1
 76
     1
 77
     1
 78
     8
170
     0
171
     2
172
     1
173
     0
174
     0
175
     0
176
   256
177
   256
178
     2
  0
DIMSTYLE
  2
AM_ISO$SH
 70
     0
  3

  4
"
  5

  6
GENAXEH
  7

 40
1.0
 41
2.5
 42
1.0
 43
10.0
 44
1.0
 45
0.0
 46
0.0
 47
0.1
 48
0.1
140
3.5
141
0.0
142
0.0
143
0.0393701
144
2.0
145
0.0
146
0.71
147
1.5
 71
     0
 72
     0
 73
     0
 74
     0
 75
     1
 76
     1
 77
     1
 78
     8
170
     0
171
     2
172
     1
173
     1
174
     0
175
     0
176
   256
177
   256
178
     2
  0
DIMSTYLE
  2
BIGT$2
 70
     0
  3

  4

  5
OPEN
  6

  7

 40
1.0
 41
2.2299999999999991
 42
0.5
 43
7.0
 44
1.0
 45
0.0
 46
0.0
 47
0.0
 48
0.01
140
2.7999999999999989
141
0.0
142
0.0
143
25.399999999999999
144
1.0
145
0.0
146
1.0
147
1.0
 71
     0
 72
     0
 73
     0
 74
     0
 75
     0
 76
     0
 77
     3
 78
     9
170
     0
171
     2
172
     1
173
     0
174
     0
175
     0
176
   256
177
   256
178
    40
  0
DIMSTYLE
  2
BIGT$3
 70
     0
  3

  4

  5
OPEN
  6

  7

 40
1.0
 41
2.2299999999999991
 42
0.5
 43
2.5
 44
1.0
 45
0.0
 46
0.0
 47
0.0
 48
0.01
140
2.7999999999999989
141
0.0
142
0.0
143
25.399999999999999
144
1.0
145
0.0
146
1.0
147
1.0
 71
     0
 72
     0
 73
     0
 74
     0
 75
     0
 76
     0
 77
     3
 78
     9
170
     0
171
     2
172
     1
173
     0
174
     0
175
     0
176
   256
177
   256
178
    40
  0
DIMSTYLE
  2
BIGT$7
 70
     0
  3

  4

  5
OPEN
  6

  7

 40
0.0
 41
2.2299999999999991
 42
0.5
 43
7.0
 44
1.0
 45
0.0
 46
0.0
 47
0.0
 48
0.01
140
2.7999999999999989
141
0.0
142
0.0
143
25.399999999999999
144
1.0
145
0.0
146
1.0
147
1.0
 71
     0
 72
     0
 73
     0
 74
     0
 75
     0
 76
     0
 77
     3
 78
     9
170
     0
171
     2
172
     0
173
     0
174
     0
175
     0
176
   256
177
   256
178
    40
  0
DIMSTYLE
  2
BIGT$6
 70
     0
  3

  4

  5
OPEN
  6

  7

 40
1.0
 41
2.2299999999999991
 42
0.5
 43
2.5
 44
1.0
 45
0.0
 46
0.0
 47
0.0
 48
0.01
140
2.7999999999999989
141
0.0
142
0.0
143
25.399999999999999
144
1.0
145
0.0
146
1.0
147
1.0
 71
     0
 72
     0
 73
     0
 74
     0
 75
     0
 76
     0
 77
     3
 78
     9
170
     0
171
     2
172
     1
173
     0
174
     0
175
     0
176
   256
177
   256
178
    40
  0
DIMSTYLE
  2
BIGT$0
 70
     0
  3

  4

  5
OPEN
  6

  7

 40
1.0
 41
2.2299999999999991
 42
0.5
 43
7.0
 44
1.0
 45
0.0
 46
0.0
 47
0.0
 48
0.01
140
2.7999999999999989
141
0.0
142
0.0
143
25.399999999999999
144
1.0
145
0.0
146
1.0
147
1.0
 71
     0
 72
     0
 73
     0
 74
     0
 75
     0
 76
     0
 77
     3
 78
     9
170
     0
171
     2
172
     1
173
     0
174
     1
175
     0
176
   256
177
   256
178
    40
  0
DIMSTYLE
  2
BIGT$4
 70
     0
  3

  4

  5
OPEN
  6

  7

 40
1.0
 41
2.2299999999999991
 42
0.5
 43
2.5
 44
1.0
 45
0.0
 46
0.0
 47
0.0
 48
0.01
140
2.7999999999999989
141
0.0
142
0.0
143
25.399999999999999
144
1.0
145
0.0
146
1.0
147
1.0
 71
     0
 72
     0
 73
     0
 74
     0
 75
     0
 76
     0
 77
     3
 78
     9
170
     0
171
     2
172
     1
173
     0
174
     0
175
     0
176
   256
177
   256
178
    40
  0
DIMSTYLE
  2
BIGT$SH
 70
     0
  3

  4

  5
OPEN
  6

  7

 40
1.0
 41
2.2299999999999991
 42
0.5
 43
7.0
 44
1.0
 45
0.0
 46
0.0
 47
0.0
 48
0.0
140
2.7999999999999989
141
0.0
142
0.0
143
25.399999999999999
144
1.0
145
0.0
146
1.0
147
1.0
 71
     0
 72
     0
 73
     0
 74
     0
 75
     0
 76
     0
 77
     3
 78
     9
170
     0
171
     2
172
     1
173
     0
174
     0
175
     0
176
   256
177
   256
178
    40
  0
DIMSTYLE
  2
BIGT$SF
 70
     0
  3

  4

  5
OPEN
  6

  7

 40
1.0
 41
2.2299999999999991
 42
0.5
 43
7.0
 44
1.0
 45
0.0
 46
0.0
 47
0.0
 48
0.0
140
2.7999999999999989
141
0.0
142
0.0
143
25.399999999999999
144
1.0
145
0.0
146
1.0
147
1.0
 71
     0
 72
     0
 73
     0
 74
     0
 75
     0
 76
     0
 77
     3
 78
     9
170
     0
171
     2
172
     1
173
     0
174
     0
175
     0
176
   256
177
   256
178
    40
  0
DIMSTYLE
  2
TECHNICAL_OSAKA
 70
     0
  3

  4
"
  5
OPEN30
  6

  7

 40
1.0
 41
2.5
 42
1.0
 43
10.0
 44
1.0
 45
0.0
 46
0.0
 47
0.1
 48
0.1
140
2.7999999999999989
141
0.0
142
0.0
143
0.0393701
144
1.0
145
0.0
146
0.71
147
1.5
 71
     0
 72
     0
 73
     0
 74
     0
 75
     0
 76
     0
 77
     3
 78
     8
170
     0
171
     2
172
     1
173
     0
174
     0
175
     0
176
   256
177
   256
178
    40
  0
DIMSTYLE
  2
TECHNICAL_OSAKA$3
 70
     0
  3

  4
"
  5
OPEN30
  6

  7

 40
1.0
 41
2.5
 42
1.0
 43
10.0
 44
1.0
 45
0.0
 46
0.0
 47
0.1
 48
0.1
140
2.7999999999999989
141
0.0
142
0.0
143
0.0393701
144
1.0
145
0.0
146
0.71
147
1.5
 71
     0
 72
     0
 73
     0
 74
     1
 75
     0
 76
     0
 77
     3
 78
     8
170
     0
171
     2
172
     0
173
     0
174
     0
175
     0
176
   256
177
   256
178
    40
  0
DIMSTYLE
  2
TECHNICAL_OSAKA$4
 70
     0
  3

  4
"
  5
OPEN30
  6

  7

 40
1.0
 41
2.5
 42
1.0
 43
10.0
 44
1.0
 45
0.0
 46
0.0
 47
0.1
 48
0.1
140
2.7999999999999989
141
0.0
142
0.0
143
0.0393701
144
1.0
145
0.0
146
0.71
147
1.5
 71
     0
 72
     0
 73
     0
 74
     1
 75
     0
 76
     0
 77
     3
 78
     8
170
     0
171
     2
172
     0
173
     0
174
     0
175
     0
176
   256
177
   256
178
    40
  0
DIMSTYLE
  2
TECHNICAL_OSAKA$6
 70
     0
  3

  4
"
  5
OPEN30
  6

  7

 40
1.0
 41
2.5
 42
1.0
 43
10.0
 44
1.0
 45
0.0
 46
0.0
 47
0.1
 48
0.1
140
2.7999999999999989
141
0.0
142
0.0
143
0.0393701
144
1.0
145
0.0
146
0.71
147
1.5
 71
     0
 72
     0
 73
     0
 74
     0
 75
     0
 76
     0
 77
     0
 78
     8
170
     0
171
     2
172
     1
173
     0
174
     0
175
     0
176
   256
177
   256
178
    40
  0
DIMSTYLE
  2
TECHNICAL_OSAKA$7
 70
     0
  3

  4
"
  5
OPEN30
  6

  7

 40
1.0
 41
2.5
 42
1.0
 43
10.0
 44
1.0
 45
0.0
 46
0.0
 47
0.1
 48
0.1
140
2.7999999999999989
141
0.0
142
0.0
143
0.0393701
144
1.0
145
0.0
146
0.71
147
1.5
 71
     0
 72
     0
 73
     0
 74
     0
 75
     0
 76
     0
 77
     3
 78
     8
170
     0
171
     2
172
     1
173
     0
174
     0
175
     0
176
   256
177
   256
178
    40
  0
DIMSTYLE
  2
TECHNICAL_OSAKA$SF
 70
     0
  3

  4
"
  5
OPEN30
  6
OPEN30
  7
OPEN30
 40
1.0
 41
2.5
 42
1.0
 43
10.0
 44
1.0
 45
0.0
 46
0.0
 47
0.1
 48
0.1
140
3.5
141
0.0
142
0.0
143
0.0393701
144
1.0
145
0.0
146
0.71
147
1.5
 71
     0
 72
     0
 73
     0
 74
     0
 75
     1
 76
     1
 77
     3
 78
     8
170
     0
171
     2
172
     1
173
     0
174
     0
175
     0
176
   256
177
   256
178
    40
  0
DIMSTYLE
  2
TECHNICAL_OSAKA$SH
 70
     0
  3

  4
"
  5
OPEN30
  6
GENAXEH
  7
OPEN30
 40
1.0
 41
2.5
 42
1.0
 43
10.0
 44
1.0
 45
0.0
 46
0.0
 47
0.1
 48
0.1
140
3.5
141
0.0
142
0.0
143
0.0393701
144
2.0
145
0.0
146
0.71
147
1.5
 71
     0
 72
     0
 73
     0
 74
     0
 75
     1
 76
     1
 77
     3
 78
     8
170
     0
171
     2
172
     1
173
     1
174
     0
175
     0
176
   256
177
   256
178
    40
  0
ENDTAB
  0
ENDSEC
  0
SECTION
  2
BLOCKS
  0
BLOCK
  8
0
  2
$MODEL_SPACE
 70
     0
 10
0.0
 20
0.0
 30
0.0
  3
$MODEL_SPACE
  1

  0
ENDBLK
  5
1C
  8
0
  0
BLOCK
 67
     1
  8
0
  2
$PAPER_SPACE
 70
     0
 10
0.0
 20
0.0
 30
0.0
  3
$PAPER_SPACE
  1

  0
ENDBLK
  5
19
 67
     1
  8
0
  0
BLOCK
  8
0
  2
_OPEN
 70
     0
 10
0.0
 20
0.0
 30
0.0
  3
_OPEN
  1

  0
LINE
  5
4426
  8
0
  6
BYBLOCK
 62
     0
 10
-1.0
 20
0.1666666666666666
 30
0.0
 11
0.0
 21
0.0
 31
0.0
  0
LINE
  5
4427
  8
0
  6
BYBLOCK
 62
     0
 10
-1.0
 20
-0.1666666666666666
 30
0.0
 11
0.0
 21
0.0
 31
0.0
  0
LINE
  5
4428
  8
0
  6
BYBLOCK
 62
     0
 10
0.0
 20
0.0
 30
0.0
 11
-1.0
 21
0.0
 31
0.0
  0
ENDBLK
  5
4429
  8
0
  0
BLOCK
  8
0
  2
GENAXEH
 70
     0
 10
0.0
 20
0.0
 30
0.0
  3
GENAXEH
  1

  0
LINE
  5
4461
  8
0
 10
-1.0
 20
0.0
 30
0.0
 11
1.0
 21
0.0
 31
0.0
  0
ENDBLK
  5
4462
  8
0
  0
BLOCK
  8
0
  2
_OPEN30
 70
     0
 10
0.0
 20
0.0
 30
0.0
  3
_OPEN30
  1

  0
LINE
  5
449D
  8
0
  6
BYBLOCK
 62
     0
 10
-1.0
 20
0.26794919
 30
0.0
 11
0.0
 21
0.0
 31
0.0
  0
LINE
  5
449E
  8
0
  6
BYBLOCK
 62
     0
 10
0.0
 20
0.0
 30
0.0
 11
-1.0
 21
-0.26794919
 31
0.0
  0
LINE
  5
449F
  8
0
  6
BYBLOCK
 62
     0
 10
0.0
 20
0.0
 30
0.0
 11
-1.0
 21
0.0
 31
0.0
  0
ENDBLK
  5
44A0
  8
0
  0
ENDSEC
  0
SECTION
  2
ENTITIES
  0
TEXT
  5
423C
  8
241
  6
CONTINUOUS
 10
-42.0
 20
42.0
 30
0.0
 40
5.0
  1
POM40MG
  7
YOKO
 11
-42.0
 21
42.0
 31
0.0
 73
     1
  0
LINE
  5
423D
  8
245
  6
CENTER2
 10
-37.99999999999978
 20
-0.0000000000000568
 30
0.0
 11
28.000000000000458
 21
0.0000000000000568
 31
0.0
  0
LINE
  5
423E
  8
240
  6
CONTINUOUS
 10
-9.0
 20
-4.9999999999999432
 30
0.0
 11
-28.0
 21
-4.9999999999999432
 31
0.0
1001
GRPNAME
1000
PASTMD3Z
  0
LINE
  5
423F
  8
240
  6
CONTINUOUS
 10
-9.0
 20
5.000000000000056
 30
0.0
 11
-28.0
 21
5.000000000000056
 31
0.0
1001
GRPNAME
1000
PASTMD3Z
  0
LINE
  5
4240
  8
241
  6
CONTINUOUS
 10
-31.0
 20
7.500000000000056
 30
0.0
 11
-31.0
 21
-7.4999999999999432
 31
0.0
  0
LINE
  5
4241
  8
241
  6
CONTINUOUS
 10
-28.0
 20
5.000000000000056
 30
0.0
 11
-28.0
 21
-4.9999999999999432
 31
0.0
  0
LINE
  5
4242
  8
240
  6
CONTINUOUS
 10
-35.0
 20
5.1905989232414518
 30
0.0
 11
-35.0
 21
-5.1905989232413381
 31
0.0
  0
LINE
  5
4243
  8
240
  6
CONTINUOUS
 10
-35.0
 20
-5.1905989232413381
 30
0.0
 11
-31.0
 21
-7.4999999999999432
 31
0.0
1001
GRPNAME
1000
PASTMD3Z
  0
LINE
  5
4244
  8
240
  6
CONTINUOUS
 10
-28.0
 20
-7.4999999999999432
 30
0.0
 11
-31.0
 21
-7.4999999999999432
 31
0.0
1001
GRPNAME
1000
PASTMD3Z
  0
LINE
  5
4245
  8
240
  6
CONTINUOUS
 10
-35.0
 20
5.1905989232414518
 30
0.0
 11
-31.0
 21
7.500000000000056
 31
0.0
1001
GRPNAME
1000
PASTMD3Z
  0
LINE
  5
4246
  8
240
  6
CONTINUOUS
 10
-28.0
 20
7.500000000000056
 30
0.0
 11
-31.0
 21
7.500000000000056
 31
0.0
1001
GRPNAME
1000
PASTMD3Z
  0
LINE
  5
4247
  8
241
  6
CONTINUOUS
 10
-2.0
 20
11.30000000000001
 30
0.0
 11
-2.0
 21
-11.30000000000012
 31
0.0
  0
ARC
  5
4248
  8
240
  6
CONTINUOUS
 10
-5.0
 20
10.30000000000001
 30
0.0
 40
1.0
 50
89.999999969124687
 51
179.9999999691247
1001
GRPNAME
1000
PASTMD5U
  0
LINE
  5
4249
  8
241
  6
CONTINUOUS
 10
0.0
 20
-8.9999999999999432
 30
0.0
 11
0.0
 21
9.0000000000000568
 31
0.0
1001
GRPNAME
1000
PASTMD5U
  0
LINE
  5
424A
  8
240
  6
CONTINUOUS
 10
9.0
 20
-6.4999999999999432
 30
0.0
 11
6.0
 21
-6.4999999999999432
 31
0.0
1001
GRPNAME
1000
PASTMD3Z
  0
LINE
  5
424B
  8
240
  6
CONTINUOUS
 10
9.0
 20
6.500000000000056
 30
0.0
 11
6.0
 21
6.500000000000056
 31
0.0
1001
GRPNAME
1000
PASTMD3Z
  0
LINE
  5
424C
  8
241
  6
CONTINUOUS
 10
5.0
 20
7.500000000000056
 30
0.0
 11
5.0
 21
-7.4999999999999432
 31
0.0
  0
LINE
  5
424D
  8
241
  6
CONTINUOUS
 10
-6.0
 20
7.9999999983834291
 30
0.0
 11
-6.0
 21
-7.9999999952892153
 31
0.0
1001
GRPNAME
1000
PASTMD5U
  0
LINE
  5
424E
  8
242
  6
CONTINUOUS
 10
-6.0
 20
-6.1188234163111579
 30
0.0
 11
-2.0
 21
6.118823416311499
 31
0.0
1001
GRPNAME
1000
PASTMD5W
  0
LINE
  5
424F
  8
242
  6
CONTINUOUS
 10
-6.0
 20
6.118823416311499
 30
0.0
 11
-2.0
 21
-6.1188234163111579
 31
0.0
1001
GRPNAME
1000
PASTMD5W
  0
LINE
  5
4250
  8
240
  6
CONTINUOUS
 10
-2.0
 20
-11.49999999999994
 30
0.0
 11
0.0
 21
-11.49999999999994
 31
0.0
1001
GRPNAME
1000
PASTMD5U
  0
LINE
  5
4251
  8
241
  6
CONTINUOUS
 10
-6.0
 20
-6.1188234163111579
 30
0.0
 11
-2.0
 21
-6.1188234163111579
 31
0.0
1001
GRPNAME
1000
PASTMD5V
  0
LINE
  5
4252
  8
240
  6
CONTINUOUS
 10
-5.0
 20
-11.30000000000012
 30
0.0
 11
-2.0
 21
-11.30000000000012
 31
0.0
1001
GRPNAME
1000
PASTMD5U
  0
ARC
  5
4253
  8
240
  6
CONTINUOUS
 10
-5.0
 20
-10.30000000000012
 30
0.0
 40
1.0
 50
180.00000004108881
 51
270.00000004108892
1001
GRPNAME
1000
PASTMD5U
  0
ARC
  5
4254
  8
240
  6
CONTINUOUS
 10
-9.0
 20
-7.9999999999999432
 30
0.0
 40
3.0
 50
0.0000000899682739
 51
90.000000089968253
1001
GRPNAME
1000
PASTMD3Z
  0
ARC
  5
4255
  8
240
  6
CONTINUOUS
 10
4.5
 20
-7.9999999999999432
 30
0.0
 40
0.5
 50
269.99999996658431
 51
359.99999996655828
1001
GRPNAME
1000
PASTMD3Z
  0
ARC
  5
4256
  8
240
  6
CONTINUOUS
 10
6.0
 20
-7.4999999999999432
 30
0.0
 40
1.0
 50
89.999999989695212
 51
179.99999998970819
1001
GRPNAME
1000
PASTMD3Z
  0
LINE
  5
4257
  8
240
  6
CONTINUOUS
 10
4.5
 20
-8.4999999999999432
 30
0.0
 11
0.5
 21
-8.4999999999999432
 31
0.0
1001
GRPNAME
1000
PASTMD3Z
  0
ARC
  5
4258
  8
240
  6
CONTINUOUS
 10
0.5
 20
-8.9999999999999432
 30
0.0
 40
0.5
 50
89.999999989721275
 51
179.99999998970819
1001
GRPNAME
1000
PASTMD3Z
  0
LINE
  5
4259
  8
241
  6
CONTINUOUS
 10
-6.0
 20
6.118823416311499
 30
0.0
 11
-2.0
 21
6.1188234163112716
 31
0.0
1001
GRPNAME
1000
PASTMD5U
  0
ARC
  5
425A
  8
240
  6
CONTINUOUS
 10
-9.0
 20
8.0000000000000568
 30
0.0
 40
3.0
 50
269.9999999691247
 51
359.9999999691247
1001
GRPNAME
1000
PASTMD3Z
  0
ARC
  5
425B
  8
240
  6
CONTINUOUS
 10
4.5
 20
8.0000000000000568
 30
0.0
 40
0.5
 50
0.0000000899813015
 51
90.000000089968253
1001
GRPNAME
1000
PASTMD3Z
  0
ARC
  5
425C
  8
240
  6
CONTINUOUS
 10
6.0
 20
7.500000000000056
 30
0.0
 40
1.0
 50
180.00000007967651
 51
270.00000007968953
1001
GRPNAME
1000
PASTMD3Z
  0
LINE
  5
425D
  8
240
  6
CONTINUOUS
 10
4.5
 20
8.5000000000000568
 30
0.0
 11
0.5
 21
8.5000000000000568
 31
0.0
1001
GRPNAME
1000
PASTMD3Z
  0
ARC
  5
425E
  8
240
  6
CONTINUOUS
 10
0.5
 20
9.0000000000000568
 30
0.0
 40
0.5
 50
180.0000000796895
 51
270.00000007968953
1001
GRPNAME
1000
PASTMD3Z
  0
LINE
  5
425F
  8
242
  6
CONTINUOUS
 10
24.0
 20
-6.9999999999999432
 30
0.0
 11
9.8660254037840787
 21
-6.9999999999999432
 31
0.0
1001
GRPNAME
1000
PASTMD3Z
  0
LINE
  5
4260
  8
242
  6
CONTINUOUS
 10
24.0
 20
7.000000000000056
 30
0.0
 11
9.8660254037840787
 21
7.000000000000056
 31
0.0
1001
GRPNAME
1000
PASTMD3Z
  0
LINE
  5
4261
  8
240
  6
CONTINUOUS
 10
23.0
 20
-7.9999999999999432
 30
0.0
 11
11.59807621135314
 21
-7.9999999999999432
 31
0.0
1001
GRPNAME
1000
PASTMD3Z
  0
LINE
  5
4262
  8
240
  6
CONTINUOUS
 10
23.0
 20
8.0000000000000568
 30
0.0
 11
11.59807621135314
 21
8.0000000000000568
 31
0.0
1001
GRPNAME
1000
PASTMD3Z
  0
LINE
  5
4263
  8
241
  6
CONTINUOUS
 10
9.0
 20
6.500000000000056
 30
0.0
 11
9.0
 21
-6.4999999999999432
 31
0.0
  0
LINE
  5
4264
  8
241
  6
CONTINUOUS
 10
11.59807621135314
 20
8.0000000000000568
 30
0.0
 11
11.59807621135314
 21
-7.9999999999999432
 31
0.0
1001
GRPNAME
1000
PASTMD3Z
  0
LINE
  5
4265
  8
240
  6
CONTINUOUS
 10
11.59807621135314
 20
-7.9999999999999432
 30
0.0
 11
8.9999999999995453
 21
-6.4999999999999432
 31
0.0
1001
GRPNAME
1000
PASTMD3Z
  0
LINE
  5
4266
  8
240
  6
CONTINUOUS
 10
8.9999999999995453
 20
6.500000000000056
 30
0.0
 11
11.59807621135314
 21
8.0000000000000568
 31
0.0
1001
GRPNAME
1000
PASTMD3Z
  0
LINE
  5
4267
  8
240
  6
CONTINUOUS
 10
25.0
 20
6.000000000000056
 30
0.0
 11
25.0
 21
-5.9999999999999432
 31
0.0
  0
LINE
  5
4268
  8
241
  6
CONTINUOUS
 10
23.0
 20
8.0000000000000568
 30
0.0
 11
23.0
 21
-7.9999999999999432
 31
0.0
1001
GRPNAME
1000
PASTMD3Z
  0
LINE
  5
4269
  8
240
  6
CONTINUOUS
 10
23.0
 20
-7.9999999999999432
 30
0.0
 11
25.0
 21
-5.9999999999999432
 31
0.0
1001
GRPNAME
1000
PASTMD3Z
  0
LINE
  5
426A
  8
240
  6
CONTINUOUS
 10
23.0
 20
8.0000000000000568
 30
0.0
 11
25.0
 21
6.000000000000056
 31
0.0
1001
GRPNAME
1000
PASTMD3Z
  0
LINE
  5
426B
  8
240
  6
CONTINUOUS
 10
-2.0
 20
11.50000000000005
 30
0.0
 11
0.0
 21
11.50000000000005
 31
0.0
1001
GRPNAME
1000
PASTMD5U
  0
LINE
  5
426C
  8
240
  6
CONTINUOUS
 10
-5.0
 20
11.30000000000001
 30
0.0
 11
-2.0
 21
11.30000000000001
 31
0.0
1001
GRPNAME
1000
PASTMD5U
  0
LINE
  5
4275
  8
250
  6
CONTINUOUS
 10
12.30756765648948
 20
24.500000000000171
 30
0.0
 11
29.640900989822971
 21
24.500000000000171
 31
0.0
1001
ITEMNAME
1000
LNSP2
  0
LINE
  5
4278
  8
250
  6
CONTINUOUS
 10
31.948946385647108
 20
-27.999999999999829
 30
0.0
 11
49.108946385646959
 21
-27.999999999999829
 31
0.0
1001
ITEMNAME
1000
LNSP2
  0
TEXT
  5
42F9
  8
250
  6
CONTINUOUS
 10
34.895613052313642
 20
-26.699999999999871
 30
0.0
 40
3.6400000000000001
  1
M16
  7
YOKO
1001
ITEMNAME
1000
LNSP3
  0
TEXT
  5
42FD
  8
250
  6
CONTINUOUS
 10
15.219567656489581
 20
25.800000000000122
 30
0.0
 40
3.6400000000000001
  1
\U+03C617
  7
YOKO
1001
ITEMNAME
1000
LNSP3
  0
LINE
  5
4300
  8
250
  6
CONTINUOUS
 10
-28.0
 20
8.1500000000000572
 30
0.0
 11
-28.0
 21
29.300000000000061
 31
0.0
  0
LINE
  5
4301
  8
250
  6
CONTINUOUS
 10
0.0
 20
12.150000000000061
 30
0.0
 11
0.0000000000000011
 21
29.300000000000061
 31
0.0
  0
LINE
  5
4302
  8
250
  6
CONTINUOUS
 10
-25.399999999999999
 20
28.00000000000006
 30
0.0
 11
-2.5999999999999992
 21
28.00000000000006
 31
0.0
  0
LINE
  5
4306
  8
250
  6
CONTINUOUS
 10
-9.6500000000000004
 20
-4.9999999999999432
 30
0.0
 11
-15.300000000000001
 21
-4.9999999999999414
 31
0.0
  0
LINE
  5
4307
  8
250
  6
CONTINUOUS
 10
-9.6500000000000004
 20
5.000000000000056
 30
0.0
 11
-15.300000000000001
 21
5.0000000000000577
 31
0.0
  0
LINE
  5
4308
  8
250
  6
CONTINUOUS
 10
-14.0
 20
-2.3999999999999408
 30
0.0
 11
-14.0
 21
2.4000000000000581
 31
0.0
  0
LINE
  5
4309
  8
250
  6
CONTINUOUS
 10
-14.0
 20
5.0000000000000577
 30
0.0
 11
-13.999999999999989
 21
19.893333333333391
 31
0.0
  0
LINE
  5
430D
  8
250
  6
CONTINUOUS
 10
-31.649999999999999
 20
-7.4999999999999432
 30
0.0
 11
-50.299999999999997
 21
-7.4999999999999369
 31
0.0
  0
LINE
  5
430E
  8
250
  6
CONTINUOUS
 10
-31.649999999999999
 20
7.500000000000056
 30
0.0
 11
-50.299999999999997
 21
7.5000000000000622
 31
0.0
  0
LINE
  5
430F
  8
250
  6
CONTINUOUS
 10
-49.0
 20
-4.8999999999999382
 30
0.0
 11
-49.0
 21
4.9000000000000599
 31
0.0
  0
LINE
  5
4313
  8
250
  6
CONTINUOUS
 10
-35.0
 20
-5.8405989232413393
 30
0.0
 11
-35.0
 21
-32.79999999999994
 31
0.0
  0
LINE
  5
4314
  8
250
  6
CONTINUOUS
 10
0.0
 20
-12.14999999999994
 30
0.0
 11
-0.0000000000000013
 21
-32.79999999999994
 31
0.0
  0
LINE
  5
4315
  8
250
  6
CONTINUOUS
 10
-32.399999999999999
 20
-31.49999999999995
 30
0.0
 11
-2.600000000000001
 21
-31.49999999999995
 31
0.0
  0
LINE
  5
4319
  8
250
  6
CONTINUOUS
 10
0.0
 20
-12.14999999999994
 30
0.0
 11
-0.0000000000000013
 21
-32.79999999999994
 31
0.0
  0
LINE
  5
431A
  8
250
  6
CONTINUOUS
 10
25.0
 20
-6.6499999999999426
 30
0.0
 11
25.0
 21
-32.79999999999994
 31
0.0
  0
LINE
  5
431B
  8
250
  6
CONTINUOUS
 10
2.5999999999999979
 20
-31.49999999999995
 30
0.0
 11
22.399999999999999
 21
-31.49999999999995
 31
0.0
  0
LINE
  5
431F
  8
250
  6
CONTINUOUS
 10
-35.0
 20
-5.8405989232413393
 30
0.0
 11
-35.0
 21
-39.79999999999994
 31
0.0
  0
LINE
  5
4320
  8
250
  6
CONTINUOUS
 10
25.0
 20
-6.6499999999999426
 30
0.0
 11
25.0
 21
-39.79999999999994
 31
0.0
  0
LINE
  5
4321
  8
250
  6
CONTINUOUS
 10
-32.399999999999999
 20
-38.499999999999943
 30
0.0
 11
22.399999999999999
 21
-38.499999999999943
 31
0.0
  0
LINE
  5
4325
  8
250
  6
CONTINUOUS
 10
21.70194100185455
 20
-10.25166604983959
 30
0.0
 11
31.948946385647108
 21
-27.999999999999829
 31
0.0
1001
ACAD
1000
DSTYLE
1002
{
1070
    40
1040
1.3
1070
    41
1040
2.0
1002
}
  0
LINE
  5
4326
  8
250
  6
CONTINUOUS
 10
21.326663326881299
 20
-10.46833271650625
 30
0.0
 11
20.401941001854539
 21
-8.0000000000000568
 31
0.0
  0
LINE
  5
4327
  8
250
  6
CONTINUOUS
 10
22.077218676827808
 20
-10.03499938317292
 30
0.0
 11
20.401941001854539
 21
-8.0000000000000568
 31
0.0
  0
LINE
  5
4328
  8
250
  6
CONTINUOUS
 10
20.401941001854539
 20
-8.0000000000000568
 30
0.0
 11
21.70194100185455
 21
-10.25166604983959
 31
0.0
  0
LINE
  5
4329
  8
250
  6
CONTINUOUS
 10
4.3699633494555012
 20
10.751666049839489
 30
0.0
 11
12.30756765648948
 21
24.500000000000171
 31
0.0
1001
ACAD
1000
DSTYLE
1002
{
1070
    40
1040
1.3
1070
    41
1040
2.0
1002
}
  0
LINE
  5
432A
  8
250
  6
CONTINUOUS
 10
4.7452410244287586
 20
10.534999383172829
 30
0.0
 11
3.0699633494555201
 21
8.4999999999999432
 31
0.0
  0
LINE
  5
432B
  8
250
  6
CONTINUOUS
 10
3.9946856744822421
 20
10.968332716506151
 30
0.0
 11
3.0699633494555201
 21
8.4999999999999432
 31
0.0
  0
LINE
  5
432C
  8
250
  6
CONTINUOUS
 10
3.0699633494555201
 20
8.4999999999999432
 30
0.0
 11
4.3699633494555012
 21
10.751666049839489
 31
0.0
  0
TEXT
  5
432D
  8
250
  6
CONTINUOUS
 10
-17.466666666666661
 20
29.30000000000005
 30
0.0
 40
3.6399999999999988
  1
28
  0
LINE
  5
432E
  8
250
  6
CONTINUOUS
 10
-2.5999999999999992
 20
28.43333333333339
 30
0.0
 11
0.000000000000001
 21
28.00000000000006
 31
0.0
  0
LINE
  5
432F
  8
250
  6
CONTINUOUS
 10
-2.5999999999999992
 20
27.56666666666673
 30
0.0
 11
0.000000000000001
 21
28.00000000000006
 31
0.0
  0
LINE
  5
4330
  8
250
  6
CONTINUOUS
 10
0.000000000000001
 20
28.00000000000006
 30
0.0
 11
-2.5999999999999992
 21
28.00000000000006
 31
0.0
  0
LINE
  5
4331
  8
250
  6
CONTINUOUS
 10
-25.399999999999999
 20
27.56666666666673
 30
0.0
 11
-28.0
 21
28.00000000000006
 31
0.0
  0
LINE
  5
4332
  8
250
  6
CONTINUOUS
 10
-25.399999999999999
 20
28.43333333333339
 30
0.0
 11
-28.0
 21
28.00000000000006
 31
0.0
  0
LINE
  5
4333
  8
250
  6
CONTINUOUS
 10
-28.0
 20
28.00000000000006
 30
0.0
 11
-25.399999999999999
 21
28.00000000000006
 31
0.0
  0
TEXT
  5
4334
  8
250
  6
CONTINUOUS
 10
-15.300000000000001
 20
8.8866666666667271
 30
0.0
 40
3.6400000000000001
  1
\U+2205
 50
90.0
  0
TEXT
  5
4335
  8
250
  6
CONTINUOUS
 10
-15.300000000000001
 20
12.18000000000006
 30
0.0
 40
3.6399999999999988
  1
10
 50
90.0
  0
LINE
  5
4336
  8
250
  6
CONTINUOUS
 10
-14.43333333333333
 20
2.4000000000000581
 30
0.0
 11
-14.0
 21
5.0000000000000577
 31
0.0
  0
LINE
  5
4337
  8
250
  6
CONTINUOUS
 10
-13.566666666666659
 20
2.4000000000000581
 30
0.0
 11
-14.0
 21
5.0000000000000577
 31
0.0
  0
LINE
  5
4338
  8
250
  6
CONTINUOUS
 10
-14.0
 20
5.0000000000000577
 30
0.0
 11
-14.0
 21
2.4000000000000581
 31
0.0
  0
LINE
  5
4339
  8
250
  6
CONTINUOUS
 10
-13.56666666666667
 20
-2.3999999999999408
 30
0.0
 11
-14.0
 21
-4.9999999999999414
 31
0.0
  0
LINE
  5
433A
  8
250
  6
CONTINUOUS
 10
-14.43333333333333
 20
-2.3999999999999408
 30
0.0
 11
-14.0
 21
-4.9999999999999414
 31
0.0
  0
LINE
  5
433B
  8
250
  6
CONTINUOUS
 10
-14.0
 20
-4.9999999999999414
 30
0.0
 11
-14.0
 21
-2.3999999999999408
 31
0.0
  0
TEXT
  5
433C
  8
250
  6
CONTINUOUS
 10
-50.299999999999997
 20
-5.1133333333332782
 30
0.0
 40
3.6400000000000001
  1
\U+2205
 50
90.0
  0
TEXT
  5
433D
  8
250
  6
CONTINUOUS
 10
-50.299999999999997
 20
-1.8199999999999441
 30
0.0
 40
3.6399999999999988
  1
15
 50
90.0
  0
LINE
  5
433E
  8
250
  6
CONTINUOUS
 10
-49.43333333333333
 20
4.9000000000000599
 30
0.0
 11
-49.0
 21
7.5000000000000613
 31
0.0
  0
LINE
  5
433F
  8
250
  6
CONTINUOUS
 10
-48.56666666666667
 20
4.9000000000000599
 30
0.0
 11
-49.0
 21
7.5000000000000613
 31
0.0
  0
LINE
  5
4340
  8
250
  6
CONTINUOUS
 10
-49.0
 20
7.5000000000000613
 30
0.0
 11
-49.0
 21
4.9000000000000599
 31
0.0
  0
LINE
  5
4341
  8
250
  6
CONTINUOUS
 10
-48.566666666666663
 20
-4.8999999999999382
 30
0.0
 11
-49.0
 21
-7.4999999999999378
 31
0.0
  0
LINE
  5
4342
  8
250
  6
CONTINUOUS
 10
-49.43333333333333
 20
-4.8999999999999382
 30
0.0
 11
-49.0
 21
-7.4999999999999378
 31
0.0
  0
LINE
  5
4343
  8
250
  6
CONTINUOUS
 10
-49.0
 20
-7.4999999999999378
 30
0.0
 11
-49.0
 21
-4.8999999999999382
 31
0.0
  0
TEXT
  5
4344
  8
250
  6
CONTINUOUS
 10
-20.966666666666669
 20
-30.199999999999939
 30
0.0
 40
3.6399999999999988
  1
35
  0
LINE
  5
4345
  8
250
  6
CONTINUOUS
 10
-2.600000000000001
 20
-31.06666666666661
 30
0.0
 11
-0.0000000000000012
 21
-31.49999999999995
 31
0.0
  0
LINE
  5
4346
  8
250
  6
CONTINUOUS
 10
-2.600000000000001
 20
-31.93333333333328
 30
0.0
 11
-0.0000000000000012
 21
-31.49999999999995
 31
0.0
  0
LINE
  5
4347
  8
250
  6
CONTINUOUS
 10
-0.0000000000000012
 20
-31.49999999999995
 30
0.0
 11
-2.600000000000001
 21
-31.49999999999995
 31
0.0
  0
LINE
  5
4348
  8
250
  6
CONTINUOUS
 10
-32.399999999999999
 20
-31.93333333333328
 30
0.0
 11
-35.0
 21
-31.49999999999995
 31
0.0
  0
LINE
  5
4349
  8
250
  6
CONTINUOUS
 10
-32.399999999999999
 20
-31.06666666666661
 30
0.0
 11
-35.0
 21
-31.49999999999995
 31
0.0
  0
LINE
  5
434A
  8
250
  6
CONTINUOUS
 10
-35.0
 20
-31.49999999999995
 30
0.0
 11
-32.399999999999999
 21
-31.49999999999995
 31
0.0
  0
TEXT
  5
434B
  8
250
  6
CONTINUOUS
 10
9.0333333333333332
 20
-30.199999999999939
 30
0.0
 40
3.6399999999999988
  1
25
  0
LINE
  5
434C
  8
250
  6
CONTINUOUS
 10
22.399999999999999
 20
-31.06666666666661
 30
0.0
 11
25.0
 21
-31.49999999999995
 31
0.0
  0
LINE
  5
434D
  8
250
  6
CONTINUOUS
 10
22.399999999999999
 20
-31.93333333333328
 30
0.0
 11
25.0
 21
-31.49999999999995
 31
0.0
  0
LINE
  5
434E
  8
250
  6
CONTINUOUS
 10
25.0
 20
-31.49999999999995
 30
0.0
 11
22.399999999999999
 21
-31.49999999999995
 31
0.0
  0
LINE
  5
434F
  8
250
  6
CONTINUOUS
 10
2.5999999999999979
 20
-31.93333333333328
 30
0.0
 11
-0.0000000000000012
 21
-31.49999999999995
 31
0.0
  0
LINE
  5
4350
  8
250
  6
CONTINUOUS
 10
2.5999999999999979
 20
-31.06666666666661
 30
0.0
 11
-0.0000000000000012
 21
-31.49999999999995
 31
0.0
  0
LINE
  5
4351
  8
250
  6
CONTINUOUS
 10
-0.0000000000000012
 20
-31.49999999999995
 30
0.0
 11
2.5999999999999979
 21
-31.49999999999995
 31
0.0
  0
TEXT
  5
4352
  8
250
  6
CONTINUOUS
 10
-8.5533333333333346
 20
-37.199999999999953
 30
0.0
 40
3.6399999999999988
  1
60
  0
LINE
  5
4353
  8
250
  6
CONTINUOUS
 10
22.399999999999999
 20
-38.066666666666613
 30
0.0
 11
25.0
 21
-38.499999999999943
 31
0.0
  0
LINE
  5
4354
  8
250
  6
CONTINUOUS
 10
22.399999999999999
 20
-38.933333333333273
 30
0.0
 11
25.0
 21
-38.499999999999943
 31
0.0
  0
LINE
  5
4355
  8
250
  6
CONTINUOUS
 10
25.0
 20
-38.499999999999943
 30
0.0
 11
22.399999999999999
 21
-38.499999999999943
 31
0.0
  0
LINE
  5
4356
  8
250
  6
CONTINUOUS
 10
-32.399999999999999
 20
-38.93333333333328
 30
0.0
 11
-35.0
 21
-38.499999999999943
 31
0.0
  0
LINE
  5
4357
  8
250
  6
CONTINUOUS
 10
-32.399999999999999
 20
-38.066666666666613
 30
0.0
 11
-35.0
 21
-38.499999999999943
 31
0.0
  0
LINE
  5
4358
  8
250
  6
CONTINUOUS
 10
-35.0
 20
-38.499999999999943
 30
0.0
 11
-32.399999999999999
 21
-38.499999999999943
 31
0.0
  0
LINE
  5
437B
  8
240
  6
CONTINUOUS
 10
0.0
 20
9.0000000000000568
 30
0.0
 11
0.0
 21
11.50000000000005
 31
0.0
  0
LINE
  5
437C
  8
240
  6
CONTINUOUS
 10
-6.0
 20
7.9999999983834291
 30
0.0
 11
-6.0
 21
10.30000000053888
 31
0.0
  0
LINE
  5
437D
  8
240
  6
CONTINUOUS
 10
-2.0
 20
11.30000000000001
 30
0.0
 11
-2.0
 21
11.50000000000005
 31
0.0
  0
LINE
  5
437E
  8
240
  6
CONTINUOUS
 10
5.0
 20
7.4999999986094403
 30
0.0
 11
5.0
 21
8.0000000007852918
 31
0.0
  0
LINE
  5
437F
  8
240
  6
CONTINUOUS
 10
5.0
 20
-7.4999999999999432
 30
0.0
 11
5.0
 21
-8.0000000002917773
 31
0.0
  0
LINE
  5
4380
  8
240
  6
CONTINUOUS
 10
0.0
 20
-8.9999999999999432
 30
0.0
 11
0.0
 21
-11.49999999999994
 31
0.0
  0
LINE
  5
4381
  8
240
  6
CONTINUOUS
 10
-2.0
 20
-11.49999999999994
 30
0.0
 11
-2.0
 21
-11.30000000000012
 31
0.0
  0
LINE
  5
4382
  8
240
  6
CONTINUOUS
 10
-6.0
 20
-10.30000000071726
 30
0.0
 11
-6.0
 21
-7.9999999952892153
 31
0.0
  0
LINE
  5
4383
  8
240
  6
CONTINUOUS
 10
-28.0
 20
-7.4999999999999432
 30
0.0
 11
-28.0
 21
-4.9999999999999432
 31
0.0
  0
LINE
  5
4384
  8
240
  6
CONTINUOUS
 10
-28.0
 20
5.000000000000056
 30
0.0
 11
-28.0
 21
7.500000000000056
 31
0.0
  0
VIEWPORT
  5
22
 67
     1
  8
0
 10
261.51769911504419
 20
148.5
 30
0.0
 40
523.0353982300885
 41
297.0
 68
     1
 69
     1
1001
ACAD
1000
MVIEW
1002
{
1070
    16
1010
0.0
1020
0.0
1030
0.0
1010
0.0
1020
0.0
1030
1.0
1040
0.0
1040
297.0
1040
261.51769911504419
1040
148.5
1040
50.0
1040
0.0
1040
0.0
1070
     0
1070
   100
1070
     1
1070
     1
1070
     0
1070
     0
1070
     0
1070
     0
1040
0.0
1040
0.0
1040
0.0
1040
1.0
1040
1.0
1040
10.0
1040
10.0
1070
     0
1002
{
1002
}
1002
}
1001
GENIUS_GENODEF_13
1002
{
1000
HIER
1070
     0
1002
}
1002
{
1000
MANEDIT
1070
     0
1002
}
1002
{
1000
NOSEL
1070
     0
1002
}
1002
{
1000
BEHIND
1070
     0
1002
}
1002
{
1000
OTHER
1070
     0
1002
}
1002
{
1000
REACTOR
1002
}
1001
GENIUS_GENOBJ-N-SDF_13
1002
{
1000
OWNER
1000
GEN
1002
}
1001
GENIUS_GENSCREG_15
1000
PF
1040
1.0
1000
DF
1040
1.0
1000
MIN
1011
0.0
1021
-134217728.390625
1031
0.0
1021
0.0
1031
0.0
1000
MAX
1011
523.0353982300885
1021
-134217728.390625
1031
0.0
1021
297.0
1031
0.0
1000
FLAGS
1070
     4
  0
ENDSEC
  0
EOF
