  0
SECTION
  2
HEADER
  9
$ACADVER
  1
AC1009
  9
$INSBASE
 10
0.0
 20
0.0
 30
0.0
  9
$EXTMIN
 10
-90.669387178696866
 20
-32.5
 30
0.0
  9
$EXTMAX
 10
27.999999999999979
 20
48.884081609244582
 30
0.0
  9
$LIMMIN
 10
0.0
 20
0.0
  9
$LIMMAX
 10
297.0
 20
210.0
  9
$ORTHOMODE
 70
     0
  9
$REGENMODE
 70
     1
  9
$FILLMODE
 70
     1
  9
$QTEXTMODE
 70
     0
  9
$MIRRTEXT
 70
     1
  9
$DRAGMODE
 70
     2
  9
$LTSCALE
 40
10.0
  9
$OSMODE
 70
    61
  9
$ATTMODE
 70
     1
  9
$TEXTSIZE
 40
3.0
  9
$TRACEWID
 40
1.0
  9
$TEXTSTYLE
  7
YOKO
  9
$CLAYER
  8
240
  9
$CELTYPE
  6
BYLAYER
  9
$CECOLOR
 62
   256
  9
$DIMSCALE
 40
1.0
  9
$DIMASZ
 40
2.2299999999999991
  9
$DIMEXO
 40
0.5
  9
$DIMDLI
 40
2.5
  9
$DIMRND
 40
0.0
  9
$DIMDLE
 40
0.0
  9
$DIMEXE
 40
1.0
  9
$DIMTP
 40
0.0
  9
$DIMTM
 40
0.0
  9
$DIMTXT
 40
3.0
  9
$DIMCEN
 40
0.0
  9
$DIMTSZ
 40
0.0
  9
$DIMTOL
 70
     0
  9
$DIMLIM
 70
     0
  9
$DIMTIH
 70
     0
  9
$DIMTOH
 70
     0
  9
$DIMSE1
 70
     0
  9
$DIMSE2
 70
     0
  9
$DIMTAD
 70
     3
  9
$DIMZIN
 70
     8
  9
$DIMBLK
  1
OPEN
  9
$DIMASO
 70
     1
  9
$DIMSHO
 70
     1
  9
$DIMPOST
  1

  9
$DIMAPOST
  1

  9
$DIMALT
 70
     0
  9
$DIMALTD
 70
     2
  9
$DIMALTF
 40
25.399999999999999
  9
$DIMLFAC
 40
1.0
  9
$DIMTOFL
 70
     1
  9
$DIMTVP
 40
0.0
  9
$DIMTIX
 70
     0
  9
$DIMSOXD
 70
     0
  9
$DIMSAH
 70
     0
  9
$DIMBLK1
  1

  9
$DIMBLK2
  1

  9
$DIMSTYLE
  2
BIGT
  9
$DIMCLRD
 70
   256
  9
$DIMCLRE
 70
   256
  9
$DIMCLRT
 70
    40
  9
$DIMTFAC
 40
1.0
  9
$DIMGAP
 40
1.0
  9
$LUNITS
 70
     2
  9
$LUPREC
 70
     3
  9
$SKETCHINC
 40
1.0
  9
$FILLETRAD
 40
0.3
  9
$AUNITS
 70
     0
  9
$AUPREC
 70
     3
  9
$MENU
  1
.
  9
$ELEVATION
 40
0.0
  9
$PELEVATION
 40
0.0
  9
$THICKNESS
 40
0.0
  9
$LIMCHECK
 70
     0
  9
$BLIPMODE
 70
     0
  9
$CHAMFERA
 40
0.5
  9
$CHAMFERB
 40
0.5
  9
$SKPOLY
 70
     0
  9
$TDCREATE
 40
2452321.6916887271
  9
$TDUPDATE
 40
2459153.4797624308
  9
$TDINDWG
 40
0.0323279745
  9
$TDUSRTIMER
 40
0.0323279514
  9
$USRTIMER
 70
     1
  9
$ANGBASE
 50
0.0
  9
$ANGDIR
 70
     0
  9
$PDMODE
 70
    35
  9
$PDSIZE
 40
-5.0
  9
$PLINEWID
 40
0.0
  9
$COORDS
 70
     1
  9
$SPLFRAME
 70
     0
  9
$SPLINETYPE
 70
     6
  9
$SPLINESEGS
 70
     8
  9
$ATTDIA
 70
     1
  9
$ATTREQ
 70
     1
  9
$HANDLING
 70
     1
  9
$HANDSEED
  5
11FA
  9
$SURFTAB1
 70
     6
  9
$SURFTAB2
 70
     6
  9
$SURFTYPE
 70
     6
  9
$SURFU
 70
     6
  9
$SURFV
 70
     6
  9
$UCSNAME
  2

  9
$UCSORG
 10
0.0
 20
0.0
 30
0.0
  9
$UCSXDIR
 10
1.0
 20
0.0
 30
0.0
  9
$UCSYDIR
 10
0.0
 20
1.0
 30
0.0
  9
$PUCSNAME
  2

  9
$PUCSORG
 10
0.0
 20
0.0
 30
0.0
  9
$PUCSXDIR
 10
1.0
 20
0.0
 30
0.0
  9
$PUCSYDIR
 10
0.0
 20
1.0
 30
0.0
  9
$USERI1
 70
     1
  9
$USERI2
 70
     0
  9
$USERI3
 70
     0
  9
$USERI4
 70
     0
  9
$USERI5
 70
     0
  9
$USERR1
 40
0.0
  9
$USERR2
 40
0.0
  9
$USERR3
 40
0.0
  9
$USERR4
 40
0.0
  9
$USERR5
 40
0.0
  9
$WORLDVIEW
 70
     1
  9
$SHADEDGE
 70
     3
  9
$SHADEDIF
 70
    70
  9
$TILEMODE
 70
     1
  9
$MAXACTVP
 70
    16
  9
$PLIMCHECK
 70
     0
  9
$PEXTMIN
 10
1.0000000000000000E+020
 20
1.0000000000000000E+020
 30
1.0000000000000000E+020
  9
$PEXTMAX
 10
-1.0000000000000000E+020
 20
-1.0000000000000000E+020
 30
-1.0000000000000000E+020
  9
$PLIMMIN
 10
0.0
 20
0.0
  9
$PLIMMAX
 10
420.0
 20
297.0
  9
$UNITMODE
 70
     0
  9
$VISRETAIN
 70
     0
  9
$PLINEGEN
 70
     0
  9
$PSLTSCALE
 70
     1
  0
ENDSEC
  0
SECTION
  2
TABLES
  0
TABLE
  2
VPORT
 70
     1
  0
VPORT
  2
*ACTIVE
 70
     0
 10
0.0
 20
0.0
 11
1.0
 21
1.0
 12
-20.18708431381808
 22
-8.5659377316504006
 13
0.0
 23
0.0
 14
7.0
 24
7.0
 15
7.0
 25
7.0
 16
0.0
 26
0.0
 36
1.0
 17
0.0
 27
0.0
 37
0.0
 40
127.3735963517544
 41
1.65906362545018
 42
50.0
 43
0.0
 44
0.0
 50
0.0
 51
0.0
 71
     0
 72
  2000
 73
     1
 74
     0
 75
     0
 76
     1
 77
     0
 78
     0
  0
ENDTAB
  0
TABLE
  2
LTYPE
 70
    21
  0
LTYPE
  2
CONTINUOUS
 70
     0
  3
Solid line
 72
    65
 73
     0
 40
0.0
  0
LTYPE
  2
CENTER2
 70
     0
  3
___ _ ___ _ ___ _ ___ _ ___ _ ___ _ ___ _ ___ _
 72
    65
 73
     4
 40
1.125
 49
0.75
 49
-0.125
 49
0.125
 49
-0.125
  0
LTYPE
  2
HIDDEN
 70
     0
  3
Hidden __ __ __ __ __ __ __ __ __ __ __ __ __ _
 72
    65
 73
     2
 40
0.375
 49
0.25
 49
-0.125
  0
LTYPE
  2
HIDDEN2
 70
     0
  3
_ _ _ _ _ _ _ _ _ _ _ _ _ _ _ _ _ _ _ _ _ _ _ _
 72
    65
 73
     2
 40
0.1875
 49
0.125
 49
-0.0625
  0
LTYPE
  2
PHANTOM2
 70
     0
  3
___ _ _ ___ _ _ ___ _ _ ___ _ _ ___ _ _ ___ _ _
 72
    65
 73
     6
 40
1.25
 49
0.625
 49
-0.125
 49
0.125
 49
-0.125
 49
0.125
 49
-0.125
  0
LTYPE
  2
CENTER
 70
     0
  3
____ _ ____ _ ____ _ ____ _ ____ _ ____ _ ____ 
 72
    65
 73
     4
 40
2.0
 49
1.25
 49
-0.25
 49
0.25
 49
-0.25
  0
LTYPE
  2
AMCONSTR
 70
     0
  3
_______________________
 72
    65
 73
     2
 40
9999.0
 49
9999.0
 49
0.0
  0
LTYPE
  2
AM_ISO02W050
 70
     0
  3
__ __ __ __ __ __ __ __ __ __ __ __ __ __ __
 72
    65
 73
     2
 40
7.5
 49
6.0
 49
-1.5
  0
LTYPE
  2
ACJISTGB
 70
     0
  3
__ . . __ . .
 72
    65
 73
     6
 40
9.0
 49
4.0
 49
-1.0
 49
1.0
 49
-1.0
 49
1.0
 49
-1.0
  0
LTYPE
  2
ACJISTGL
 70
     0
  3
_ _ _ _ _
 72
    65
 73
     2
 40
3.0
 49
2.0
 49
-1.0
  0
LTYPE
  2
ACISOWELD
 70
     0
  3
_ _ _ _ _
 72
    65
 73
     2
 40
2.0
 49
2.0
 49
-1.0
  0
LTYPE
  2
ACISOTGB
 70
     0
  3
__ . . __ . .
 72
    65
 73
     6
 40
9.0
 49
4.0
 49
-1.0
 49
1.0
 49
-1.0
 49
1.0
 49
-1.0
  0
LTYPE
  2
ACISOTGL
 70
     0
  3
_ _ _ _ _
 72
    65
 73
     2
 40
3.0
 49
2.0
 49
-1.0
  0
LTYPE
  2
AM_ISO08W050
 70
     0
  3
____ . ____ . ____ . ____ . ____ . ____ . ____
 72
    65
 73
     4
 40
18.0
 49
12.0
 49
-1.5
 49
3.0
 49
-1.5
  0
LTYPE
  2
AM_ISO09W050
 70
     0
  3
_____ . . _____ . . _____ . . ____ .. ____
 72
    65
 73
     6
 40
22.5
 49
12.0
 49
-1.5
 49
3.0
 49
-1.5
 49
3.0
 49
-1.5
  0
LTYPE
  2
AM_ISO08W050X2
 70
     0
  3
__ . __ . __ . __ . __ . __
 72
    65
 73
     4
 40
9.0
 49
6.0
 49
-0.75
 49
1.5
 49
-0.75
  0
LTYPE
  2
AM_ISO02W050X2
 70
     0
  3
 _ _ _ _ _ _ _ _ _ _ _ _
 72
    65
 73
     2
 40
3.75
 49
3.0
 49
-0.75
  0
LTYPE
  2
AMZIGZAG
 70
     0
  3
/\/-/\/-/\/-/\/-/\/-/\/
 72
    65
 73
     2
 40
11.0001
 49
0.0001
 49
-11.0
  0
LTYPE
  2
AMZIGZAG2
 70
     0
  3
/\/-/\/-/\/-/\/-/\/-/\/
 72
    65
 73
     2
 40
0.4401
 49
0.0001
 49
-0.4400000000000001
  0
LTYPE
  2
ACANSTGB
 70
     0
  3
__ . . __ . .
 72
    65
 73
     6
 40
0.35433070866
 49
0.15748031496
 49
-0.03937007874
 49
0.03937007874
 49
-0.03937007874
 49
0.03937007874
 49
-0.03937007874
  0
LTYPE
  2
ACANSTGL
 70
     0
  3
_ _ _ _ _
 72
    65
 73
     2
 40
0.11811023622
 49
0.07874015748
 49
-0.03937007874
  0
ENDTAB
  0
TABLE
  2
LAYER
 70
     8
  0
LAYER
  2
0
 70
     0
 62
     7
  6
CONTINUOUS
  0
LAYER
  2
240
 70
     0
 62
     4
  6
CONTINUOUS
  0
LAYER
  2
241
 70
     0
 62
   211
  6
CONTINUOUS
  0
LAYER
  2
243
 70
     0
 62
   211
  6
HIDDEN2
  0
LAYER
  2
245
 70
     0
 62
     2
  6
CENTER2
  0
LAYER
  2
247
 70
     0
 62
    60
  6
CONTINUOUS
  0
LAYER
  2
250
 70
     0
 62
     3
  6
CONTINUOUS
  0
LAYER
  2
DEFPOINTS
 70
     0
 62
     7
  6
CONTINUOUS
  0
ENDTAB
  0
TABLE
  2
STYLE
 70
    10
  0
STYLE
  2
STANDARD
 70
     0
 40
0.0
 41
1.0
 50
0.0
 71
     0
 42
3.0
  3
romans.shx
  4
BIGFONT.SHX
  0
STYLE
  2
ANNOTATIVE
 70
     0
 40
0.0
 41
1.0
 50
0.0
 71
     0
 42
0.2
  3
txt
  4

  0
STYLE
  2
YOKO
 70
     0
 40
0.0
 41
1.0
 50
0.0
 71
     0
 42
3.0
  3
romans.shx
  4
extfont.shx
  0
STYLE
  2
ACJISTS
 70
     0
 40
1.0
 41
1.0
 50
0.0
 71
     0
 42
3.0
  3
amgdt.shx
  4
extfont.shx
  0
STYLE
  2
ACJISGDT
 70
     0
 40
0.0
 41
1.0
 50
0.0
 71
     0
 42
3.0
  3
amgdt.shx
  4
extfont.shx
  0
STYLE
  2
ACISOTS
 70
     0
 40
1.0
 41
1.0
 50
0.0
 71
     0
 42
3.0
  3
amgdt.shx
  4
extfont.shx
  0
STYLE
  2
ACISOGDT
 70
     0
 40
0.0
 41
1.0
 50
0.0
 71
     0
 42
3.0
  3
amgdt.shx
  4
extfont.shx
  0
STYLE
  2

 70
     1
 40
0.0
 41
1.0
 50
0.0
 71
     0
 42
3.0
  3
genltshp.shx
  4

  0
STYLE
  2
ACANSTS
 70
     0
 40
0.0
 41
1.0
 50
0.0
 71
     0
 42
3.0
  3
romans.shx
  4
extfont.shx
  0
STYLE
  2
ACANSGDT
 70
     0
 40
0.0
 41
1.0
 50
0.0
 71
     0
 42
3.0
  3
amgdt.shx
  4

  0
ENDTAB
  0
TABLE
  2
VIEW
 70
     0
  0
ENDTAB
  0
TABLE
  2
UCS
 70
     0
  0
ENDTAB
  0
TABLE
  2
APPID
 70
    38
  0
APPID
  2
ACAD
 70
     0
  0
APPID
  2
ACADANNOTATIVE
 70
     0
  0
APPID
  2
GLOBAL
 70
     0
  0
APPID
  2
DETAIL
 70
     0
  0
APPID
  2
GRPNAME
 70
     0
  0
APPID
  2
GPARA
 70
     0
  0
APPID
  2
HATCH_TYPE
 70
     0
  0
APPID
  2
HATCH_DISPLAY
 70
     0
  0
APPID
  2
HATCH_DISTANCE
 70
     0
  0
APPID
  2
MCAD_NO_VIS
 70
     0
  0
APPID
  2
ACAD_TEMP_GRAPHIC
 70
     0
  0
APPID
  2
ACATTRIBSERVICES
 70
     0
  0
APPID
  2
GENIUS_GENSCREG_15
 70
     0
  0
APPID
  2
GENIUS_GENODEF_13
 70
     0
  0
APPID
  2
GENIUS_GENOBJ-N-SDF_13
 70
     0
  0
APPID
  2
GENIUS_GENREC_14
 70
     0
  0
APPID
  2
GENIUS_GENOBJ-N-REC_13
 70
     0
  0
APPID
  2
GENIUS_GENDIMSH_14
 70
     0
  0
APPID
  2
GENIUS_GENOBJ-N-DIM_13
 70
     0
  0
APPID
  2
GENIUS_GENDIM_13
 70
     0
  0
APPID
  2
GENIUS_GENDTOL_13
 70
     0
  0
APPID
  2
GENIUS_GENOLIS_13
 70
     0
  0
APPID
  2
GENIUS_GENOENT_13
 70
     0
  0
APPID
  2
GENIUS_GENOBJ-F-FEM_13
 70
     0
  0
APPID
  2
GENIUS_GENOREF_13
 70
     0
  0
APPID
  2
GENIUS_GEFFEM_13
 70
     0
  0
APPID
  2
GENIUS_GEFFEMP_13
 70
     0
  0
APPID
  2
AD_DRAW
 70
     0
  0
APPID
  2
DESIGNERASSEMBLIES
 70
     0
  0
APPID
  2
ACADM_DIM_EDIT
 70
     0
  0
APPID
  2
AMDT_DM_ADJ
 70
     0
  0
APPID
  2
GENIUS_GENOBJ-N-FIL_13
 70
     0
  0
APPID
  2
GENIUS_GENFIL_13
 70
     0
  0
APPID
  2
GENIUS_GENOBJ-N-CHA_13
 70
     0
  0
APPID
  2
ACAD_DSTYLE_DIMJAG
 70
     0
  0
APPID
  2
ACAD_DSTYLE_DIMBREAK
 70
     0
  0
APPID
  2
ACAD_NAV_VCDISPLAY
 70
     0
  0
APPID
  2
ACAD_MLEADERVER
 70
     0
  0
ENDTAB
  0
TABLE
  2
DIMSTYLE
 70
    31
  0
DIMSTYLE
  2
STANDARD
 70
     0
  3

  4

  5

  6

  7

 40
1.0
 41
2.0
 42
2.0
 43
3.75
 44
2.0
 45
0.0
 46
0.0
 47
0.0
 48
0.0
140
4.0
141
0.09
142
0.0
143
25.399999999999999
144
1.0
145
0.0
146
1.0
147
1.0
 71
     0
 72
     0
 73
     1
 74
     1
 75
     0
 76
     0
 77
     0
 78
     8
170
     0
171
     2
172
     0
173
     1
174
     0
175
     0
176
   256
177
   256
178
   256
  0
DIMSTYLE
  2
ANNOTATIVE
 70
     0
  3

  4

  5

  6

  7

 40
1.0
 41
0.18
 42
0.0625
 43
0.38
 44
0.18
 45
0.0
 46
0.0
 47
0.0
 48
0.0
140
0.18
141
0.09
142
0.0
143
25.399999999999999
144
1.0
145
0.0
146
1.0
147
0.09
 71
     0
 72
     0
 73
     1
 74
     1
 75
     0
 76
     0
 77
     0
 78
     0
170
     0
171
     2
172
     0
173
     0
174
     0
175
     0
176
     0
177
     0
178
     0
  0
DIMSTYLE
  2
BIGT
 70
     0
  3

  4

  5

  6

  7

 40
1.0
 41
2.2299999999999991
 42
0.5
 43
7.0
 44
1.0
 45
0.0
 46
0.0
 47
0.0
 48
0.01
140
2.799999999999998
141
0.0
142
0.0
143
25.399999999999999
144
1.0
145
0.0
146
1.0
147
1.0
 71
     0
 72
     0
 73
     0
 74
     0
 75
     0
 76
     0
 77
     3
 78
     9
170
     0
171
     2
172
     1
173
     0
174
     1
175
     0
176
   256
177
   256
178
    40
  0
DIMSTYLE
  2
BIGT$0
 70
     0
  3

  4

  5

  6

  7

 40
1.0
 41
2.2299999999999991
 42
0.5
 43
7.0
 44
1.0
 45
0.0
 46
0.0
 47
0.0
 48
0.01
140
2.799999999999998
141
0.0
142
0.0
143
25.399999999999999
144
1.0
145
0.0
146
1.0
147
1.0
 71
     0
 72
     0
 73
     0
 74
     0
 75
     0
 76
     0
 77
     3
 78
     9
170
     0
171
     2
172
     1
173
     0
174
     0
175
     0
176
   256
177
   256
178
    40
  0
DIMSTYLE
  2
BIGT$2
 70
     0
  3

  4

  5

  6

  7

 40
1.0
 41
2.2299999999999991
 42
0.5
 43
7.0
 44
1.0
 45
0.0
 46
0.0
 47
0.0
 48
0.01
140
2.799999999999998
141
0.0
142
0.0
143
25.399999999999999
144
1.0
145
0.0
146
1.0
147
1.0
 71
     0
 72
     0
 73
     0
 74
     0
 75
     0
 76
     0
 77
     3
 78
     9
170
     0
171
     2
172
     1
173
     0
174
     0
175
     0
176
   256
177
   256
178
    40
  0
DIMSTYLE
  2
BIGT$3
 70
     0
  3

  4

  5

  6

  7

 40
1.0
 41
2.2299999999999991
 42
0.5
 43
2.5
 44
1.0
 45
0.0
 46
0.0
 47
0.1
 48
0.1000000001
140
2.799999999999998
141
0.0
142
0.0
143
25.399999999999999
144
1.0
145
0.0
146
1.0
147
1.0
 71
     0
 72
     0
 73
     0
 74
     0
 75
     0
 76
     0
 77
     3
 78
     9
170
     0
171
     2
172
     1
173
     0
174
     0
175
     0
176
   256
177
   256
178
    40
  0
DIMSTYLE
  2
BIGT$4
 70
     0
  3

  4

  5

  6

  7

 40
1.0
 41
2.2299999999999991
 42
0.5
 43
2.5
 44
1.0
 45
0.0
 46
0.0
 47
0.0
 48
0.01
140
2.799999999999998
141
0.0
142
0.0
143
25.399999999999999
144
1.0
145
0.0
146
1.0
147
1.0
 71
     0
 72
     0
 73
     0
 74
     0
 75
     0
 76
     0
 77
     3
 78
     9
170
     0
171
     2
172
     1
173
     0
174
     0
175
     0
176
   256
177
   256
178
    40
  0
DIMSTYLE
  2
BIGT$6
 70
     0
  3

  4

  5

  6

  7

 40
1.0
 41
2.2299999999999991
 42
0.5
 43
2.5
 44
1.0
 45
0.0
 46
0.0
 47
0.0
 48
0.01
140
2.799999999999998
141
0.0
142
0.0
143
25.399999999999999
144
1.0
145
0.0
146
1.0
147
1.0
 71
     0
 72
     0
 73
     0
 74
     0
 75
     0
 76
     0
 77
     3
 78
     9
170
     0
171
     2
172
     1
173
     0
174
     0
175
     0
176
   256
177
   256
178
    40
  0
DIMSTYLE
  2
BIGT$7
 70
     0
  3

  4

  5

  6

  7

 40
0.0
 41
2.2299999999999991
 42
0.5
 43
7.0
 44
1.0
 45
0.0
 46
0.0
 47
0.0
 48
0.01
140
2.799999999999998
141
0.0
142
0.0
143
25.399999999999999
144
1.0
145
0.0
146
1.0
147
1.0
 71
     0
 72
     0
 73
     0
 74
     0
 75
     0
 76
     0
 77
     3
 78
     9
170
     0
171
     2
172
     0
173
     0
174
     0
175
     0
176
   256
177
   256
178
    40
  0
DIMSTYLE
  2
BIGT$SF
 70
     0
  3

  4

  5

  6

  7

 40
1.0
 41
2.2299999999999991
 42
0.5
 43
7.0
 44
1.0
 45
0.0
 46
0.0
 47
0.0
 48
0.0
140
2.799999999999998
141
0.0
142
0.0
143
25.399999999999999
144
1.0
145
0.0
146
1.0
147
1.0
 71
     0
 72
     0
 73
     0
 74
     0
 75
     0
 76
     0
 77
     3
 78
     9
170
     0
171
     2
172
     1
173
     0
174
     0
175
     0
176
   256
177
   256
178
    40
  0
DIMSTYLE
  2
BIGT$SH
 70
     0
  3

  4

  5

  6

  7

 40
1.0
 41
2.2299999999999991
 42
0.5
 43
7.0
 44
1.0
 45
0.0
 46
0.0
 47
0.0
 48
0.0
140
2.799999999999998
141
0.0
142
0.0
143
25.399999999999999
144
1.0
145
0.0
146
1.0
147
1.0
 71
     0
 72
     0
 73
     0
 74
     0
 75
     0
 76
     0
 77
     3
 78
     9
170
     0
171
     2
172
     1
173
     0
174
     0
175
     0
176
   256
177
   256
178
    40
  0
DIMSTYLE
  2
AM_ISO
 70
     0
  3

  4
"
  5

  6

  7

 40
1.0
 41
2.5
 42
1.0
 43
10.0
 44
1.0
 45
0.0
 46
0.0
 47
0.1
 48
0.1
140
3.5
141
0.0
142
0.0
143
0.0393701
144
1.0
145
0.0
146
0.71
147
1.5
 71
     0
 72
     0
 73
     0
 74
     0
 75
     0
 76
     0
 77
     1
 78
     8
170
     0
171
     2
172
     1
173
     0
174
     0
175
     0
176
   256
177
   256
178
     2
  0
DIMSTYLE
  2
AM_ISO$3
 70
     0
  3

  4
"
  5

  6

  7

 40
1.0
 41
2.5
 42
1.0
 43
10.0
 44
1.0
 45
0.0
 46
0.0
 47
0.1
 48
0.1
140
3.5
141
0.0
142
0.0
143
0.0393701
144
1.0
145
0.0
146
0.71
147
1.5
 71
     0
 72
     0
 73
     0
 74
     1
 75
     0
 76
     0
 77
     1
 78
     8
170
     0
171
     2
172
     0
173
     0
174
     0
175
     0
176
   256
177
   256
178
     2
  0
DIMSTYLE
  2
AM_ISO$4
 70
     0
  3

  4
"
  5

  6

  7

 40
1.0
 41
2.5
 42
1.0
 43
10.0
 44
1.0
 45
0.0
 46
0.0
 47
0.1
 48
0.1
140
3.5
141
0.0
142
0.0
143
0.0393701
144
1.0
145
0.0
146
0.71
147
1.5
 71
     0
 72
     0
 73
     0
 74
     1
 75
     0
 76
     0
 77
     1
 78
     8
170
     0
171
     2
172
     0
173
     0
174
     0
175
     0
176
   256
177
   256
178
     2
  0
DIMSTYLE
  2
AM_ISO$6
 70
     0
  3

  4
"
  5

  6

  7

 40
1.0
 41
2.5
 42
1.0
 43
10.0
 44
1.0
 45
0.0
 46
0.0
 47
0.1
 48
0.1
140
3.5
141
0.0
142
0.0
143
0.0393701
144
1.0
145
0.0
146
0.71
147
1.5
 71
     0
 72
     0
 73
     0
 74
     0
 75
     0
 76
     0
 77
     0
 78
     8
170
     0
171
     2
172
     1
173
     0
174
     0
175
     0
176
   256
177
   256
178
     2
  0
DIMSTYLE
  2
AM_ISO$7
 70
     0
  3

  4
"
  5

  6

  7

 40
1.0
 41
2.5
 42
1.0
 43
10.0
 44
1.0
 45
0.0
 46
0.0
 47
0.1
 48
0.1
140
5.0
141
0.0
142
0.0
143
0.0393701
144
1.0
145
0.0
146
0.71
147
1.5
 71
     0
 72
     0
 73
     0
 74
     0
 75
     0
 76
     0
 77
     1
 78
     8
170
     0
171
     2
172
     1
173
     0
174
     0
175
     0
176
   256
177
   256
178
     2
  0
DIMSTYLE
  2
AM_ISO$SF
 70
     0
  3

  4
"
  5

  6

  7

 40
1.0
 41
2.5
 42
1.0
 43
10.0
 44
1.0
 45
0.0
 46
0.0
 47
0.1
 48
0.1
140
3.5
141
0.0
142
0.0
143
0.0393701
144
1.0
145
0.0
146
0.71
147
1.5
 71
     0
 72
     0
 73
     0
 74
     0
 75
     1
 76
     1
 77
     1
 78
     8
170
     0
171
     2
172
     1
173
     0
174
     0
175
     0
176
   256
177
   256
178
     2
  0
DIMSTYLE
  2
AM_ISO$SH
 70
     0
  3

  4
"
  5

  6

  7

 40
1.0
 41
2.5
 42
1.0
 43
10.0
 44
1.0
 45
0.0
 46
0.0
 47
0.1
 48
0.1
140
3.5
141
0.0
142
0.0
143
0.0393701
144
2.0
145
0.0
146
0.71
147
1.5
 71
     0
 72
     0
 73
     0
 74
     0
 75
     1
 76
     1
 77
     1
 78
     8
170
     0
171
     2
172
     1
173
     1
174
     0
175
     0
176
   256
177
   256
178
     2
  0
DIMSTYLE
  2
TECHNICAL_OSAKA
 70
     0
  3

  4
"
  5

  6

  7

 40
1.0
 41
2.5
 42
1.0
 43
10.0
 44
1.0
 45
0.0
 46
0.0
 47
0.1
 48
0.1
140
2.799999999999998
141
0.0
142
0.0
143
0.0393701
144
1.0
145
0.0
146
0.71
147
1.5
 71
     0
 72
     0
 73
     0
 74
     0
 75
     0
 76
     0
 77
     3
 78
     8
170
     0
171
     2
172
     1
173
     0
174
     0
175
     0
176
   256
177
   256
178
    40
  0
DIMSTYLE
  2
TECHNICAL_OSAKA$3
 70
     0
  3

  4
"
  5

  6

  7

 40
1.0
 41
2.5
 42
1.0
 43
10.0
 44
1.0
 45
0.0
 46
0.0
 47
0.1
 48
0.1
140
2.799999999999998
141
0.0
142
0.0
143
0.0393701
144
1.0
145
0.0
146
0.71
147
1.5
 71
     0
 72
     0
 73
     0
 74
     1
 75
     0
 76
     0
 77
     3
 78
     8
170
     0
171
     2
172
     0
173
     0
174
     0
175
     0
176
   256
177
   256
178
    40
  0
DIMSTYLE
  2
TECHNICAL_OSAKA$4
 70
     0
  3

  4
"
  5

  6

  7

 40
1.0
 41
2.5
 42
1.0
 43
10.0
 44
1.0
 45
0.0
 46
0.0
 47
0.1
 48
0.1
140
2.799999999999998
141
0.0
142
0.0
143
0.0393701
144
1.0
145
0.0
146
0.71
147
1.5
 71
     0
 72
     0
 73
     0
 74
     1
 75
     0
 76
     0
 77
     3
 78
     8
170
     0
171
     2
172
     0
173
     0
174
     0
175
     0
176
   256
177
   256
178
    40
  0
DIMSTYLE
  2
TECHNICAL_OSAKA$6
 70
     0
  3

  4
"
  5

  6

  7

 40
1.0
 41
2.5
 42
1.0
 43
10.0
 44
1.0
 45
0.0
 46
0.0
 47
0.1
 48
0.1
140
2.799999999999998
141
0.0
142
0.0
143
0.0393701
144
1.0
145
0.0
146
0.71
147
1.5
 71
     0
 72
     0
 73
     0
 74
     0
 75
     0
 76
     0
 77
     0
 78
     8
170
     0
171
     2
172
     1
173
     0
174
     0
175
     0
176
   256
177
   256
178
    40
  0
DIMSTYLE
  2
TECHNICAL_OSAKA$7
 70
     0
  3

  4
"
  5

  6

  7

 40
1.0
 41
2.5
 42
1.0
 43
10.0
 44
1.0
 45
0.0
 46
0.0
 47
0.1
 48
0.1
140
2.799999999999998
141
0.0
142
0.0
143
0.0393701
144
1.0
145
0.0
146
0.71
147
1.5
 71
     0
 72
     0
 73
     0
 74
     0
 75
     0
 76
     0
 77
     3
 78
     8
170
     0
171
     2
172
     1
173
     0
174
     0
175
     0
176
   256
177
   256
178
    40
  0
DIMSTYLE
  2
TECHNICAL_OSAKA$SF
 70
     0
  3

  4
"
  5

  6

  7

 40
1.0
 41
2.5
 42
1.0
 43
10.0
 44
1.0
 45
0.0
 46
0.0
 47
0.1
 48
0.1
140
3.5
141
0.0
142
0.0
143
0.0393701
144
1.0
145
0.0
146
0.71
147
1.5
 71
     0
 72
     0
 73
     0
 74
     0
 75
     1
 76
     1
 77
     3
 78
     8
170
     0
171
     2
172
     1
173
     0
174
     0
175
     0
176
   256
177
   256
178
    40
  0
DIMSTYLE
  2
TECHNICAL_OSAKA$SH
 70
     0
  3

  4
"
  5

  6

  7

 40
1.0
 41
2.5
 42
1.0
 43
10.0
 44
1.0
 45
0.0
 46
0.0
 47
0.1
 48
0.1
140
3.5
141
0.0
142
0.0
143
0.0393701
144
2.0
145
0.0
146
0.71
147
1.5
 71
     0
 72
     0
 73
     0
 74
     0
 75
     1
 76
     1
 77
     3
 78
     8
170
     0
171
     2
172
     1
173
     1
174
     0
175
     0
176
   256
177
   256
178
    40
  0
DIMSTYLE
  2
AM_ANSI
 70
     0
  3

  4
mm
  5

  6

  7

 40
1.0
 41
0.12
 42
0.05
 43
0.5
 44
0.1
 45
0.0
 46
0.0
 47
0.1
 48
0.1
140
0.12
141
0.0
142
0.0
143
25.399999999999999
144
1.0
145
0.0
146
0.71
147
0.06
 71
     0
 72
     0
 73
     1
 74
     1
 75
     0
 76
     0
 77
     0
 78
     7
170
     0
171
     2
172
     0
173
     0
174
     0
175
     0
176
   256
177
   256
178
     2
  0
DIMSTYLE
  2
AM_ANSI$3
 70
     0
  3

  4
mm
  5

  6

  7

 40
1.0
 41
0.12
 42
0.05
 43
0.5
 44
0.1
 45
0.0
 46
0.0
 47
0.1
 48
0.1
140
0.12
141
0.0
142
0.0
143
25.399999999999999
144
1.0
145
0.0
146
0.71
147
0.06
 71
     0
 72
     0
 73
     1
 74
     1
 75
     0
 76
     0
 77
     0
 78
     7
170
     0
171
     2
172
     0
173
     0
174
     0
175
     0
176
   256
177
   256
178
     2
  0
DIMSTYLE
  2
AM_ANSI$4
 70
     0
  3

  4
mm
  5

  6

  7

 40
1.0
 41
0.12
 42
0.05
 43
0.5
 44
0.1
 45
0.0
 46
0.0
 47
0.1
 48
0.1
140
0.12
141
0.0
142
0.0
143
25.399999999999999
144
1.0
145
0.0
146
0.71
147
0.06
 71
     0
 72
     0
 73
     1
 74
     1
 75
     0
 76
     0
 77
     0
 78
     7
170
     0
171
     2
172
     0
173
     0
174
     0
175
     0
176
   256
177
   256
178
     2
  0
DIMSTYLE
  2
AM_ANSI$7
 70
     0
  3

  4
mm
  5

  6

  7

 40
1.0
 41
0.12
 42
0.05
 43
0.5
 44
0.1
 45
0.0
 46
0.0
 47
0.1
 48
0.1
140
0.12
141
0.0
142
0.0
143
25.399999999999999
144
1.0
145
0.0
146
0.71
147
0.06
 71
     0
 72
     0
 73
     1
 74
     1
 75
     0
 76
     0
 77
     0
 78
     7
170
     0
171
     2
172
     0
173
     0
174
     0
175
     0
176
   256
177
   256
178
     2
  0
DIMSTYLE
  2
AM_ANSI$SF
 70
     0
  3

  4
mm
  5

  6

  7

 40
1.0
 41
0.12
 42
0.05
 43
0.5
 44
0.1
 45
0.0
 46
0.0
 47
0.1
 48
0.1
140
0.12
141
0.0
142
0.0
143
25.399999999999999
144
1.0
145
0.0
146
0.71
147
0.06
 71
     0
 72
     0
 73
     1
 74
     1
 75
     1
 76
     1
 77
     0
 78
     7
170
     0
171
     2
172
     0
173
     0
174
     0
175
     0
176
   256
177
   256
178
     2
  0
DIMSTYLE
  2
AM_ANSI$SH
 70
     0
  3

  4
mm
  5

  6
GENAXEH
  7

 40
1.0
 41
0.12
 42
0.05
 43
0.5
 44
0.1
 45
0.0
 46
0.0
 47
0.1
 48
0.1
140
0.12
141
0.0
142
0.0
143
25.399999999999999
144
1.0
145
0.0
146
0.71
147
0.06
 71
     0
 72
     0
 73
     1
 74
     1
 75
     1
 76
     1
 77
     0
 78
     7
170
     0
171
     2
172
     0
173
     1
174
     0
175
     0
176
   256
177
   256
178
     2
  0
ENDTAB
  0
ENDSEC
  0
SECTION
  2
BLOCKS
  0
BLOCK
  8
0
  2
$MODEL_SPACE
 70
     0
 10
0.0
 20
0.0
 30
0.0
  3
$MODEL_SPACE
  1

  0
ENDBLK
  5
F9D
  8
0
  0
BLOCK
 67
     1
  8
0
  2
$PAPER_SPACE
 70
     0
 10
0.0
 20
0.0
 30
0.0
  3
$PAPER_SPACE
  1

  0
ENDBLK
  5
F99
 67
     1
  8
0
  0
BLOCK
  8
0
  2
_OPEN
 70
     0
 10
0.0
 20
0.0
 30
0.0
  3
_OPEN
  1

  0
LINE
  5
E66
  8
0
  6
BYBLOCK
 62
     0
 10
-1.0
 20
0.1666666666666666
 30
0.0
 11
0.0
 21
0.0
 31
0.0
  0
LINE
  5
E67
  8
0
  6
BYBLOCK
 62
     0
 10
-1.0
 20
-0.1666666666666666
 30
0.0
 11
0.0
 21
0.0
 31
0.0
  0
LINE
  5
E68
  8
0
  6
BYBLOCK
 62
     0
 10
0.0
 20
0.0
 30
0.0
 11
-1.0
 21
0.0
 31
0.0
  0
ENDBLK
  5
E69
  8
0
  0
BLOCK
  8
0
  2
*D3
 70
     1
 10
0.0
 20
0.0
 30
0.0
  3
*D3
  1

  0
LINE
  5
DC0
  8
250
  6
CONTINUOUS
 10
-44.000000000000107
 20
-0.5000000000000142
 30
0.0
 11
-44.000000000000107
 21
-32.5
 31
0.0
  0
LINE
  5
DC1
  8
250
  6
CONTINUOUS
 10
5.9999999999999698
 20
-16.5
 30
0.0
 11
5.9999999999999689
 21
-32.5
 31
0.0
  0
LINE
  5
DC2
  8
250
  6
CONTINUOUS
 10
-41.770000000000117
 20
-31.499999999999989
 30
0.0
 11
3.7699999999999689
 21
-31.499999999999989
 31
0.0
  0
INSERT
  5
DC3
  8
250
  6
CONTINUOUS
  2
_OPEN
 10
-44.000000000000107
 20
-31.499999999999989
 30
0.0
 41
2.2299999999999991
 42
2.2299999999999991
 43
2.2299999999999991
 50
180.0
  0
INSERT
  5
DC4
  8
250
  6
CONTINUOUS
  2
_OPEN
 10
5.9999999999999689
 20
-31.499999999999989
 30
0.0
 41
2.2299999999999991
 42
2.2299999999999991
 43
2.2299999999999991
  0
INSERT
  5
DC5
  8
240
  2
*U4
 10
0.0
 20
0.0
 30
0.0
  0
POINT
  5
DC6
  8
DEFPOINTS
  6
CONTINUOUS
 62
     0
 10
-44.000000000000107
 20
-0.0000000000000142
 30
0.0
  0
POINT
  5
DC7
  8
DEFPOINTS
  6
CONTINUOUS
 62
     0
 10
5.9999999999999698
 20
-16.0
 30
0.0
  0
POINT
  5
DC8
  8
DEFPOINTS
  6
CONTINUOUS
 62
     0
 10
5.9999999999999689
 20
-31.499999999999989
 30
0.0
  0
ENDBLK
  5
70B
  8
0
  0
BLOCK
  8
0
  2
*U4
 70
     1
 10
0.0
 20
0.0
 30
0.0
  3
*U4
  1

  0
TEXT
  5
F20
  8
250
 62
    40
 10
-21.857142857142929
 20
-30.499999999999989
 30
0.0
 40
3.0
  1
50
  0
ENDBLK
  5
F22
  8
0
  0
BLOCK
  8
0
  2
*D5
 70
     1
 10
0.0
 20
0.0
 30
0.0
  3
*D5
  1

  0
LINE
  5
DC9
  8
250
  6
CONTINUOUS
 10
6.4999999999999698
 20
-10.0
 30
0.0
 11
27.999999999999961
 21
-10.0
 31
0.0
  0
LINE
  5
DCA
  8
250
  6
CONTINUOUS
 10
6.4999999999999707
 20
10.0
 30
0.0
 11
27.999999999999979
 21
9.9999999999999911
 31
0.0
  0
LINE
  5
DCB
  8
250
  6
CONTINUOUS
 10
26.999999999999972
 20
-7.770000000000004
 30
0.0
 11
26.999999999999972
 21
7.7699999999999934
 31
0.0
  0
INSERT
  5
DCC
  8
250
  6
CONTINUOUS
  2
_OPEN
 10
26.999999999999972
 20
-10.0
 30
0.0
 41
2.2299999999999991
 42
2.2299999999999991
 43
2.2299999999999991
 50
270.0
  0
INSERT
  5
DCD
  8
250
  6
CONTINUOUS
  2
_OPEN
 10
26.999999999999972
 20
9.9999999999999911
 30
0.0
 41
2.2299999999999991
 42
2.2299999999999991
 43
2.2299999999999991
 50
90.0
  0
INSERT
  5
DCE
  8
240
  2
*U6
 10
0.0
 20
0.0
 30
0.0
  0
POINT
  5
DCF
  8
DEFPOINTS
  6
CONTINUOUS
 62
     0
 10
5.9999999999999698
 20
-10.0
 30
0.0
  0
POINT
  5
DD0
  8
DEFPOINTS
  6
CONTINUOUS
 62
     0
 10
5.9999999999999707
 20
10.0
 30
0.0
  0
POINT
  5
DD1
  8
DEFPOINTS
  6
CONTINUOUS
 62
     0
 10
26.999999999999972
 20
9.9999999999999911
 30
0.0
  0
ENDBLK
  5
729
  8
0
  0
BLOCK
  8
0
  2
*U6
 70
     1
 10
0.0
 20
0.0
 30
0.0
  3
*U6
  1

  0
TEXT
  5
F24
  8
250
 62
    40
 10
25.999999999999972
 20
-4.0714285714285721
 30
0.0
 40
3.0
  1
\U+2205
 50
90.0
  0
TEXT
  5
F25
  8
250
 62
    40
 10
25.999999999999972
 20
-1.3571428571428581
 30
0.0
 40
3.0
  1
20
 50
90.0
  0
ENDBLK
  5
F27
  8
0
  0
BLOCK
  8
0
  2
A$C2EBD40F6
 70
     0
 10
0.0
 20
0.0
 30
0.0
  3
A$C2EBD40F6
  1

  0
LINE
  5
C0A
  8
243
 10
0.0
 20
10.0
 30
0.0
 11
-48.000000000000071
 21
10.000000000000011
 31
0.0
  0
LINE
  5
C0B
  8
240
 10
-4.9999999999999698
 20
-16.5
 30
0.0
 11
-0.5
 21
-16.5
 31
0.0
  0
LINE
  5
C0C
  8
243
 10
0.0
 20
-10.0
 30
0.0
 11
-48.000000000000071
 21
-10.0
 31
0.0
  0
LINE
  5
C0D
  8
245
 10
3.5222371169933231
 20
0.0
 30
0.0
 11
-66.454505631409106
 21
-0.0000000000000142
 31
0.0
  0
LINE
  5
C0E
  8
240
 10
-4.9999999999999698
 20
16.5
 30
0.0
 11
-0.5
 21
16.5
 31
0.0
  0
LINE
  5
C0F
  8
247
 10
-4.1574380713379924
 20
8.0719994703795805
 30
0.0
 11
-4.1574380713379924
 21
3.1491814772154481
 31
0.0
1001
ACAD
1000
ASC_BOUNDS
1002
{
1070
    19
1005
C13
1002
}
  0
ARC
  5
C10
  8
247
 10
-3.1268011885559872
 20
3.1491814772154481
 30
0.0
 40
1.0306365966796871
 50
180.0
 51
14.12743649641196
1001
ACAD
1000
ASC_BOUNDS
1002
{
1070
    19
1005
C13
1002
}
  0
LINE
  5
C11
  8
247
 10
-4.3999429479093219
 20
8.0719994703795805
 30
0.0
 11
-4.3999429479093219
 21
3.1491814772154481
 31
0.0
1001
ACAD
1000
ASC_BOUNDS
1002
{
1070
    19
1005
C13
1002
}
  0
ARC
  5
C12
  8
247
 10
-3.1268011885559872
 20
3.1491814772154481
 30
0.0
 40
1.273141479492186
 50
180.0
 51
14.770793966093979
1001
ACAD
1000
ASC_BOUNDS
1002
{
1070
    19
1005
C13
1002
}
  0
INSERT
  5
C13
  8
247
  6
CONTINUOUS
  2
*X8
 10
0.0
 20
0.0
 30
0.0
1001
ACAD
1000
HATCH
1002
{
1070
    19
1000
ANSI31
1040
0.06
1040
4.7123889803846879
1000
ASC_BOUNDS
1070
     1
1070
     2
1070
    10
1005
C6C
1005
C10
1005
C12
1005
C0F
1005
C11
1005
C80
1005
C81
1005
C7E
1005
C7F
1005
C7D
1000
ASC_SEEDPOINT
1011
-13.849936946002289
1021
0.0
1031
0.0
1021
81.225132939007423
1031
0.0
1000
R14_HATCH_DATA
1000
C13
1011
1.0
1021
0.0
1031
0.0
1021
0.0
1031
0.0
1011
0.0
1021
0.0
1031
0.0
1021
1.0
1031
0.0
1011
0.0
1021
0.0
1031
0.0
1021
0.0
1031
1.0
1040
0.0
1010
0.0
1020
0.0
1030
1.0
1000
ANSI31
1070
     0
1070
     1
1071
        1
1071
       33
1071
       10
1070
     1
1040
-1.853659709063805
1040
7.5711968580748703
1040
-2.096164591876287
1040
7.6407311598326819
1070
     1
1040
-1.853659709063805
1040
8.0719994703795805
1040
-1.853659709063805
1040
7.5711968580748703
1070
     1
1040
-2.096164591876287
1040
8.0719994703795805
1040
-2.096164591876287
1040
7.6407311598326819
1070
     2
1040
-3.1268011885559872
1040
8.0719994703795805
1040
1.0306365966796871
1040
0.0
1040
3.1415926535897918
1070
     1
1070
     2
1040
-3.1268011885559872
1040
8.0719994703795805
1040
1.273141479492186
1040
0.0
1040
3.1415926535897918
1070
     1
1070
     1
1040
-4.3999429479093219
1040
8.0719994703795805
1040
-4.3999429479093219
1040
3.1491814772154481
1070
     1
1040
-4.1574380713379924
1040
8.0719994703795805
1040
-4.1574380713379924
1040
3.1491814772154481
1070
     2
1040
-3.1268011885559872
1040
3.1491814772154481
1040
1.273141479492186
1040
3.1415926535897918
1040
6.5409842950216381
1070
     1
1070
     2
1040
-3.1268011885559872
1040
3.1491814772154481
1040
1.0306365966796871
1040
3.1415926535897918
1040
6.5297555889083849
1070
     1
1070
     1
1040
-2.1273291426575711
1040
3.400740925457681
1040
-1.895728190509117
1040
3.4737725416685521
1071
       10
1005
C7D
1005
C7F
1005
C7E
1005
C81
1005
C80
1005
C11
1005
C0F
1005
C12
1005
C10
1005
C6C
1070
     0
1070
     1
1040
4.7123889803846879
1040
0.06
1070
     0
1070
     1
1040
5.4977871437821371
1040
-13.849936946002289
1040
81.225132939007423
1040
0.1347038418160373
1040
0.1347038418160372
1070
     0
1071
        1
1040
-13.849936946002289
1040
81.225132939007423
1040
0.0
1002
}
  0
LINE
  5
C14
  8
241
 10
-5.4999999999999698
 20
-12.199999999999971
 30
0.0
 11
-5.4999999999999698
 21
12.200000000000189
 31
0.0
  0
LINE
  5
C15
  8
241
 10
-8.5
 20
-12.199999999999941
 30
0.0
 11
-8.5000000000000568
 21
12.2000000000002
 31
0.0
  0
LINE
  5
C16
  8
240
 10
-61.999999999999972
 20
-10.500000000000011
 30
0.0
 11
-61.999999999999993
 21
10.5
 31
0.0
  0
LINE
  5
C17
  8
240
 10
-59.999999999999972
 20
-12.500000000000011
 30
0.0
 11
-8.5
 21
-12.5
 31
0.0
  0
ARC
  5
C18
  8
240
 10
-59.999999999999972
 20
-10.500000000000011
 30
0.0
 40
2.0
 50
180.0
 51
270.0
  0
LINE
  5
C19
  8
240
 10
-5.4999999999999698
 20
-16.0
 30
0.0
 11
-5.4999999999999698
 21
-12.199999999999971
 31
0.0
  0
LINE
  5
C1A
  8
240
 10
-4.9999999999999698
 20
-16.5
 30
0.0
 11
-5.4999999999999698
 21
-16.0
 31
0.0
  0
TEXT
  5
C1B
  8
247
 10
-4.1252674264605931
 20
1.2030428674386811
 30
0.0
 40
2.0
  1
OSL25-20
 50
270.0
 41
0.65
  7
YOKO
 11
-4.1252674264605931
 21
1.2030428674386811
 31
0.0
 73
     1
  0
LINE
  5
C1C
  8
240
 10
-5.5
 20
-12.199999999999999
 30
0.0
 11
-8.5
 21
-12.199999999999971
 31
0.0
  0
LINE
  5
C1D
  8
240
 10
-8.5
 20
-12.5
 30
0.0
 11
-8.5
 21
-12.199999999999941
 31
0.0
  0
LINE
  5
C1E
  8
240
 10
-8.5000000000000568
 20
12.49999999999997
 30
0.0
 11
-60.0
 21
12.500000000000011
 31
0.0
  0
ARC
  5
C1F
  8
240
 10
-60.0
 20
10.5
 30
0.0
 40
2.0
 50
90.0
 51
180.0
  0
LINE
  5
C20
  8
243
 10
-29.499999999999861
 20
10.000000000000011
 30
0.0
 11
-29.499999999999741
 21
12.50000000000003
 31
0.0
  0
LINE
  5
C21
  8
245
 10
-20.999999999999691
 20
16.0
 30
0.0
 11
-20.999999999999879
 21
8.0666929096075961
 31
0.0
  0
LINE
  5
C22
  8
243
 10
-12.499999999999829
 20
10.0
 30
0.0
 11
-12.49999999999971
 21
12.500000000000011
 31
0.0
  0
LINE
  5
C23
  8
247
 10
-3.0725033384168792
 20
7.0629607591786803
 30
0.0
 11
-3.7655933707702318
 21
7.2616940537507721
 31
0.0
  0
LINE
  5
C24
  8
247
 10
-4.0361856299317083
 20
7.8311682857673182
 30
0.0
 11
-3.3465597045848181
 21
7.141542360420372
 31
0.0
  0
LINE
  5
C25
  8
247
 10
-4.0361856299317083
 20
7.5617606021352781
 30
0.0
 11
-3.7242703048344179
 21
7.2498452770378741
 31
0.0
  0
LINE
  5
C26
  8
247
 10
-4.0361856299317083
 20
7.9447503248716771
 30
0.0
 11
-4.0361856299317083
 21
6.9384026686216771
 31
0.0
  0
LINE
  5
C27
  8
247
 10
-3.0622818919818542
 20
7.6654875987135824
 30
0.0
 11
-2.2134141035396611
 21
6.8166198102714466
 31
0.0
  0
LINE
  5
C28
  8
247
 10
-2.6845657110081902
 20
7.5571791013720144
 30
0.0
 11
-1.8536597090638891
 21
6.726273099427714
 31
0.0
  0
LINE
  5
C29
  8
247
 10
-1.853659709063805
 20
7.445064655926271
 30
0.0
 11
-1.8536597090638891
 21
6.6627551541785692
 31
0.0
  0
LINE
  5
C2A
  8
247
 10
-2.3068495300345262
 20
7.4488706040304464
 30
0.0
 11
-1.8536597090638609
 21
6.995680783059754
 31
0.0
  0
LINE
  5
C2B
  8
247
 10
-3.4399980729555182
 20
7.7737960960552641
 30
0.0
 11
-2.5911267095476078
 21
6.9249247326472974
 31
0.0
  0
LINE
  5
C2C
  8
247
 10
-3.8177142539291822
 20
7.8821045933968321
 30
0.0
 11
-2.7916506767911642
 21
6.8560410162588701
 31
0.0
  0
ARC
  5
C2D
  8
247
 10
-3.405679972735697
 20
7.2089501539732623
 30
0.0
 40
0.363757574558258
 50
171.66285421114881
 51
336.33819215911382
  0
LINE
  5
C2E
  8
247
 10
-4.0361856299317083
 20
7.2923529185031262
 30
0.0
 11
-3.1463800780455511
 21
6.4025473666169432
 31
0.0
  0
INSERT
  5
C2F
  8
247
  6
CONTINUOUS
  2
*X9
 10
0.0
 20
0.0
 30
0.0
1001
ACAD
1000
HATCH
1002
{
1070
    19
1000
ANSI31
1040
0.06
1040
4.7123889803846879
1000
ASC_BOUNDS
1070
     1
1070
     1
1070
     1
1005
C38
1000
ASC_SEEDPOINT
1011
-2.887774341062793
1021
0.0
1031
0.0
1021
5.6028163439912628
1031
0.0
1000
R14_HATCH_DATA
1000
C2F
1011
1.0
1021
0.0
1031
0.0
1021
0.0
1031
0.0
1011
0.0
1021
0.0
1031
0.0
1021
1.0
1031
0.0
1011
0.0
1021
0.0
1031
0.0
1021
0.0
1031
1.0
1040
0.0
1010
0.0
1020
0.0
1030
1.0
1000
ANSI31
1070
     0
1070
     1
1071
        1
1071
        7
1070
     0
1070
     1
1071
        6
1040
-1.853659709063805
1040
5.0358269850279953
1040
-1.853659709063805
1040
5.6665154615904481
1040
-2.1204077559387979
1040
5.7430077711607614
1040
-2.1204077559387979
1040
5.6547051588560731
1040
-4.0361856299317083
1040
6.2040490309264564
1040
-4.0361856299317083
1040
5.6616540113951119
1071
        1
1005
C38
1070
     0
1070
     1
1040
4.7123889803846879
1040
0.06
1070
     0
1070
     1
1040
5.4977871437821371
1040
-13.849936946002289
1040
81.225132939007423
1040
0.1347038418160373
1040
0.1347038418160372
1070
     0
1040
0.0134348504236232
1071
        1
1040
-2.887774341062793
1040
5.6028163439912628
1040
0.0
1002
}
  0
POLYLINE
  5
C30
  8
247
 66
     1
 10
0.0
 20
0.0
 30
0.0
 70
     1
1001
HATCH_DISTANCE
1040
1.0
1001
HATCH_DISPLAY
1070
     0
1001
HATCH_TYPE
1070
     7
  0
VERTEX
  5
C31
  8
247
 10
-1.853659709063805
 20
5.6665154615904481
 30
0.0
  0
VERTEX
  5
C32
  8
247
 10
-2.1204077559387979
 20
5.7430077711607614
 30
0.0
  0
VERTEX
  5
C33
  8
247
 10
-2.1204077559387979
 20
5.6547051588560731
 30
0.0
  0
VERTEX
  5
C34
  8
247
 10
-4.0361856299317083
 20
6.2040490309264547
 30
0.0
  0
VERTEX
  5
C35
  8
247
 10
-4.0361856299317083
 20
5.6616540113951128
 30
0.0
  0
VERTEX
  5
C36
  8
247
 10
-1.853659709063805
 20
5.0358269850279953
 30
0.0
  0
SEQEND
  5
C37
  8
247
  0
POLYLINE
  5
C38
  8
247
 66
     1
 10
0.0
 20
0.0
 30
0.0
 70
     1
1001
ACAD
1000
ASC_BOUNDS
1002
{
1070
    19
1005
C2F
1002
}
  0
VERTEX
  5
C39
  8
247
 10
-1.853659709063805
 20
5.6665154615904481
 30
0.0
  0
VERTEX
  5
C3A
  8
247
 10
-2.1204077559387979
 20
5.7430077711607614
 30
0.0
  0
VERTEX
  5
C3B
  8
247
 10
-2.1204077559387979
 20
5.6547051588560731
 30
0.0
  0
VERTEX
  5
C3C
  8
247
 10
-4.0361856299317083
 20
6.2040490309264547
 30
0.0
  0
VERTEX
  5
C3D
  8
247
 10
-4.0361856299317083
 20
5.6616540113951128
 30
0.0
  0
VERTEX
  5
C3E
  8
247
 10
-1.853659709063805
 20
5.0358269850279953
 30
0.0
  0
SEQEND
  5
C3F
  8
247
  0
LINE
  5
C40
  8
247
 10
-4.0361856299317083
 20
5.6616540113951128
 30
0.0
 11
-1.853659709063805
 21
5.0358269850279953
 31
0.0
  0
LINE
  5
C41
  8
247
 10
-3.152641668109025
 20
6.947624323944579
 30
0.0
 11
-2.284843102029241
 21
6.0798257578648531
 31
0.0
  0
ARC
  5
C42
  8
247
 10
-2.4356695967591122
 20
6.9308037916685521
 30
0.0
 40
0.3637471675872803
 50
171.66260168792931
 51
336.3381550951899
  0
LINE
  5
C43
  8
247
 10
-2.102503056403064
 20
6.7848172912140949
 30
0.0
 11
-2.7955725316234061
 21
6.9835473164261526
 31
0.0
  0
LINE
  5
C44
  8
247
 10
-2.5104323721688782
 20
6.5748227116365001
 30
0.0
 11
-2.1046238621160551
 21
6.1690142015837051
 31
0.0
  0
LINE
  5
C45
  8
247
 10
-4.0361856299317083
 20
6.2040490309264547
 30
0.0
 11
-2.1204077559387979
 21
5.6547051588560731
 31
0.0
  0
ARC
  5
C46
  8
247
 10
-3.2894903975403622
 20
3.112761799481119
 30
0.0
 40
2.0624633789062501
 50
65.205177369842275
 51
82.79482596205051
1001
ACAD
1000
ASC_BOUNDS
1002
{
1070
    19
1005
C70
1002
}
  0
ARC
  5
C47
  8
247
 10
-2.4599127608216231
 20
6.6602563063170788
 30
0.0
 40
0.606258201599121
 50
197.66957754739809
 51
0.2361598426716327
  0
LINE
  5
C48
  8
247
 10
-4.0361856299317083
 20
6.2040490309264547
 30
0.0
 11
-4.0361856299317083
 21
5.6616540113951128
 31
0.0
  0
LINE
  5
C49
  8
247
 10
-3.3280070718863031
 20
6.8535820440898192
 30
0.0
 11
-2.5328233311411719
 21
6.0583983033446307
 31
0.0
  0
LINE
  5
C4A
  8
247
 10
-3.9907315839219559
 20
6.70808350522924
 30
0.0
 11
-3.6602514554641048
 21
6.377603376771332
 31
0.0
  0
ARC
  5
C4B
  8
247
 10
-3.4299322920716122
 20
6.9384026686216771
 30
0.0
 40
0.6062530517578125
 50
180.0
 51
310.32984065416758
  0
LINE
  5
C4C
  8
247
 10
-1.853659709063805
 20
5.6665154615904481
 30
0.0
 11
-1.853659709063805
 21
5.0358269850279953
 31
0.0
  0
LINE
  5
C4D
  8
247
 10
-2.1301658746037901
 20
6.7333715813355752
 30
0.0
 11
-1.880063890896309
 21
6.4832695976280652
 31
0.0
  0
LINE
  5
C4E
  8
247
 10
-2.272106929317232
 20
6.6059049524168909
 30
0.0
 11
-1.969721262482778
 21
6.3035192855824658
 31
0.0
  0
LINE
  5
C4F
  8
247
 10
-2.1204077559387979
 20
5.7430077711607614
 30
0.0
 11
-1.853659709063805
 21
5.6665154615904481
 31
0.0
  0
LINE
  5
C50
  8
247
 10
-2.1204077559387979
 20
5.7430077711607614
 30
0.0
 11
-2.1204077559387979
 21
5.6547051588560731
 31
0.0
  0
LINE
  5
C51
  8
247
 10
-4.0361856299317651
 20
7.022945234871087
 30
0.0
 11
-3.3506026560445421
 21
6.3373622609838653
 31
0.0
  0
LINE
  5
C52
  8
247
 10
-3.8939401465332808
 20
3.9496819654967208
 30
0.0
 11
-4.0361856299317083
 21
3.807427326824893
 31
0.0
1001
ACAD
1000
ASC_BOUNDS
1002
{
1070
    19
1005
C70
1002
}
  0
LINE
  5
C53
  8
247
 10
-4.0361856299317083
 20
3.807427326824893
 30
0.0
 11
-2.799417765704447
 21
3.452788654949869
 31
0.0
1001
ACAD
1000
ASC_BOUNDS
1002
{
1070
    19
1005
C70
1002
}
  0
POLYLINE
  5
C54
  8
247
 66
     1
 10
0.0
 20
0.0
 30
0.0
 70
     1
1001
HATCH_DISTANCE
1040
1.0
1001
HATCH_DISPLAY
1070
     0
1001
HATCH_TYPE
1070
     7
  0
VERTEX
  5
C55
  8
247
 10
-2.1273291426575711
 20
3.400740925457681
 30
0.0
  0
VERTEX
  5
C56
  8
247
 10
-1.895728190509117
 20
3.4737725416685521
 30
0.0
  0
VERTEX
  5
C57
  8
247
 10
-1.895728190509117
 20
3.4737725416685521
 30
0.0
  0
VERTEX
  5
C58
  8
247
 10
-2.1273291426575711
 20
3.400740925457681
 30
0.0
  0
SEQEND
  5
C59
  8
247
  0
POLYLINE
  5
C5A
  8
247
 66
     1
 10
0.0
 20
0.0
 30
0.0
 70
     1
  0
VERTEX
  5
C5B
  8
247
 10
-2.1273291426575711
 20
3.400740925457681
 30
0.0
  0
VERTEX
  5
C5C
  8
247
 10
-1.895728190509117
 20
3.4737725416685521
 30
0.0
  0
VERTEX
  5
C5D
  8
247
 10
-1.895728190509117
 20
3.4737725416685521
 30
0.0
  0
VERTEX
  5
C5E
  8
247
 10
-2.1273291426575711
 20
3.400740925457681
 30
0.0
  0
SEQEND
  5
C5F
  8
247
  0
POLYLINE
  5
C60
  8
247
 66
     1
 10
0.0
 20
0.0
 30
0.0
 70
     1
1001
HATCH_DISTANCE
1040
1.0
1001
HATCH_DISPLAY
1070
     0
1001
HATCH_TYPE
1070
     7
  0
VERTEX
  5
C61
  8
247
 10
-2.1273291426575711
 20
3.400740925457681
 30
0.0
  0
VERTEX
  5
C62
  8
247
 10
-1.895728190509117
 20
3.4737725416685521
 30
0.0
  0
VERTEX
  5
C63
  8
247
 10
-1.895728190509117
 20
3.4737725416685521
 30
0.0
  0
VERTEX
  5
C64
  8
247
 10
-2.1273291426575711
 20
3.400740925457681
 30
0.0
  0
SEQEND
  5
C65
  8
247
  0
POLYLINE
  5
C66
  8
247
 66
     1
 10
0.0
 20
0.0
 30
0.0
 70
     1
  0
VERTEX
  5
C67
  8
247
 10
-2.1273291426575711
 20
3.400740925457681
 30
0.0
  0
VERTEX
  5
C68
  8
247
 10
-1.895728190509117
 20
3.4737725416685521
 30
0.0
  0
VERTEX
  5
C69
  8
247
 10
-1.895728190509117
 20
3.4737725416685521
 30
0.0
  0
VERTEX
  5
C6A
  8
247
 10
-2.1273291426575711
 20
3.400740925457681
 30
0.0
  0
SEQEND
  5
C6B
  8
247
  0
LINE
  5
C6C
  8
247
 10
-2.1273291426575711
 20
3.400740925457681
 30
0.0
 11
-1.895728190509117
 21
3.4737725416685521
 31
0.0
1001
ACAD
1000
ASC_BOUNDS
1002
{
1070
    19
1005
C13
1002
}
  0
LINE
  5
C6D
  8
247
 10
-2.163794596759117
 20
3.516381184246768
 30
0.0
 11
-1.932193644610662
 21
3.589412800457636
 31
0.0
1001
ACAD
1000
ASC_BOUNDS
1002
{
1070
    19
1005
C70
1002
}
  0
ARC
  5
C6E
  8
247
 10
-3.1268011885559872
 20
3.1491814772154481
 30
0.0
 40
1.2731420516967771
 50
20.22964506332012
 51
28.57168892371666
1001
ACAD
1000
ASC_BOUNDS
1002
{
1070
    19
1005
C70
1002
}
  0
ARC
  5
C6F
  8
247
 10
-3.1268011885559872
 20
3.1491814772154481
 30
0.0
 40
1.0306394577026361
 50
20.872183402073599
 51
42.541948937388099
1001
ACAD
1000
ASC_BOUNDS
1002
{
1070
    19
1005
C70
1002
}
  0
INSERT
  5
C70
  8
247
  6
CONTINUOUS
  2
*X10
 10
0.0
 20
0.0
 30
0.0
1001
ACAD
1000
HATCH
1002
{
1070
    19
1000
ANSI31
1040
0.06
1040
4.7123889803846879
1000
ASC_BOUNDS
1070
     1
1070
     2
1070
    15
1005
C6E
1005
C71
1005
C46
1005
C76
1005
C52
1005
C53
1005
C72
1005
C79
1005
C73
1005
C74
1005
C78
1005
C77
1005
C75
1005
C6F
1005
C6D
1000
ASC_SEEDPOINT
1011
-13.849936946002289
1021
0.0
1031
0.0
1021
81.225132939007423
1031
0.0
1000
R14_HATCH_DATA
1000
C70
1011
1.0
1021
0.0
1031
0.0
1021
0.0
1031
0.0
1011
0.0
1021
0.0
1031
0.0
1021
1.0
1031
0.0
1011
0.0
1021
0.0
1031
0.0
1021
0.0
1031
1.0
1040
0.0
1010
0.0
1020
0.0
1030
1.0
1000
ANSI31
1070
     0
1070
     1
1071
        1
1071
       33
1071
       15
1070
     1
1040
-2.163794596759117
1040
3.516381184246768
1040
-1.932193644610662
1040
3.589412800457636
1070
     2
1040
-3.1268011885559872
1040
3.1491814772154481
1040
1.0306394577026361
1040
0.3642883224462958
1040
0.7424970791727255
1070
     1
1070
     2
1040
-2.3750433760559981
1040
4.1005425611998012
1040
0.2546300053596497
1040
4.7422362291104676
1040
7.5747009996670691
1070
     1
1070
     1
1040
-3.4446173506653661
1040
4.672133747723306
1040
-2.3048498946106961
1040
4.3453087965513628
1070
     2
1040
-3.5148016768372359
1040
4.4273675123717444
1040
0.2546298265457153
1040
1.2915484122227101
1040
4.433141065812503
1070
     1
1070
     1
1040
-3.5849860030091341
1040
4.182601277020181
1040
-3.04192264851693
1040
4.026879231121768
1070
     1
1040
-3.04192264851693
1040
4.2286980787779953
1040
-3.04192264851693
1040
4.026879231121768
1070
     1
1040
-3.04192264851693
1040
4.2286980787779953
1040
-2.799417765704447
1040
4.159163777020181
1070
     1
1040
-2.799417765704447
1040
4.159163777020181
1040
-2.799417765704447
1040
3.452788654949869
1070
     1
1040
-4.0361856299317083
1040
3.807427326824893
1040
-2.799417765704447
1040
3.452788654949869
1070
     1
1040
-3.8939401465332808
1040
3.9496819654967208
1040
-4.0361856299317083
1040
3.807427326824893
1070
     2
1040
-3.2480536299622411
1040
4.401329914715518
1040
0.788140869140625
1040
1.291539295400129
1040
3.7518273617788571
1070
     1
1070
     2
1040
-3.2894903975403622
1040
3.112761799481119
1040
2.0624633789062501
1040
1.1380450344506441
1040
1.4450423166534621
1070
     1
1070
     2
1040
-2.6417914229309911
1040
4.2274895826841981
1040
0.7881328582763673
1040
5.6451629586993564
1040
7.5747321718276011
1070
     1
1070
     2
1040
-3.1268011885559872
1040
3.1491814772154481
1040
1.2731420516967771
1040
0.3530739128647529
1040
0.4986700445744506
1070
     1
1071
       15
1005
C6D
1005
C6F
1005
C75
1005
C77
1005
C78
1005
C74
1005
C73
1005
C79
1005
C72
1005
C53
1005
C52
1005
C76
1005
C46
1005
C71
1005
C6E
1070
     0
1070
     1
1040
4.7123889803846879
1040
0.06
1070
     0
1070
     1
1040
5.4977871437821371
1040
-13.849936946002289
1040
81.225132939007423
1040
0.1347038418160373
1040
0.1347038418160372
1070
     0
1071
        1
1040
-13.849936946002289
1040
81.225132939007423
1040
0.0
1002
}
  0
ARC
  5
C71
  8
247
 10
-2.6417914229309911
 20
4.2274895826841981
 30
0.0
 40
0.7881328582763673
 50
323.44401219705782
 51
74.000184387685451
1001
ACAD
1000
ASC_BOUNDS
1002
{
1070
    19
1005
C70
1002
}
  0
LINE
  5
C72
  8
247
 10
-2.799417765704447
 20
4.159163777020181
 30
0.0
 11
-2.799417765704447
 21
3.452788654949869
 31
0.0
1001
ACAD
1000
ASC_BOUNDS
1002
{
1070
    19
1005
C70
1002
}
  0
LINE
  5
C73
  8
247
 10
-3.04192264851693
 20
4.2286980787779953
 30
0.0
 11
-3.04192264851693
 21
4.026879231121768
 31
0.0
1001
ACAD
1000
ASC_BOUNDS
1002
{
1070
    19
1005
C70
1002
}
  0
LINE
  5
C74
  8
247
 10
-3.5849860030091341
 20
4.182601277020181
 30
0.0
 11
-3.04192264851693
 21
4.026879231121768
 31
0.0
1001
ACAD
1000
ASC_BOUNDS
1002
{
1070
    19
1005
C70
1002
}
  0
ARC
  5
C75
  8
247
 10
-2.3750433760559981
 20
4.1005425611998012
 30
0.0
 40
0.2546300053596497
 50
271.71012138206441
 51
73.998398354448668
1001
ACAD
1000
ASC_BOUNDS
1002
{
1070
    19
1005
C70
1002
}
  0
ARC
  5
C76
  8
247
 10
-3.2480536299622411
 20
4.401329914715518
 30
0.0
 40
0.788140869140625
 50
73.999750701727521
 51
214.96387329163079
1001
ACAD
1000
ASC_BOUNDS
1002
{
1070
    19
1005
C70
1002
}
  0
LINE
  5
C77
  8
247
 10
-3.4446173506653661
 20
4.672133747723306
 30
0.0
 11
-2.3048498946106961
 21
4.3453087965513628
 31
0.0
1001
ACAD
1000
ASC_BOUNDS
1002
{
1070
    19
1005
C70
1002
}
  0
ARC
  5
C78
  8
247
 10
-3.5148016768372359
 20
4.4273675123717444
 30
0.0
 40
0.2546298265457153
 50
74.00027305718406
 51
254.0002730571841
1001
ACAD
1000
ASC_BOUNDS
1002
{
1070
    19
1005
C70
1002
}
  0
LINE
  5
C79
  8
247
 10
-3.04192264851693
 20
4.2286980787779953
 30
0.0
 11
-2.799417765704447
 21
4.159163777020181
 31
0.0
1001
ACAD
1000
ASC_BOUNDS
1002
{
1070
    19
1005
C70
1002
}
  0
LINE
  5
C7A
  8
247
 10
-2.0961645918763439
 20
7.5075933495043614
 30
0.0
 11
-1.853659709063832
 21
7.265088466691906
 31
0.0
  0
LINE
  5
C7B
  8
247
 10
-1.853659709063805
 20
7.445064655926271
 30
0.0
 11
-2.096164591876287
 21
7.5145989576845391
 31
0.0
  0
LINE
  5
C7C
  8
247
 10
-2.096164591876287
 20
7.5145989576845391
 30
0.0
 11
-2.096164591877026
 21
7.388457600262595
 31
0.0
  0
LINE
  5
C7D
  8
247
 10
-1.853659709063805
 20
7.5711968580748703
 30
0.0
 11
-2.096164591876287
 21
7.6407311598326819
 31
0.0
1001
ACAD
1000
ASC_BOUNDS
1002
{
1070
    19
1005
C13
1002
}
  0
LINE
  5
C7E
  8
247
 10
-2.096164591876287
 20
8.0719994703795805
 30
0.0
 11
-2.096164591876287
 21
7.6407311598326819
 31
0.0
1001
ACAD
1000
ASC_BOUNDS
1002
{
1070
    19
1005
C13
1002
}
  0
LINE
  5
C7F
  8
247
 10
-1.853659709063805
 20
8.0719994703795805
 30
0.0
 11
-1.853659709063805
 21
7.5711968580748703
 31
0.0
1001
ACAD
1000
ASC_BOUNDS
1002
{
1070
    19
1005
C13
1002
}
  0
ARC
  5
C80
  8
247
 10
-3.1268011885559872
 20
8.0719994703795805
 30
0.0
 40
1.273141479492186
 50
0.0
 51
180.0
1001
ACAD
1000
ASC_BOUNDS
1002
{
1070
    19
1005
C13
1002
}
  0
ARC
  5
C81
  8
247
 10
-3.1268011885559872
 20
8.0719994703795805
 30
0.0
 40
1.0306365966796871
 50
0.0
 51
180.0
1001
ACAD
1000
ASC_BOUNDS
1002
{
1070
    19
1005
C13
1002
}
  0
LINE
  5
C82
  8
247
 10
-4.0361856299317083
 20
7.9447503248716771
 30
0.0
 11
-2.096164591877026
 21
7.388457600262595
 31
0.0
  0
LINE
  5
C83
  8
240
 10
-5.5
 20
12.199999999999971
 30
0.0
 11
-8.5000000000000568
 21
12.19999999999999
 31
0.0
  0
LINE
  5
C84
  8
240
 10
-8.5000000000000568
 20
12.2000000000002
 30
0.0
 11
-8.5000000000000568
 21
12.49999999999997
 31
0.0
  0
LINE
  5
C85
  8
240
 10
-5.4999999999999698
 20
12.200000000000189
 30
0.0
 11
-5.4999999999999698
 21
16.0
 31
0.0
  0
LINE
  5
C86
  8
240
 10
-4.9999999999999698
 20
16.5
 30
0.0
 11
-5.4999999999999698
 21
16.0
 31
0.0
  0
LINE
  5
C87
  8
240
 10
0.0
 20
-16.0
 30
0.0
 11
0.0
 21
16.0
 31
0.0
  0
LINE
  5
C88
  8
240
 10
0.0
 20
-16.0
 30
0.0
 11
-0.5
 21
-16.5
 31
0.0
  0
LINE
  5
C89
  8
240
 10
-0.5
 20
16.5
 30
0.0
 11
0.0
 21
16.0
 31
0.0
  0
ENDBLK
  5
C8B
  8
0
  0
BLOCK
  8
0
  2
*X8
 70
     1
 10
0.0
 20
0.0
 30
0.0
  3
*X8
  1

  0
LINE
  5
ED1
  8
0
 62
     0
 10
-4.3319974097725318
 20
2.738826392966585
 30
0.0
 11
-3.5371562728048431
 21
1.9439852559988959
 31
0.0
  0
LINE
  5
ED2
  8
0
 62
     0
 10
-3.520444592618416
 20
2.1966812594445382
 30
0.0
 11
-3.2020277429462412
 21
1.8782644097723631
 31
0.0
  0
LINE
  5
ED3
  8
0
 62
     0
 10
-4.3977182559990649
 20
3.073954922825187
 30
0.0
 11
-4.0793014063268913
 21
2.7555380731530121
 31
0.0
  0
LINE
  5
ED4
  8
0
 62
     0
 10
-3.1739809787941682
 20
2.1196253292523721
 30
0.0
 11
-2.9436398490015629
 21
1.8892841994597649
 31
0.0
  0
LINE
  5
ED5
  8
0
 62
     0
 10
-4.3999429479093148
 20
3.3455872983675179
 30
0.0
 11
-4.156357336519056
 21
3.1020016869772591
 31
0.0
  0
LINE
  5
ED6
  8
0
 62
     0
 10
-2.923702454789157
 20
2.1387544888794281
 30
0.0
 11
-2.725791539863422
 21
1.9408435739536909
 31
0.0
  0
LINE
  5
ED7
  8
0
 62
     0
 10
-4.3999429479093148
 20
3.614994981999585
 30
0.0
 11
-4.1574380713379844
 21
3.3724901054282621
 31
0.0
  0
LINE
  5
ED8
  8
0
 62
     0
 10
-2.718438610060522
 20
2.202898327782874
 30
0.0
 11
-2.5366311124131879
 21
2.0210908301355399
 31
0.0
  0
LINE
  5
ED9
  8
0
 62
     0
 10
-4.3999429479093148
 20
3.8844026656316681
 30
0.0
 11
-4.1574380713379844
 21
3.6418977890603359
 31
0.0
  0
LINE
  5
EDA
  8
0
 62
     0
 10
-2.5447608330075582
 20
2.2986282343619759
 30
0.0
 11
-2.3708779757685559
 21
2.1247453771229758
 31
0.0
  0
LINE
  5
EDB
  8
0
 62
     0
 10
-4.3999429479093148
 20
4.1538103492637362
 30
0.0
 11
-4.1574380713379844
 21
3.911305472692411
 31
0.0
  0
LINE
  5
EDC
  8
0
 62
     0
 10
-2.3975838012720119
 20
2.4208588862585141
 30
0.0
 11
-2.2261069280060042
 21
2.2493820129925042
 31
0.0
  0
LINE
  5
EDD
  8
0
 62
     0
 10
-4.3999429479093148
 20
4.4232180328958171
 30
0.0
 11
-4.1574380713379844
 21
4.1807131563244848
 31
0.0
  0
LINE
  5
EDE
  8
0
 62
     0
 10
-2.2755214408770561
 20
2.568204209495625
 30
0.0
 11
-2.101605704881897
 21
2.394288473500465
 31
0.0
  0
LINE
  5
EDF
  8
0
 62
     0
 10
-4.3999429479093148
 20
4.6926257165278837
 30
0.0
 11
-4.1574380713379844
 21
4.4501208399565604
 31
0.0
  0
LINE
  5
EE0
  8
0
 62
     0
 10
-2.179979244914966
 20
2.7420696971656171
 30
0.0
 11
-1.9980963828675069
 21
2.560186835118158
 31
0.0
  0
LINE
  5
EE1
  8
0
 62
     0
 10
-4.3999429479093148
 20
4.9620334001599673
 30
0.0
 11
-4.1574380713379844
 21
4.7195285235886351
 31
0.0
  0
LINE
  5
EE2
  8
0
 62
     0
 10
-2.1160756421961642
 20
2.947573778078882
 30
0.0
 11
-1.918017986071858
 21
2.7495161219545761
 31
0.0
  0
LINE
  5
EE3
  8
0
 62
     0
 10
-4.3999429479093148
 20
5.2314410837920331
 30
0.0
 11
-4.1574380713379844
 21
4.9889362072207089
 31
0.0
  0
LINE
  5
EE4
  8
0
 62
     0
 10
-2.097332785634157
 20
3.1982386051489571
 30
0.0
 11
-1.866677629892143
 21
2.9675834494069431
 31
0.0
  0
LINE
  5
EE5
  8
0
 62
     0
 10
-4.3999429479093148
 20
5.5008487674241149
 30
0.0
 11
-4.1574380713379844
 21
5.2583438908527844
 31
0.0
  0
LINE
  5
EE6
  8
0
 62
     0
 10
-2.053658324012011
 20
3.423971827158879
 30
0.0
 11
-1.8559982337912959
 21
3.2263117369381642
 31
0.0
  0
LINE
  5
EE7
  8
0
 62
     0
 10
-4.3999429479093148
 20
5.7702564510561842
 30
0.0
 11
-4.1574380713379844
 21
5.5277515744848591
 31
0.0
  0
LINE
  5
EE8
  8
0
 62
     0
 10
-4.3999429479093148
 20
6.039664134688266
 30
0.0
 11
-4.1574380713379844
 21
5.7971592581169329
 31
0.0
  0
LINE
  5
EE9
  8
0
 62
     0
 10
-4.3999429479093148
 20
6.3090718183203318
 30
0.0
 11
-4.1574380713379844
 21
6.0665669417490076
 31
0.0
  0
LINE
  5
EEA
  8
0
 62
     0
 10
-4.3999429479093148
 20
6.5784795019524163
 30
0.0
 11
-4.1574380713379844
 21
6.3359746253810831
 31
0.0
  0
LINE
  5
EEB
  8
0
 62
     0
 10
-4.3999429479093148
 20
6.8478871855844812
 30
0.0
 11
-4.1574380713379844
 21
6.6053823090131569
 31
0.0
  0
LINE
  5
EEC
  8
0
 62
     0
 10
-4.3999429479093148
 20
7.117294869216563
 30
0.0
 11
-4.1574380713379844
 21
6.8747899926452334
 31
0.0
  0
LINE
  5
EED
  8
0
 62
     0
 10
-4.3999429479093148
 20
7.3867025528486323
 30
0.0
 11
-4.1574380713379844
 21
7.1441976762773081
 31
0.0
  0
LINE
  5
EEE
  8
0
 62
     0
 10
-4.3999429479093148
 20
7.6561102364807132
 30
0.0
 11
-4.1574380713379844
 21
7.4136053599093819
 31
0.0
  0
LINE
  5
EEF
  8
0
 62
     0
 10
-4.3999429479093077
 20
7.9255179201127799
 30
0.0
 11
-4.1574380713379773
 21
7.6830130435414574
 31
0.0
  0
LINE
  5
EF0
  8
0
 62
     0
 10
-4.3945096201138441
 20
8.1894922759493927
 30
0.0
 11
-4.1574380713379844
 21
7.9524207271735321
 31
0.0
  0
LINE
  5
EF1
  8
0
 62
     0
 10
-4.3523732663025214
 20
8.4167636057701412
 30
0.0
 11
-4.1478515576203341
 21
8.2122418970879494
 31
0.0
  0
LINE
  5
EF2
  8
0
 62
     0
 10
-4.2792551453730354
 20
8.6130531684727316
 30
0.0
 11
-4.094055040691698
 21
8.4278530637913942
 31
0.0
  0
LINE
  5
EF3
  8
0
 62
     0
 10
-4.1816554302140281
 20
8.7848611369458052
 30
0.0
 11
-4.0062226075401171
 21
8.6094283142718862
 31
0.0
  0
LINE
  5
EF4
  8
0
 62
     0
 10
-4.0626087657787764
 20
8.935222156142629
 30
0.0
 11
-3.8909595254984439
 21
8.7635729158622908
 31
0.0
  0
LINE
  5
EF5
  8
0
 62
     0
 10
-3.923241629659727
 20
9.0652627036556481
 30
0.0
 11
-3.750484726898895
 21
8.8925058008948081
 31
0.0
  0
LINE
  5
EF6
  8
0
 62
     0
 10
-3.763227151092023
 20
9.1746559087200197
 30
0.0
 11
-3.5841663508575432
 21
8.9955951084855368
 31
0.0
  0
LINE
  5
EF7
  8
0
 62
     0
 10
-2.0961645918762741
 20
7.7770010331363499
 30
0.0
 11
-1.9051141285264901
 21
7.5859505697865588
 31
0.0
  0
LINE
  5
EF8
  8
0
 62
     0
 10
-3.5806595017341309
 20
9.2614959429942019
 30
0.0
 11
-3.388120425746648
 21
9.0689568670067207
 31
0.0
  0
LINE
  5
EF9
  8
0
 62
     0
 10
-2.0961645918762741
 20
8.0464087167684184
 30
0.0
 11
-1.853659709063791
 21
7.8039038339559337
 31
0.0
  0
LINE
  5
EFA
  8
0
 62
     0
 10
-3.371215564747855
 20
9.3214596896399993
 30
0.0
 11
-3.1520818389501382
 21
9.1023259638422829
 31
0.0
  0
LINE
  5
EFB
  8
0
 62
     0
 10
-2.135953230595069
 20
8.3556050391192809
 30
0.0
 11
-1.853660385832532
 21
8.0733121943567454
 31
0.0
  0
LINE
  5
EFC
  8
0
 62
     0
 10
-3.1254884645788139
 20
9.3451402731030342
 30
0.0
 11
-2.8431956198162762
 21
9.0628474283404952
 31
0.0
  0
LINE
  5
EFD
  8
0
 62
     0
 10
-2.8180851710369761
 20
9.3071446631932648
 30
0.0
 11
-1.891655995742296
 21
8.3807154878985841
 31
0.0
  0
ENDBLK
  5
EFF
  8
0
  0
BLOCK
  8
0
  2
*X9
 70
     1
 10
0.0
 20
0.0
 30
0.0
  3
*X9
  1

  0
LINE
  5
F01
  8
0
 62
     0
 10
-4.0361856299317012
 20
5.6759068167106488
 30
0.0
 11
-4.0162028849344988
 21
5.65592407171345
 31
0.0
  0
LINE
  5
F02
  8
0
 62
     0
 10
-4.0361856299317012
 20
5.9453145003427181
 30
0.0
 11
-3.6384874160759391
 21
5.5476162864869547
 31
0.0
  0
LINE
  5
F03
  8
0
 62
     0
 10
-4.0212215772024962
 20
6.1997581312455932
 30
0.0
 11
-3.2607719472173642
 21
5.4393085012604621
 31
0.0
  0
LINE
  5
F04
  8
0
 62
     0
 10
-3.6435046302736112
 20
6.0914488679487757
 30
0.0
 11
-2.8830564783587951
 21
5.3310007160339614
 31
0.0
  0
LINE
  5
F05
  8
0
 62
     0
 10
-3.265787683344711
 20
5.98313960465196
 30
0.0
 11
-2.5053410095002122
 21
5.2226929308074599
 31
0.0
  0
LINE
  5
F06
  8
0
 62
     0
 10
-2.8880707364158109
 20
5.8748303413551284
 30
0.0
 11
-2.1276255406416591
 21
5.1143851455809752
 31
0.0
  0
LINE
  5
F07
  8
0
 62
     0
 10
-2.510353789486913
 20
5.766521078058318
 30
0.0
 11
-1.853659709063805
 21
5.1098269976352011
 31
0.0
  0
LINE
  5
F08
  8
0
 62
     0
 10
-2.1326368425580129
 20
5.6582118147614864
 30
0.0
 11
-1.853659709063791
 21
5.3792346812672633
 31
0.0
  0
LINE
  5
F09
  8
0
 62
     0
 10
-1.8787186833765031
 20
5.6737013392120499
 30
0.0
 11
-1.853659709063791
 21
5.648642364899338
 31
0.0
  0
ENDBLK
  5
F0B
  8
0
  0
BLOCK
  8
0
  2
*X10
 70
     1
 10
0.0
 20
0.0
 30
0.0
  3
*X10
  1

  0
LINE
  5
F0D
  8
0
 62
     0
 10
-3.9101729911286029
 20
3.9334480761151038
 30
0.0
 11
-3.68282832375874
 21
3.7061034087452409
 31
0.0
  0
LINE
  5
F0E
  8
0
 62
     0
 10
-4.032508142147158
 20
4.325190910765726
 30
0.0
 11
-3.3051118074244741
 21
3.5977945760430421
 31
0.0
  0
LINE
  5
F0F
  8
0
 62
     0
 10
-3.648688120476741
 20
4.2107785727273921
 30
0.0
 11
-2.9273952910901921
 21
3.4894857433408419
 31
0.0
  0
LINE
  5
F10
  8
0
 62
     0
 10
-4.016095318745462
 20
4.5781857709961127
 30
0.0
 11
-3.7313906164815891
 21
4.2934810687322482
 31
0.0
  0
LINE
  5
F11
  8
0
 62
     0
 10
-3.257075685394482
 20
4.0885738212772011
 30
0.0
 11
-2.799417765704447
 21
3.6309159015871639
 31
0.0
  0
LINE
  5
F12
  8
0
 62
     0
 10
-3.9425134312297052
 20
4.7740115671124306
 30
0.0
 11
-3.7307640913316069
 21
4.5622622272143332
 31
0.0
  0
LINE
  5
F13
  8
0
 62
     0
 10
-3.04192264851693
 20
4.1428284680317287
 30
0.0
 11
-2.799417765704447
 21
3.900323585219247
 31
0.0
  0
LINE
  5
F14
  8
0
 62
     0
 10
-3.8309231073715959
 20
4.9318289268863964
 30
0.0
 11
-3.574092386304911
 21
4.674998205819711
 31
0.0
  0
LINE
  5
F15
  8
0
 62
     0
 10
-2.1755660143826518
 20
3.545879517529519
 30
0.0
 11
-2.1503174739175162
 21
3.5206309770643842
 31
0.0
  0
LINE
  5
F16
  8
0
 62
     0
 10
-3.6861671880066922
 20
5.056480691153558
 30
0.0
 11
-3.244411932248453
 21
4.6147254353953198
 31
0.0
  0
LINE
  5
F17
  8
0
 62
     0
 10
-2.243064557833796
 20
3.8827857446127449
 30
0.0
 11
-1.9454967077685039
 21
3.5852178945474531
 31
0.0
  0
LINE
  5
F18
  8
0
 62
     0
 10
-3.506255005794698
 20
5.1459761925736469
 30
0.0
 11
-2.8666950477570889
 21
4.5064162345360401
 31
0.0
  0
LINE
  5
F19
  8
0
 62
     0
 10
-2.128347112693838
 20
4.037475983104855
 30
0.0
 11
-1.9467611090660579
 21
3.8558899794770749
 31
0.0
  0
LINE
  5
F1A
  8
0
 62
     0
 10
-3.2797060621588501
 20
5.1888349325698684
 30
0.0
 11
-2.4889781632657271
 21
4.3981070336767427
 31
0.0
  0
LINE
  5
F1B
  8
0
 62
     0
 10
-2.972124704780525
 20
5.1506612588236251
 30
0.0
 11
-1.873448120964744
 21
4.0519846750078443
 31
0.0
  0
LINE
  5
F1C
  8
0
 62
     0
 10
-2.613275604053412
 20
5.0612198417285779
 30
0.0
 11
-1.857525882386744
 21
4.3054701200619121
 31
0.0
  0
ENDBLK
  5
F1E
  8
0
  0
BLOCK
  8
0
  2
*D11
 70
     1
 10
0.0
 20
0.0
 30
0.0
  3
*D11
  1

  0
LINE
  5
DD2
  8
250
  6
CONTINUOUS
 10
-54.5
 20
-12.500000000000011
 30
0.0
 11
-72.000000000000014
 21
-12.500000000000011
 31
0.0
  0
LINE
  5
DD3
  8
250
  6
CONTINUOUS
 10
-54.500000000000007
 20
12.500000000000011
 30
0.0
 11
-72.000000000000014
 21
12.50000000000002
 31
0.0
  0
LINE
  5
DD4
  8
250
  6
CONTINUOUS
 10
-71.000000000000014
 20
-10.27000000000001
 30
0.0
 11
-71.000000000000014
 21
10.270000000000019
 31
0.0
  0
INSERT
  5
DD5
  8
250
  6
CONTINUOUS
  2
_OPEN
 10
-71.000000000000014
 20
-12.500000000000011
 30
0.0
 41
2.2299999999999991
 42
2.2299999999999991
 43
2.2299999999999991
 50
270.0
  0
INSERT
  5
DD6
  8
250
  6
CONTINUOUS
  2
_OPEN
 10
-71.000000000000014
 20
12.50000000000002
 30
0.0
 41
2.2299999999999991
 42
2.2299999999999991
 43
2.2299999999999991
 50
90.0
  0
INSERT
  5
DD7
  8
240
  2
*U12
 10
0.0
 20
0.0
 30
0.0
  0
POINT
  5
DD8
  8
DEFPOINTS
  6
CONTINUOUS
 62
     0
 10
-54.0
 20
-12.500000000000011
 30
0.0
  0
POINT
  5
DD9
  8
DEFPOINTS
  6
CONTINUOUS
 62
     0
 10
-54.000000000000021
 20
12.500000000000011
 30
0.0
  0
POINT
  5
DDA
  8
DEFPOINTS
  6
CONTINUOUS
 62
     0
 10
-71.000000000000014
 20
12.50000000000002
 30
0.0
  0
ENDBLK
  5
CA1
  8
0
  0
BLOCK
  8
0
  2
*U12
 70
     1
 10
0.0
 20
0.0
 30
0.0
  3
*U12
  1

  0
TEXT
  5
F29
  8
250
 62
    40
 10
-72.000000000000014
 20
-4.0714285714285774
 30
0.0
 40
3.0
  1
\U+2205
 50
90.0
  0
TEXT
  5
F2A
  8
250
 62
    40
 10
-72.000000000000014
 20
-1.3571428571428621
 30
0.0
 40
3.0
  1
25
 50
90.0
  0
ENDBLK
  5
F2C
  8
0
  0
BLOCK
  8
0
  2
GENAXEH
 70
     0
 10
0.0
 20
0.0
 30
0.0
  3
GENAXEH
  1

  0
LINE
  5
E91
  8
0
 10
-1.0
 20
0.0
 30
0.0
 11
1.0
 21
0.0
 31
0.0
  0
ENDBLK
  5
E92
  8
0
  0
BLOCK
  8
0
  2
_OPEN30
 70
     0
 10
0.0
 20
0.0
 30
0.0
  3
_OPEN30
  1

  0
LINE
  5
EB6
  8
0
  6
BYBLOCK
 62
     0
 10
-1.0
 20
0.26794919
 30
0.0
 11
0.0
 21
0.0
 31
0.0
  0
LINE
  5
EB7
  8
0
  6
BYBLOCK
 62
     0
 10
0.0
 20
0.0
 30
0.0
 11
-1.0
 21
-0.26794919
 31
0.0
  0
LINE
  5
EB8
  8
0
  6
BYBLOCK
 62
     0
 10
0.0
 20
0.0
 30
0.0
 11
-1.0
 21
0.0
 31
0.0
  0
ENDBLK
  5
EB9
  8
0
  0
BLOCK
  8
0
  2
_ACMFILLEDHALF
 70
     0
 10
0.0
 20
0.0
 30
0.0
  3
_ACMFILLEDHALF
  1

  0
TRACE
  5
1070
  8
240
 62
     0
 10
-0.8
 20
0.0
 30
0.0
 11
-1.0
 21
0.166666666
 31
0.0
 12
0.0
 22
0.0
 32
0.0
 13
0.0
 23
0.0
 33
0.0
  0
LINE
  5
1071
  8
240
 62
     0
 10
-1.0
 20
0.0
 30
0.0
 11
-0.8
 21
0.0
 31
0.0
  0
ENDBLK
  5
106F
  8
0
  0
ENDSEC
  0
SECTION
  2
ENTITIES
  0
TEXT
  5
8EF
  8
241
  6
CONTINUOUS
 10
-91.383672892982574
 20
43.884081609244561
 30
0.0
 40
5.0
  1
OSL25-20
  7
YOKO
 11
-91.383672892982574
 21
43.884081609244561
 31
0.0
 73
     1
  0
LINE
  5
108F
  8
250
  6
CONTINUOUS
 10
-54.5
 20
-12.500000000000011
 30
0.0
 11
-72.000000000000014
 21
-12.500000000000011
 31
0.0
  0
LINE
  5
1090
  8
250
  6
CONTINUOUS
 10
-54.500000000000007
 20
12.500000000000011
 30
0.0
 11
-72.000000000000014
 21
12.50000000000002
 31
0.0
  0
LINE
  5
1091
  8
250
  6
CONTINUOUS
 10
-71.000000000000014
 20
-10.27000000000001
 30
0.0
 11
-71.000000000000014
 21
10.270000000000019
 31
0.0
  0
LINE
  5
1097
  8
243
  6
HIDDEN2
 10
5.9999999999999698
 20
10.0
 30
0.0
 11
-42.000000000000099
 21
10.000000000000011
 31
0.0
  0
LINE
  5
1098
  8
240
  6
CONTINUOUS
 10
1.0
 20
-16.5
 30
0.0
 11
5.4999999999999698
 21
-16.5
 31
0.0
  0
LINE
  5
1099
  8
243
  6
HIDDEN2
 10
5.9999999999999698
 20
-10.0
 30
0.0
 11
-42.000000000000099
 21
-10.0
 31
0.0
  0
LINE
  5
109A
  8
245
  6
CENTER2
 10
9.5222371169932938
 20
0.0
 30
0.0
 11
-60.454505631409141
 21
-0.0000000000000142
 31
0.0
  0
LINE
  5
109B
  8
240
  6
CONTINUOUS
 10
1.0
 20
16.5
 30
0.0
 11
5.4999999999999698
 21
16.5
 31
0.0
  0
LINE
  5
109C
  8
247
  6
CONTINUOUS
 10
4.6574380713379906
 20
-8.0719994703795823
 30
0.0
 11
4.6574380713379924
 21
-3.1491814772154498
 31
0.0
1001
ACAD
1000
ASC_BOUNDS
1002
{
1070
    19
1005
10A0
1002
}
  0
ARC
  5
109D
  8
247
  6
CONTINUOUS
 10
3.6268011885559859
 20
-3.1491814772154498
 30
0.0
 40
1.0306365966796871
 50
0.0
 51
194.12743649641189
1001
ACAD
1000
ASC_BOUNDS
1002
{
1070
    19
1005
10A0
1002
}
  0
LINE
  5
109E
  8
247
  6
CONTINUOUS
 10
4.8999429479093211
 20
-8.0719994703795823
 30
0.0
 11
4.8999429479093211
 21
-3.1491814772154498
 31
0.0
1001
ACAD
1000
ASC_BOUNDS
1002
{
1070
    19
1005
10A0
1002
}
  0
ARC
  5
109F
  8
247
  6
CONTINUOUS
 10
3.6268011885559859
 20
-3.1491814772154498
 30
0.0
 40
1.273141479492186
 50
0.0
 51
194.770793966094
1001
ACAD
1000
ASC_BOUNDS
1002
{
1070
    19
1005
10A0
1002
}
  0
LINE
  5
10A1
  8
241
  6
CONTINUOUS
 10
0.5
 20
-12.199999999999971
 30
0.0
 11
0.5
 21
12.200000000000189
 31
0.0
  0
LINE
  5
10A2
  8
241
  6
CONTINUOUS
 10
-2.5000000000000289
 20
-12.199999999999941
 30
0.0
 11
-2.5000000000000862
 21
12.2000000000002
 31
0.0
  0
LINE
  5
10A3
  8
240
  6
CONTINUOUS
 10
-56.0
 20
-10.500000000000011
 30
0.0
 11
-56.000000000000021
 21
10.5
 31
0.0
  0
LINE
  5
10A4
  8
240
  6
CONTINUOUS
 10
-54.0
 20
-12.500000000000011
 30
0.0
 11
-2.5000000000000289
 21
-12.5
 31
0.0
  0
ARC
  5
10A5
  8
240
  6
CONTINUOUS
 10
-54.0
 20
-10.500000000000011
 30
0.0
 40
2.0
 50
180.0
 51
270.0
  0
LINE
  5
10A6
  8
240
  6
CONTINUOUS
 10
0.5
 20
-16.0
 30
0.0
 11
0.5
 21
-12.199999999999971
 31
0.0
  0
LINE
  5
10A7
  8
240
  6
CONTINUOUS
 10
1.0
 20
-16.5
 30
0.0
 11
0.5
 21
-16.0
 31
0.0
  0
TEXT
  5
10A8
  8
247
  6
CONTINUOUS
 10
4.6252674264605931
 20
-1.2030428674386831
 30
0.0
 40
2.0
  1
OSL25-20
 50
89.999999999999986
 41
0.65
  7
YOKO
 11
4.6252674264605931
 21
-1.2030428674386831
 31
0.0
 73
     1
  0
LINE
  5
10A9
  8
240
  6
CONTINUOUS
 10
0.4999999999999707
 20
-12.199999999999999
 30
0.0
 11
-2.5000000000000289
 21
-12.199999999999971
 31
0.0
  0
LINE
  5
10AA
  8
240
  6
CONTINUOUS
 10
-2.5000000000000289
 20
-12.5
 30
0.0
 11
-2.5000000000000289
 21
-12.199999999999941
 31
0.0
  0
LINE
  5
10AB
  8
240
  6
CONTINUOUS
 10
-2.5000000000000862
 20
12.49999999999997
 30
0.0
 11
-54.000000000000021
 21
12.500000000000011
 31
0.0
  0
ARC
  5
10AC
  8
240
  6
CONTINUOUS
 10
-54.000000000000021
 20
10.5
 30
0.0
 40
2.0
 50
90.0
 51
180.0
  0
LINE
  5
10AD
  8
243
  6
HIDDEN2
 10
-23.49999999999989
 20
10.000000000000011
 30
0.0
 11
-23.499999999999758
 21
12.50000000000003
 31
0.0
  0
LINE
  5
10AE
  8
245
  6
CENTER2
 10
-14.99999999999971
 20
16.0
 30
0.0
 11
-14.999999999999909
 21
8.0666929096075961
 31
0.0
  0
LINE
  5
10AF
  8
243
  6
HIDDEN2
 10
-6.499999999999857
 20
10.0
 30
0.0
 11
-6.4999999999997407
 21
12.500000000000011
 31
0.0
  0
LINE
  5
10B0
  8
247
  6
CONTINUOUS
 10
3.5725033384168778
 20
-7.062960759178682
 30
0.0
 11
4.2655933707702314
 21
-7.261694053750773
 31
0.0
  0
LINE
  5
10B3
  8
247
  6
CONTINUOUS
 10
4.5361856299317074
 20
-7.944750324871678
 30
0.0
 11
4.5361856299317074
 21
-6.938402668621678
 31
0.0
  0
LINE
  5
10B6
  8
247
  6
CONTINUOUS
 10
2.3536597090638032
 20
-7.4450646559262719
 30
0.0
 11
2.353659709063888
 21
-6.6627551541785701
 31
0.0
  0
ARC
  5
10BA
  8
247
  6
CONTINUOUS
 10
3.9056799727356961
 20
-7.2089501539732641
 30
0.0
 40
0.363757574558258
 50
351.66285421114878
 51
156.33819215911379
  0
ARC
  5
10CF
  8
247
  6
CONTINUOUS
 10
2.9356695967591109
 20
-6.930803791668553
 30
0.0
 40
0.3637471675872803
 50
351.66260168792928
 51
156.33815509518971
  0
LINE
  5
10D0
  8
247
  6
CONTINUOUS
 10
2.602503056403064
 20
-6.7848172912140958
 30
0.0
 11
3.2955725316234048
 21
-6.9835473164261552
 31
0.0
  0
ARC
  5
10D3
  8
247
  6
CONTINUOUS
 10
3.7894903975403609
 20
-3.1127617994811212
 30
0.0
 40
2.0624633789062501
 50
245.2051773698422
 51
262.79482596205048
1001
ACAD
1000
ASC_BOUNDS
1002
{
1070
    19
1005
10FD
1002
}
  0
ARC
  5
10D4
  8
247
  6
CONTINUOUS
 10
2.9599127608216218
 20
-6.6602563063170814
 30
0.0
 40
0.606258201599121
 50
17.669577547398141
 51
180.2361598426715
  0
ARC
  5
10D8
  8
247
  6
CONTINUOUS
 10
3.9299322920716109
 20
-6.938402668621678
 30
0.0
 40
0.6062530517578125
 50
0.0
 51
130.32984065416761
  0
LINE
  5
10DF
  8
247
  6
CONTINUOUS
 10
4.3939401465332812
 20
-3.9496819654967221
 30
0.0
 11
4.5361856299317083
 21
-3.8074273268248939
 31
0.0
1001
ACAD
1000
ASC_BOUNDS
1002
{
1070
    19
1005
10FD
1002
}
  0
LINE
  5
10E0
  8
247
  6
CONTINUOUS
 10
4.5361856299317083
 20
-3.8074273268248939
 30
0.0
 11
3.2994177657044461
 21
-3.4527886549498699
 31
0.0
1001
ACAD
1000
ASC_BOUNDS
1002
{
1070
    19
1005
10FD
1002
}
  0
LINE
  5
10FA
  8
247
  6
CONTINUOUS
 10
2.6637945967591161
 20
-3.5163811842467689
 30
0.0
 11
2.432193644610662
 21
-3.5894128004576382
 31
0.0
1001
ACAD
1000
ASC_BOUNDS
1002
{
1070
    19
1005
10FD
1002
}
  0
ARC
  5
10FB
  8
247
  6
CONTINUOUS
 10
3.6268011885559859
 20
-3.1491814772154498
 30
0.0
 40
1.2731420516967771
 50
200.22964506332011
 51
208.57168892371669
1001
ACAD
1000
ASC_BOUNDS
1002
{
1070
    19
1005
10FD
1002
}
  0
ARC
  5
10FC
  8
247
  6
CONTINUOUS
 10
3.6268011885559859
 20
-3.1491814772154498
 30
0.0
 40
1.0306394577026361
 50
200.8721834020736
 51
222.5419489373881
1001
ACAD
1000
ASC_BOUNDS
1002
{
1070
    19
1005
10FD
1002
}
  0
ARC
  5
10FE
  8
247
  6
CONTINUOUS
 10
3.1417914229309911
 20
-4.2274895826841998
 30
0.0
 40
0.7881328582763673
 50
143.44401219705779
 51
254.00018438768549
1001
ACAD
1000
ASC_BOUNDS
1002
{
1070
    19
1005
10FD
1002
}
  0
LINE
  5
10FF
  8
247
  6
CONTINUOUS
 10
3.2994177657044461
 20
-4.1591637770201828
 30
0.0
 11
3.2994177657044461
 21
-3.4527886549498699
 31
0.0
1001
ACAD
1000
ASC_BOUNDS
1002
{
1070
    19
1005
10FD
1002
}
  0
LINE
  5
1100
  8
247
  6
CONTINUOUS
 10
3.5419226485169291
 20
-4.2286980787779971
 30
0.0
 11
3.5419226485169291
 21
-4.0268792311217689
 31
0.0
1001
ACAD
1000
ASC_BOUNDS
1002
{
1070
    19
1005
10FD
1002
}
  0
LINE
  5
1101
  8
247
  6
CONTINUOUS
 10
4.0849860030091332
 20
-4.1826012770201828
 30
0.0
 11
3.5419226485169291
 21
-4.0268792311217689
 31
0.0
1001
ACAD
1000
ASC_BOUNDS
1002
{
1070
    19
1005
10FD
1002
}
  0
ARC
  5
1102
  8
247
  6
CONTINUOUS
 10
2.8750433760559968
 20
-4.1005425611998021
 30
0.0
 40
0.2546300053596497
 50
91.710121382064386
 51
253.99839835444871
1001
ACAD
1000
ASC_BOUNDS
1002
{
1070
    19
1005
10FD
1002
}
  0
ARC
  5
1103
  8
247
  6
CONTINUOUS
 10
3.7480536299622411
 20
-4.4013299147155189
 30
0.0
 40
0.788140869140625
 50
253.99975070172749
 51
34.963873291630762
1001
ACAD
1000
ASC_BOUNDS
1002
{
1070
    19
1005
10FD
1002
}
  0
LINE
  5
1104
  8
247
  6
CONTINUOUS
 10
3.9446173506653661
 20
-4.6721337477233069
 30
0.0
 11
2.8048498946106961
 21
-4.3453087965513637
 31
0.0
1001
ACAD
1000
ASC_BOUNDS
1002
{
1070
    19
1005
10FD
1002
}
  0
ARC
  5
1105
  8
247
  6
CONTINUOUS
 10
4.0148016768372363
 20
-4.4273675123717462
 30
0.0
 40
0.2546298265457153
 50
254.0002730571841
 51
74.000273057184089
1001
ACAD
1000
ASC_BOUNDS
1002
{
1070
    19
1005
10FD
1002
}
  0
LINE
  5
1106
  8
247
  6
CONTINUOUS
 10
3.5419226485169291
 20
-4.2286980787779971
 30
0.0
 11
3.2994177657044461
 21
-4.1591637770201828
 31
0.0
1001
ACAD
1000
ASC_BOUNDS
1002
{
1070
    19
1005
10FD
1002
}
  0
LINE
  5
1108
  8
247
  6
CONTINUOUS
 10
2.3536597090638032
 20
-7.4450646559262719
 30
0.0
 11
2.596164591876287
 21
-7.51459895768454
 31
0.0
  0
LINE
  5
1109
  8
247
  6
CONTINUOUS
 10
2.596164591876287
 20
-7.51459895768454
 30
0.0
 11
2.5961645918770251
 21
-7.388457600262595
 31
0.0
  0
LINE
  5
110A
  8
247
  6
CONTINUOUS
 10
2.3536597090638032
 20
-7.5711968580748712
 30
0.0
 11
2.596164591876287
 21
-7.6407311598326828
 31
0.0
1001
ACAD
1000
ASC_BOUNDS
1002
{
1070
    19
1005
10A0
1002
}
  0
LINE
  5
110B
  8
247
  6
CONTINUOUS
 10
2.596164591876287
 20
-8.0719994703795823
 30
0.0
 11
2.596164591876287
 21
-7.6407311598326828
 31
0.0
1001
ACAD
1000
ASC_BOUNDS
1002
{
1070
    19
1005
10A0
1002
}
  0
LINE
  5
110C
  8
247
  6
CONTINUOUS
 10
2.3536597090638032
 20
-8.0719994703795823
 30
0.0
 11
2.3536597090638032
 21
-7.5711968580748712
 31
0.0
1001
ACAD
1000
ASC_BOUNDS
1002
{
1070
    19
1005
10A0
1002
}
  0
ARC
  5
110D
  8
247
  6
CONTINUOUS
 10
3.6268011885559859
 20
-8.0719994703795823
 30
0.0
 40
1.273141479492186
 50
180.0
 51
0.0
1001
ACAD
1000
ASC_BOUNDS
1002
{
1070
    19
1005
10A0
1002
}
  0
ARC
  5
110E
  8
247
  6
CONTINUOUS
 10
3.6268011885559859
 20
-8.0719994703795823
 30
0.0
 40
1.0306365966796871
 50
180.0
 51
0.0
1001
ACAD
1000
ASC_BOUNDS
1002
{
1070
    19
1005
10A0
1002
}
  0
LINE
  5
110F
  8
247
  6
CONTINUOUS
 10
4.5361856299317074
 20
-7.944750324871678
 30
0.0
 11
2.5961645918770251
 21
-7.388457600262595
 31
0.0
  0
LINE
  5
1110
  8
240
  6
CONTINUOUS
 10
0.4999999999999707
 20
12.199999999999971
 30
0.0
 11
-2.5000000000000862
 21
12.19999999999999
 31
0.0
  0
LINE
  5
1111
  8
240
  6
CONTINUOUS
 10
-2.5000000000000862
 20
12.2000000000002
 30
0.0
 11
-2.5000000000000862
 21
12.49999999999997
 31
0.0
  0
LINE
  5
1112
  8
240
  6
CONTINUOUS
 10
0.5
 20
12.200000000000189
 30
0.0
 11
0.5
 21
16.0
 31
0.0
  0
LINE
  5
1113
  8
240
  6
CONTINUOUS
 10
1.0
 20
16.5
 30
0.0
 11
0.5
 21
16.0
 31
0.0
  0
LINE
  5
1114
  8
240
  6
CONTINUOUS
 10
5.9999999999999698
 20
-16.0
 30
0.0
 11
5.9999999999999698
 21
16.0
 31
0.0
  0
LINE
  5
1115
  8
240
  6
CONTINUOUS
 10
5.9999999999999698
 20
-16.0
 30
0.0
 11
5.4999999999999698
 21
-16.5
 31
0.0
  0
LINE
  5
1116
  8
240
  6
CONTINUOUS
 10
5.4999999999999698
 20
16.5
 30
0.0
 11
5.9999999999999698
 21
16.0
 31
0.0
  0
LINE
  5
1117
  8
250
  6
CONTINUOUS
 10
6.4999999999999698
 20
-10.0
 30
0.0
 11
27.999999999999961
 21
-10.0
 31
0.0
  0
LINE
  5
1118
  8
250
  6
CONTINUOUS
 10
6.4999999999999707
 20
10.0
 30
0.0
 11
27.999999999999979
 21
9.9999999999999911
 31
0.0
  0
LINE
  5
1119
  8
250
  6
CONTINUOUS
 10
26.999999999999972
 20
-7.770000000000004
 30
0.0
 11
26.999999999999972
 21
7.7699999999999934
 31
0.0
  0
LINE
  5
111D
  8
250
  6
CONTINUOUS
 10
-44.000000000000107
 20
-0.5000000000000142
 30
0.0
 11
-44.000000000000107
 21
-32.5
 31
0.0
  0
LINE
  5
111E
  8
250
  6
CONTINUOUS
 10
5.9999999999999698
 20
-16.5
 30
0.0
 11
5.9999999999999689
 21
-32.5
 31
0.0
  0
LINE
  5
111F
  8
250
  6
CONTINUOUS
 10
-41.770000000000117
 20
-31.499999999999989
 30
0.0
 11
3.7699999999999689
 21
-31.499999999999989
 31
0.0
  0
TEXT
  5
1123
  8
250
  6
CONTINUOUS
 10
-72.000000000000014
 20
-4.0714285714285774
 30
0.0
 40
3.0
  1
\U+2205
 50
90.0
  0
TEXT
  5
1124
  8
250
  6
CONTINUOUS
 10
-72.000000000000014
 20
-1.3571428571428621
 30
0.0
 40
3.0
  1
25
 50
90.0
  0
LINE
  5
1125
  8
250
  6
CONTINUOUS
 10
-71.371666666666684
 20
10.270000000000019
 30
0.0
 11
-71.000000000000014
 21
12.50000000000002
 31
0.0
  0
LINE
  5
1126
  8
250
  6
CONTINUOUS
 10
-70.628333333333345
 20
10.270000000000019
 30
0.0
 11
-71.000000000000014
 21
12.50000000000002
 31
0.0
  0
LINE
  5
1127
  8
250
  6
CONTINUOUS
 10
-71.000000000000014
 20
12.50000000000002
 30
0.0
 11
-71.000000000000014
 21
10.270000000000019
 31
0.0
  0
LINE
  5
1128
  8
250
  6
CONTINUOUS
 10
-70.628333333333345
 20
-10.27000000000001
 30
0.0
 11
-71.000000000000014
 21
-12.500000000000011
 31
0.0
  0
LINE
  5
1129
  8
250
  6
CONTINUOUS
 10
-71.371666666666684
 20
-10.27000000000001
 30
0.0
 11
-71.000000000000014
 21
-12.500000000000011
 31
0.0
  0
LINE
  5
112A
  8
250
  6
CONTINUOUS
 10
-71.000000000000014
 20
-12.500000000000011
 30
0.0
 11
-71.000000000000014
 21
-10.27000000000001
 31
0.0
  0
LINE
  5
113C
  8
247
  6
CONTINUOUS
 10
2.395728190509117
 20
-3.473772541668553
 30
0.0
 11
2.395728190509117
 21
-3.473772541668553
 31
0.0
  0
LINE
  5
113E
  8
247
  6
CONTINUOUS
 10
2.6273291426575711
 20
-3.4007409254576819
 30
0.0
 11
2.6273291426575711
 21
-3.4007409254576819
 31
0.0
  0
LINE
  5
1140
  8
247
  6
CONTINUOUS
 10
2.395728190509117
 20
-3.473772541668553
 30
0.0
 11
2.395728190509117
 21
-3.473772541668553
 31
0.0
1001
HATCH_DISTANCE
1040
1.0
1001
HATCH_DISPLAY
1070
     0
1001
HATCH_TYPE
1070
     7
  0
LINE
  5
1142
  8
247
  6
CONTINUOUS
 10
2.6273291426575711
 20
-3.4007409254576819
 30
0.0
 11
2.6273291426575711
 21
-3.4007409254576819
 31
0.0
1001
HATCH_DISTANCE
1040
1.0
1001
HATCH_DISPLAY
1070
     0
1001
HATCH_TYPE
1070
     7
  0
LINE
  5
1144
  8
247
  6
CONTINUOUS
 10
2.395728190509117
 20
-3.473772541668553
 30
0.0
 11
2.395728190509117
 21
-3.473772541668553
 31
0.0
  0
LINE
  5
1146
  8
247
  6
CONTINUOUS
 10
2.6273291426575711
 20
-3.4007409254576819
 30
0.0
 11
2.6273291426575711
 21
-3.4007409254576819
 31
0.0
  0
LINE
  5
1147
  8
247
  6
CONTINUOUS
 10
2.6273291426575711
 20
-3.4007409254576819
 30
0.0
 11
2.395728190509117
 21
-3.473772541668553
 31
0.0
1001
HATCH_DISTANCE
1040
1.0
1001
HATCH_DISPLAY
1070
     0
1001
HATCH_TYPE
1070
     7
  0
LINE
  5
1148
  8
247
  6
CONTINUOUS
 10
2.395728190509117
 20
-3.473772541668553
 30
0.0
 11
2.395728190509117
 21
-3.473772541668553
 31
0.0
1001
HATCH_DISTANCE
1040
1.0
1001
HATCH_DISPLAY
1070
     0
1001
HATCH_TYPE
1070
     7
  0
LINE
  5
114A
  8
247
  6
CONTINUOUS
 10
2.6273291426575711
 20
-3.4007409254576819
 30
0.0
 11
2.6273291426575711
 21
-3.4007409254576819
 31
0.0
1001
HATCH_DISTANCE
1040
1.0
1001
HATCH_DISPLAY
1070
     0
1001
HATCH_TYPE
1070
     7
  0
LINE
  5
1151
  8
247
  6
CONTINUOUS
 10
2.3536597090638032
 20
-5.6665154615904489
 30
0.0
 11
2.620407755938797
 21
-5.7430077711607623
 31
0.0
1001
HATCH_DISTANCE
1040
1.0
1001
HATCH_DISPLAY
1070
     0
1001
HATCH_TYPE
1070
     7
  0
LINE
  5
1152
  8
247
  6
CONTINUOUS
 10
2.620407755938797
 20
-5.7430077711607623
 30
0.0
 11
2.620407755938797
 21
-5.6547051588560739
 31
0.0
1001
HATCH_DISTANCE
1040
1.0
1001
HATCH_DISPLAY
1070
     0
1001
HATCH_TYPE
1070
     7
  0
LINE
  5
1153
  8
247
  6
CONTINUOUS
 10
2.620407755938797
 20
-5.6547051588560739
 30
0.0
 11
4.5361856299317074
 21
-6.2040490309264573
 31
0.0
1001
HATCH_DISTANCE
1040
1.0
1001
HATCH_DISPLAY
1070
     0
1001
HATCH_TYPE
1070
     7
  0
LINE
  5
1154
  8
247
  6
CONTINUOUS
 10
4.5361856299317074
 20
-6.2040490309264573
 30
0.0
 11
4.5361856299317074
 21
-5.6616540113951146
 31
0.0
1001
HATCH_DISTANCE
1040
1.0
1001
HATCH_DISPLAY
1070
     0
1001
HATCH_TYPE
1070
     7
  0
LINE
  5
1155
  8
247
  6
CONTINUOUS
 10
4.5361856299317074
 20
-5.6616540113951146
 30
0.0
 11
2.3536597090638032
 21
-5.0358269850279962
 31
0.0
1001
HATCH_DISTANCE
1040
1.0
1001
HATCH_DISPLAY
1070
     0
1001
HATCH_TYPE
1070
     7
  0
LINE
  5
1156
  8
247
  6
CONTINUOUS
 10
2.3536597090638032
 20
-5.0358269850279962
 30
0.0
 11
2.3536597090638032
 21
-5.6665154615904489
 31
0.0
1001
HATCH_DISTANCE
1040
1.0
1001
HATCH_DISPLAY
1070
     0
1001
HATCH_TYPE
1070
     7
  0
TEXT
  5
118D
  8
250
  6
CONTINUOUS
 10
25.999999999999972
 20
-4.0714285714285721
 30
0.0
 40
3.0
  1
\U+2205
 50
90.0
  0
TEXT
  5
118E
  8
250
  6
CONTINUOUS
 10
25.999999999999972
 20
-1.3571428571428581
 30
0.0
 40
3.0
  1
20
 50
90.0
  0
LINE
  5
118F
  8
250
  6
CONTINUOUS
 10
26.628333333333298
 20
7.7699999999999942
 30
0.0
 11
26.999999999999972
 21
9.9999999999999911
 31
0.0
  0
LINE
  5
1190
  8
250
  6
CONTINUOUS
 10
27.371666666666631
 20
7.7699999999999942
 30
0.0
 11
26.999999999999972
 21
9.9999999999999911
 31
0.0
  0
LINE
  5
1191
  8
250
  6
CONTINUOUS
 10
26.999999999999972
 20
9.9999999999999911
 30
0.0
 11
26.999999999999972
 21
7.7699999999999942
 31
0.0
  0
LINE
  5
1192
  8
250
  6
CONTINUOUS
 10
27.371666666666631
 20
-7.7700000000000014
 30
0.0
 11
26.999999999999972
 21
-10.0
 31
0.0
  0
LINE
  5
1193
  8
250
  6
CONTINUOUS
 10
26.628333333333298
 20
-7.7700000000000014
 30
0.0
 11
26.999999999999972
 21
-10.0
 31
0.0
  0
LINE
  5
1194
  8
250
  6
CONTINUOUS
 10
26.999999999999972
 20
-10.0
 30
0.0
 11
26.999999999999972
 21
-7.7700000000000014
 31
0.0
  0
TEXT
  5
1195
  8
250
  6
CONTINUOUS
 10
-21.857142857142929
 20
-30.499999999999989
 30
0.0
 40
3.0
  1
50
  0
LINE
  5
1196
  8
250
  6
CONTINUOUS
 10
3.7699999999999698
 20
-31.12833333333333
 30
0.0
 11
5.9999999999999689
 21
-31.499999999999989
 31
0.0
  0
LINE
  5
1197
  8
250
  6
CONTINUOUS
 10
3.7699999999999698
 20
-31.871666666666659
 30
0.0
 11
5.9999999999999689
 21
-31.499999999999989
 31
0.0
  0
LINE
  5
1198
  8
250
  6
CONTINUOUS
 10
5.9999999999999689
 20
-31.499999999999989
 30
0.0
 11
3.7699999999999698
 21
-31.499999999999989
 31
0.0
  0
LINE
  5
1199
  8
250
  6
CONTINUOUS
 10
-41.77000000000011
 20
-31.871666666666659
 30
0.0
 11
-44.000000000000107
 21
-31.499999999999989
 31
0.0
  0
LINE
  5
119A
  8
250
  6
CONTINUOUS
 10
-41.77000000000011
 20
-31.12833333333333
 30
0.0
 11
-44.000000000000107
 21
-31.499999999999989
 31
0.0
  0
LINE
  5
119B
  8
250
  6
CONTINUOUS
 10
-44.000000000000107
 20
-31.499999999999989
 30
0.0
 11
-41.77000000000011
 21
-31.499999999999989
 31
0.0
  0
VIEWPORT
  5
22
 67
     1
  8
0
 10
261.51769911504419
 20
148.5
 30
0.0
 40
523.0353982300885
 41
297.0
 68
     1
 69
     1
1001
ACAD
1000
MVIEW
1002
{
1070
    16
1010
0.0
1020
0.0
1030
0.0
1010
0.0
1020
0.0
1030
1.0
1040
0.0
1040
297.0
1040
261.51769911504419
1040
148.5
1040
50.0
1040
0.0
1040
0.0
1070
     0
1070
   100
1070
     1
1070
     1
1070
     0
1070
     0
1070
     0
1070
     0
1040
0.0
1040
0.0
1040
0.0
1040
1.0
1040
1.0
1040
10.0
1040
10.0
1070
     0
1002
{
1002
}
1002
}
1001
GENIUS_GENOBJ-N-SDF_13
1002
{
1000
OWNER
1000
GEN
1002
}
1001
GENIUS_GENODEF_13
1002
{
1000
HIER
1070
     0
1002
}
1002
{
1000
MANEDIT
1070
     0
1002
}
1002
{
1000
NOSEL
1070
     0
1002
}
1002
{
1000
BEHIND
1070
     0
1002
}
1002
{
1000
OTHER
1070
     0
1002
}
1002
{
1000
REACTOR
1002
}
1001
GENIUS_GENSCREG_15
1000
PF
1040
1.0
1000
DF
1040
1.0
1000
MIN
1011
0.0
1021
0.0
1031
0.0
1021
0.0
1031
0.0
1000
MAX
1011
523.0353982300885
1021
0.0
1031
0.0
1021
297.0
1031
0.0
1000
FLAGS
1070
     4
  0
ENDSEC
  0
EOF
