  0
SECTION
  2
HEADER
  9
$ACADVER
  1
AC1009
  9
$INSBASE
 10
0.0
 20
0.0
 30
0.0
  9
$EXTMIN
 10
-90.669387178696823
 20
-36.0
 30
0.0
  9
$EXTMAX
 10
28.0
 20
48.884081609244582
 30
0.0
  9
$LIMMIN
 10
0.0
 20
0.0
  9
$LIMMAX
 10
297.0
 20
210.0
  9
$ORTHOMODE
 70
     0
  9
$REGENMODE
 70
     1
  9
$FILLMODE
 70
     1
  9
$QTEXTMODE
 70
     0
  9
$MIRRTEXT
 70
     1
  9
$DRAGMODE
 70
     2
  9
$LTSCALE
 40
10.0
  9
$OSMODE
 70
    61
  9
$ATTMODE
 70
     1
  9
$TEXTSIZE
 40
3.0
  9
$TRACEWID
 40
1.0
  9
$TEXTSTYLE
  7
YOKO
  9
$CLAYER
  8
240
  9
$CELTYPE
  6
BYLAYER
  9
$CECOLOR
 62
   256
  9
$DIMSCALE
 40
1.0
  9
$DIMASZ
 40
2.2299999999999991
  9
$DIMEXO
 40
0.5
  9
$DIMDLI
 40
2.5
  9
$DIMRND
 40
0.0
  9
$DIMDLE
 40
0.0
  9
$DIMEXE
 40
1.0
  9
$DIMTP
 40
0.0
  9
$DIMTM
 40
0.0
  9
$DIMTXT
 40
3.0
  9
$DIMCEN
 40
0.0
  9
$DIMTSZ
 40
0.0
  9
$DIMTOL
 70
     0
  9
$DIMLIM
 70
     0
  9
$DIMTIH
 70
     0
  9
$DIMTOH
 70
     0
  9
$DIMSE1
 70
     0
  9
$DIMSE2
 70
     0
  9
$DIMTAD
 70
     3
  9
$DIMZIN
 70
     8
  9
$DIMBLK
  1
OPEN
  9
$DIMASO
 70
     1
  9
$DIMSHO
 70
     1
  9
$DIMPOST
  1

  9
$DIMAPOST
  1

  9
$DIMALT
 70
     0
  9
$DIMALTD
 70
     2
  9
$DIMALTF
 40
25.399999999999999
  9
$DIMLFAC
 40
1.0
  9
$DIMTOFL
 70
     1
  9
$DIMTVP
 40
0.0
  9
$DIMTIX
 70
     0
  9
$DIMSOXD
 70
     0
  9
$DIMSAH
 70
     0
  9
$DIMBLK1
  1

  9
$DIMBLK2
  1

  9
$DIMSTYLE
  2
BIGT
  9
$DIMCLRD
 70
   256
  9
$DIMCLRE
 70
   256
  9
$DIMCLRT
 70
    40
  9
$DIMTFAC
 40
1.0
  9
$DIMGAP
 40
1.0
  9
$LUNITS
 70
     2
  9
$LUPREC
 70
     3
  9
$SKETCHINC
 40
1.0
  9
$FILLETRAD
 40
0.3
  9
$AUNITS
 70
     0
  9
$AUPREC
 70
     3
  9
$MENU
  1
.
  9
$ELEVATION
 40
0.0
  9
$PELEVATION
 40
0.0
  9
$THICKNESS
 40
0.0
  9
$LIMCHECK
 70
     0
  9
$BLIPMODE
 70
     0
  9
$CHAMFERA
 40
0.5
  9
$CHAMFERB
 40
0.5
  9
$SKPOLY
 70
     0
  9
$TDCREATE
 40
2452321.6916887271
  9
$TDUPDATE
 40
2459153.47501243
  9
$TDINDWG
 40
0.0357797454
  9
$TDUSRTIMER
 40
0.0357797106
  9
$USRTIMER
 70
     1
  9
$ANGBASE
 50
0.0
  9
$ANGDIR
 70
     0
  9
$PDMODE
 70
    35
  9
$PDSIZE
 40
-5.0
  9
$PLINEWID
 40
0.0
  9
$COORDS
 70
     1
  9
$SPLFRAME
 70
     0
  9
$SPLINETYPE
 70
     6
  9
$SPLINESEGS
 70
     8
  9
$ATTDIA
 70
     1
  9
$ATTREQ
 70
     1
  9
$HANDLING
 70
     1
  9
$HANDSEED
  5
137C
  9
$SURFTAB1
 70
     6
  9
$SURFTAB2
 70
     6
  9
$SURFTYPE
 70
     6
  9
$SURFU
 70
     6
  9
$SURFV
 70
     6
  9
$UCSNAME
  2

  9
$UCSORG
 10
0.0
 20
0.0
 30
0.0
  9
$UCSXDIR
 10
1.0
 20
0.0
 30
0.0
  9
$UCSYDIR
 10
0.0
 20
1.0
 30
0.0
  9
$PUCSNAME
  2

  9
$PUCSORG
 10
0.0
 20
0.0
 30
0.0
  9
$PUCSXDIR
 10
1.0
 20
0.0
 30
0.0
  9
$PUCSYDIR
 10
0.0
 20
1.0
 30
0.0
  9
$USERI1
 70
     1
  9
$USERI2
 70
     0
  9
$USERI3
 70
     0
  9
$USERI4
 70
     0
  9
$USERI5
 70
     0
  9
$USERR1
 40
0.0
  9
$USERR2
 40
0.0
  9
$USERR3
 40
0.0
  9
$USERR4
 40
0.0
  9
$USERR5
 40
0.0
  9
$WORLDVIEW
 70
     1
  9
$SHADEDGE
 70
     3
  9
$SHADEDIF
 70
    70
  9
$TILEMODE
 70
     1
  9
$MAXACTVP
 70
    16
  9
$PLIMCHECK
 70
     0
  9
$PEXTMIN
 10
1.0000000000000000E+020
 20
1.0000000000000000E+020
 30
1.0000000000000000E+020
  9
$PEXTMAX
 10
-1.0000000000000000E+020
 20
-1.0000000000000000E+020
 30
-1.0000000000000000E+020
  9
$PLIMMIN
 10
0.0
 20
0.0
  9
$PLIMMAX
 10
420.0
 20
297.0
  9
$UNITMODE
 70
     0
  9
$VISRETAIN
 70
     0
  9
$PLINEGEN
 70
     0
  9
$PSLTSCALE
 70
     1
  0
ENDSEC
  0
SECTION
  2
TABLES
  0
TABLE
  2
VPORT
 70
     1
  0
VPORT
  2
*ACTIVE
 70
     0
 10
0.0
 20
0.0
 11
1.0
 21
1.0
 12
-27.838979060548962
 22
-3.9649541004635722
 13
0.0
 23
0.0
 14
7.0
 24
7.0
 15
7.0
 25
7.0
 16
0.0
 26
0.0
 36
1.0
 17
0.0
 27
0.0
 37
0.0
 40
137.51336361072461
 41
1.65906362545018
 42
50.0
 43
0.0
 44
0.0
 50
0.0
 51
0.0
 71
     0
 72
  2000
 73
     1
 74
     0
 75
     0
 76
     1
 77
     0
 78
     0
  0
ENDTAB
  0
TABLE
  2
LTYPE
 70
    21
  0
LTYPE
  2
CONTINUOUS
 70
     0
  3
Solid line
 72
    65
 73
     0
 40
0.0
  0
LTYPE
  2
CENTER2
 70
     0
  3
___ _ ___ _ ___ _ ___ _ ___ _ ___ _ ___ _ ___ _
 72
    65
 73
     4
 40
1.125
 49
0.75
 49
-0.125
 49
0.125
 49
-0.125
  0
LTYPE
  2
HIDDEN
 70
     0
  3
Hidden __ __ __ __ __ __ __ __ __ __ __ __ __ _
 72
    65
 73
     2
 40
0.375
 49
0.25
 49
-0.125
  0
LTYPE
  2
HIDDEN2
 70
     0
  3
_ _ _ _ _ _ _ _ _ _ _ _ _ _ _ _ _ _ _ _ _ _ _ _
 72
    65
 73
     2
 40
0.1875
 49
0.125
 49
-0.0625
  0
LTYPE
  2
PHANTOM2
 70
     0
  3
___ _ _ ___ _ _ ___ _ _ ___ _ _ ___ _ _ ___ _ _
 72
    65
 73
     6
 40
1.25
 49
0.625
 49
-0.125
 49
0.125
 49
-0.125
 49
0.125
 49
-0.125
  0
LTYPE
  2
CENTER
 70
     0
  3
____ _ ____ _ ____ _ ____ _ ____ _ ____ _ ____ 
 72
    65
 73
     4
 40
2.0
 49
1.25
 49
-0.25
 49
0.25
 49
-0.25
  0
LTYPE
  2
AMCONSTR
 70
     0
  3
_______________________
 72
    65
 73
     2
 40
9999.0
 49
9999.0
 49
0.0
  0
LTYPE
  2
AMZIGZAG2
 70
     0
  3
/\/-/\/-/\/-/\/-/\/-/\/
 72
    65
 73
     2
 40
0.4401
 49
0.0001
 49
-0.4400000000000001
  0
LTYPE
  2
ACANSTGB
 70
     0
  3
__ . . __ . .
 72
    65
 73
     6
 40
0.35433070866
 49
0.15748031496
 49
-0.03937007874
 49
0.03937007874
 49
-0.03937007874
 49
0.03937007874
 49
-0.03937007874
  0
LTYPE
  2
ACANSTGL
 70
     0
  3
_ _ _ _ _
 72
    65
 73
     2
 40
0.11811023622
 49
0.07874015748
 49
-0.03937007874
  0
ENDTAB
  0
TABLE
  2
LAYER
 70
     8
  0
LAYER
  2
0
 70
     0
 62
     7
  6
CONTINUOUS
  0
LAYER
  2
240
 70
     0
 62
     4
  6
CONTINUOUS
  0
LAYER
  2
241
 70
     0
 62
   211
  6
CONTINUOUS
  0
LAYER
  2
243
 70
     0
 62
   211
  6
HIDDEN2
  0
LAYER
  2
245
 70
     0
 62
     2
  6
CENTER2
  0
LAYER
  2
247
 70
     0
 62
    60
  6
CONTINUOUS
  0
LAYER
  2
250
 70
     0
 62
     3
  6
CONTINUOUS
  0
LAYER
  2
DEFPOINTS
 70
     0
 62
     7
  6
CONTINUOUS
  0
ENDTAB
  0
TABLE
  2
STYLE
 70
    10
  0
STYLE
  2
STANDARD
 70
     0
 40
0.0
 41
1.0
 50
0.0
 71
     0
 42
3.0
  3
romans.shx
  4
BIGFONT.SHX
  0
STYLE
  2
YOKO
 70
     0
 40
0.0
 41
1.0
 50
0.0
 71
     0
 42
3.0
  3
romans.shx
  4
extfont.shx
  0
STYLE
  2

 70
     1
 40
0.0
 41
1.0
 50
0.0
 71
     0
 42
3.0
  3
genltshp.shx
  4

  0
STYLE
  2
ACANSGDT
 70
     0
 40
0.0
 41
1.0
 50
0.0
 71
     0
 42
3.0
  3
amgdt.shx
  4

  0
ENDTAB
  0
TABLE
  2
VIEW
 70
     0
  0
ENDTAB
  0
TABLE
  2
UCS
 70
     0
  0
ENDTAB
  0
TABLE
  2
APPID
 70
    38
  0
APPID
  2
ACAD
 70
     0
  0
APPID
  2
ACADANNOTATIVE
 70
     0
  0
APPID
  2
GLOBAL
 70
     0
  0
APPID
  2
DETAIL
 70
     0
  0
APPID
  2
GRPNAME
 70
     0
  0
APPID
  2
GPARA
 70
     0
  0
APPID
  2
HATCH_TYPE
 70
     0
  0
APPID
  2
HATCH_DISPLAY
 70
     0
  0
APPID
  2
HATCH_DISTANCE
 70
     0
  0
APPID
  2
MCAD_NO_VIS
 70
     0
  0
APPID
  2
ACAD_TEMP_GRAPHIC
 70
     0
  0
APPID
  2
ACATTRIBSERVICES
 70
     0
  0
APPID
  2
GENIUS_GENSCREG_15
 70
     0
  0
APPID
  2
GENIUS_GENODEF_13
 70
     0
  0
APPID
  2
GENIUS_GENOBJ-N-SDF_13
 70
     0
  0
APPID
  2
GENIUS_GENREC_14
 70
     0
  0
APPID
  2
GENIUS_GENOBJ-N-REC_13
 70
     0
  0
APPID
  2
GENIUS_GENDIMSH_14
 70
     0
  0
APPID
  2
GENIUS_GENOBJ-N-DIM_13
 70
     0
  0
APPID
  2
GENIUS_GENDIM_13
 70
     0
  0
APPID
  2
GENIUS_GENDTOL_13
 70
     0
  0
APPID
  2
GENIUS_GENOLIS_13
 70
     0
  0
APPID
  2
GENIUS_GENOENT_13
 70
     0
  0
APPID
  2
GENIUS_GENOBJ-F-FEM_13
 70
     0
  0
APPID
  2
GENIUS_GENOREF_13
 70
     0
  0
APPID
  2
GENIUS_GEFFEM_13
 70
     0
  0
APPID
  2
GENIUS_GEFFEMP_13
 70
     0
  0
APPID
  2
AD_DRAW
 70
     0
  0
APPID
  2
DESIGNERASSEMBLIES
 70
     0
  0
APPID
  2
ACADM_DIM_EDIT
 70
     0
  0
APPID
  2
AMDT_DM_ADJ
 70
     0
  0
APPID
  2
GENIUS_GENOBJ-N-FIL_13
 70
     0
  0
APPID
  2
GENIUS_GENFIL_13
 70
     0
  0
APPID
  2
GENIUS_GENOBJ-N-CHA_13
 70
     0
  0
APPID
  2
ACAD_DSTYLE_DIMJAG
 70
     0
  0
APPID
  2
ACAD_DSTYLE_DIMBREAK
 70
     0
  0
APPID
  2
ACAD_NAV_VCDISPLAY
 70
     0
  0
APPID
  2
ACAD_MLEADERVER
 70
     0
  0
ENDTAB
  0
TABLE
  2
DIMSTYLE
 70
    31
  0
DIMSTYLE
  2
STANDARD
 70
     0
  3

  4

  5

  6

  7

 40
1.0
 41
2.0
 42
2.0
 43
3.75
 44
2.0
 45
0.0
 46
0.0
 47
0.0
 48
0.0
140
4.0
141
0.09
142
0.0
143
25.399999999999999
144
1.0
145
0.0
146
1.0
147
1.0
 71
     0
 72
     0
 73
     1
 74
     1
 75
     0
 76
     0
 77
     0
 78
     8
170
     0
171
     2
172
     0
173
     1
174
     0
175
     0
176
   256
177
   256
178
   256
  0
DIMSTYLE
  2
BIGT
 70
     0
  3

  4

  5

  6

  7

 40
1.0
 41
2.2299999999999991
 42
0.5
 43
7.0
 44
1.0
 45
0.0
 46
0.0
 47
0.0
 48
0.01
140
2.799999999999998
141
0.0
142
0.0
143
25.399999999999999
144
1.0
145
0.0
146
1.0
147
1.0
 71
     0
 72
     0
 73
     0
 74
     0
 75
     0
 76
     0
 77
     3
 78
     9
170
     0
171
     2
172
     1
173
     0
174
     1
175
     0
176
   256
177
   256
178
    40
  0
DIMSTYLE
  2
AM_ANSI
 70
     0
  3

  4
mm
  5

  6

  7

 40
1.0
 41
0.12
 42
0.05
 43
0.5
 44
0.1
 45
0.0
 46
0.0
 47
0.1
 48
0.1
140
0.12
141
0.0
142
0.0
143
25.399999999999999
144
1.0
145
0.0
146
0.71
147
0.06
 71
     0
 72
     0
 73
     1
 74
     1
 75
     0
 76
     0
 77
     0
 78
     7
170
     0
171
     2
172
     0
173
     0
174
     0
175
     0
176
   256
177
   256
178
     2
  0
DIMSTYLE
  2
AM_ANSI$3
 70
     0
  3

  4
mm
  5

  6

  7

 40
1.0
 41
0.12
 42
0.05
 43
0.5
 44
0.1
 45
0.0
 46
0.0
 47
0.1
 48
0.1
140
0.12
141
0.0
142
0.0
143
25.399999999999999
144
1.0
145
0.0
146
0.71
147
0.06
 71
     0
 72
     0
 73
     1
 74
     1
 75
     0
 76
     0
 77
     0
 78
     7
170
     0
171
     2
172
     0
173
     0
174
     0
175
     0
176
   256
177
   256
178
     2
  0
DIMSTYLE
  2
AM_ANSI$4
 70
     0
  3

  4
mm
  5

  6

  7

 40
1.0
 41
0.12
 42
0.05
 43
0.5
 44
0.1
 45
0.0
 46
0.0
 47
0.1
 48
0.1
140
0.12
141
0.0
142
0.0
143
25.399999999999999
144
1.0
145
0.0
146
0.71
147
0.06
 71
     0
 72
     0
 73
     1
 74
     1
 75
     0
 76
     0
 77
     0
 78
     7
170
     0
171
     2
172
     0
173
     0
174
     0
175
     0
176
   256
177
   256
178
     2
  0
DIMSTYLE
  2
AM_ANSI$7
 70
     0
  3

  4
mm
  5

  6

  7

 40
1.0
 41
0.12
 42
0.05
 43
0.5
 44
0.1
 45
0.0
 46
0.0
 47
0.1
 48
0.1
140
0.12
141
0.0
142
0.0
143
25.399999999999999
144
1.0
145
0.0
146
0.71
147
0.06
 71
     0
 72
     0
 73
     1
 74
     1
 75
     0
 76
     0
 77
     0
 78
     7
170
     0
171
     2
172
     0
173
     0
174
     0
175
     0
176
   256
177
   256
178
     2
  0
DIMSTYLE
  2
AM_ANSI$SF
 70
     0
  3

  4
mm
  5

  6

  7

 40
1.0
 41
0.12
 42
0.05
 43
0.5
 44
0.1
 45
0.0
 46
0.0
 47
0.1
 48
0.1
140
0.12
141
0.0
142
0.0
143
25.399999999999999
144
1.0
145
0.0
146
0.71
147
0.06
 71
     0
 72
     0
 73
     1
 74
     1
 75
     1
 76
     1
 77
     0
 78
     7
170
     0
171
     2
172
     0
173
     0
174
     0
175
     0
176
   256
177
   256
178
     2
  0
DIMSTYLE
  2
AM_ANSI$SH
 70
     0
  3

  4
mm
  5

  6
GENAXEH
  7

 40
1.0
 41
0.12
 42
0.05
 43
0.5
 44
0.1
 45
0.0
 46
0.0
 47
0.1
 48
0.1
140
0.12
141
0.0
142
0.0
143
25.399999999999999
144
1.0
145
0.0
146
0.71
147
0.06
 71
     0
 72
     0
 73
     1
 74
     1
 75
     1
 76
     1
 77
     0
 78
     7
170
     0
171
     2
172
     0
173
     1
174
     0
175
     0
176
   256
177
   256
178
     2
  0
ENDTAB
  0
ENDSEC
  0
SECTION
  2
BLOCKS
  0
BLOCK
  8
0
  2
$MODEL_SPACE
 70
     0
 10
0.0
 20
0.0
 30
0.0
  3
$MODEL_SPACE
  1

  0
ENDBLK
  5
111B
  8
0
  0
BLOCK
 67
     1
  8
0
  2
$PAPER_SPACE
 70
     0
 10
0.0
 20
0.0
 30
0.0
  3
$PAPER_SPACE
  1

  0
ENDBLK
  5
1117
 67
     1
  8
0
  0
BLOCK
  8
0
  2
_OPEN
 70
     0
 10
0.0
 20
0.0
 30
0.0
  3
_OPEN
  1

  0
LINE
  5
FE4
  8
0
  6
BYBLOCK
 62
     0
 10
-1.0
 20
0.1666666666666666
 30
0.0
 11
0.0
 21
0.0
 31
0.0
  0
LINE
  5
FE5
  8
0
  6
BYBLOCK
 62
     0
 10
-1.0
 20
-0.1666666666666666
 30
0.0
 11
0.0
 21
0.0
 31
0.0
  0
LINE
  5
FE6
  8
0
  6
BYBLOCK
 62
     0
 10
0.0
 20
0.0
 30
0.0
 11
-1.0
 21
0.0
 31
0.0
  0
ENDBLK
  5
FE7
  8
0
  0
BLOCK
  8
0
  2
GENAXEH
 70
     0
 10
0.0
 20
0.0
 30
0.0
  3
GENAXEH
  1

  0
LINE
  5
100F
  8
0
 10
-1.0
 20
0.0
 30
0.0
 11
1.0
 21
0.0
 31
0.0
  0
ENDBLK
  5
1010
  8
0
  0
BLOCK
  8
0
  2
_ACMFILLEDHALF
 70
     0
 10
0.0
 20
0.0
 30
0.0
  3
_ACMFILLEDHALF
  1

  0
TRACE
  5
11EE
  8
240
 62
     0
 10
-0.8
 20
0.0
 30
0.0
 11
-1.0
 21
0.166666666
 31
0.0
 12
0.0
 22
0.0
 32
0.0
 13
0.0
 23
0.0
 33
0.0
  0
LINE
  5
11EF
  8
240
 62
     0
 10
-1.0
 20
0.0
 30
0.0
 11
-0.8
 21
0.0
 31
0.0
  0
ENDBLK
  5
11ED
  8
0
  0
ENDSEC
  0
SECTION
  2
ENTITIES
  0
TEXT
  5
8EF
  8
241
  6
CONTINUOUS
 10
-91.383672892982517
 20
43.884081609244561
 30
0.0
 40
5.0
  1
OSL25-16
  7
YOKO
 11
-91.383672892982517
 21
43.884081609244561
 31
0.0
 73
     1
  0
LINE
  5
120D
  8
250
  6
CONTINUOUS
 10
-54.499999999999972
 20
-12.500000000000011
 30
0.0
 11
-72.0
 21
-12.500000000000011
 31
0.0
  0
LINE
  5
120E
  8
250
  6
CONTINUOUS
 10
-54.499999999999993
 20
12.5
 30
0.0
 11
-72.0
 21
12.5
 31
0.0
  0
LINE
  5
120F
  8
250
  6
CONTINUOUS
 10
-71.0
 20
-10.27000000000001
 30
0.0
 11
-71.0
 21
10.27
 31
0.0
  0
LINE
  5
1215
  8
245
  6
CENTER2
 10
9.5222371169933222
 20
0.0
 30
0.0
 11
-60.454505631409098
 21
-0.0000000000000142
 31
0.0
  0
TEXT
  5
1216
  8
247
  6
CONTINUOUS
 10
4.6252674264606233
 20
-1.2030428674386831
 30
0.0
 40
2.0
  1
OSL25-16
 50
89.999999999999986
 41
0.65
  7
YOKO
 11
4.6252674264606233
 21
-1.2030428674386831
 31
0.0
 73
     1
  0
LINE
  5
1217
  8
240
  6
CONTINUOUS
 10
6.0
 20
-16.0
 30
0.0
 11
6.0
 21
16.0
 31
0.0
  0
LINE
  5
1218
  8
240
  6
CONTINUOUS
 10
-55.999999999999972
 20
-10.500000000000011
 30
0.0
 11
-55.999999999999993
 21
10.5
 31
0.0
  0
LINE
  5
1219
  8
241
  6
CONTINUOUS
 10
-2.5
 20
-12.199999999999941
 30
0.0
 11
-2.500000000000056
 21
12.2000000000002
 31
0.0
  0
LINE
  5
121A
  8
241
  6
CONTINUOUS
 10
0.5000000000000293
 20
-12.199999999999971
 30
0.0
 11
0.5000000000000293
 21
12.200000000000189
 31
0.0
  0
LINE
  5
121B
  8
243
  6
HIDDEN2
 10
6.0
 20
-8.0
 30
0.0
 11
-40.000000000000071
 21
-8.0
 31
0.0
  0
LINE
  5
121C
  8
240
  6
CONTINUOUS
 10
-53.999999999999972
 20
-12.500000000000011
 30
0.0
 11
-2.5
 21
-12.5
 31
0.0
  0
ARC
  5
121D
  8
240
  6
CONTINUOUS
 10
-53.999999999999972
 20
-10.500000000000011
 30
0.0
 40
2.0
 50
180.0
 51
270.0
  0
LINE
  5
121E
  8
240
  6
CONTINUOUS
 10
6.0
 20
-16.0
 30
0.0
 11
5.5
 21
-16.5
 31
0.0
  0
LINE
  5
121F
  8
240
  6
CONTINUOUS
 10
1.0000000000000291
 20
-16.5
 30
0.0
 11
0.5000000000000293
 21
-16.0
 31
0.0
  0
LINE
  5
1220
  8
240
  6
CONTINUOUS
 10
1.0000000000000291
 20
-16.5
 30
0.0
 11
5.5
 21
-16.5
 31
0.0
  0
LINE
  5
1221
  8
240
  6
CONTINUOUS
 10
-2.5
 20
-12.5
 30
0.0
 11
-2.5
 21
-12.199999999999941
 31
0.0
  0
LINE
  5
1222
  8
240
  6
CONTINUOUS
 10
0.5000000000000293
 20
-16.0
 30
0.0
 11
0.5000000000000293
 21
-12.199999999999971
 31
0.0
  0
LINE
  5
1223
  8
240
  6
CONTINUOUS
 10
0.5
 20
-12.199999999999999
 30
0.0
 11
-2.5
 21
-12.199999999999971
 31
0.0
  0
LINE
  5
1224
  8
240
  6
CONTINUOUS
 10
-42.999999999999979
 20
10.99999999999998
 30
0.0
 11
-29.999999999999901
 21
11.00000000000003
 31
0.0
  0
LINE
  5
1225
  8
243
  6
HIDDEN2
 10
6.0
 20
8.0
 30
0.0
 11
-40.000000000000071
 21
8.0000000000000142
 31
0.0
  0
LINE
  5
1226
  8
240
  6
CONTINUOUS
 10
-53.999999999999993
 20
12.500000000000011
 30
0.0
 11
-44.499999999999957
 21
12.49999999999998
 31
0.0
  0
ARC
  5
1227
  8
240
  6
CONTINUOUS
 10
-53.999999999999993
 20
10.5
 30
0.0
 40
2.0
 50
90.0
 51
180.0
  0
LINE
  5
1228
  8
240
  6
CONTINUOUS
 10
-42.999999999999979
 20
10.99999999999998
 30
0.0
 11
-44.499999999999957
 21
12.49999999999998
 31
0.0
  0
LINE
  5
1229
  8
240
  6
CONTINUOUS
 10
-28.5
 20
12.499999999999959
 30
0.0
 11
-2.500000000000056
 21
12.49999999999997
 31
0.0
  0
LINE
  5
122A
  8
240
  6
CONTINUOUS
 10
-28.5
 20
12.499999999999959
 30
0.0
 11
-29.999999999999901
 21
11.00000000000003
 31
0.0
  0
LINE
  5
122B
  8
243
  6
HIDDEN2
 10
-23.499999999999741
 20
12.50000000000003
 30
0.0
 11
-23.499999999999879
 21
8.0000000000000284
 31
0.0
  0
LINE
  5
122C
  8
240
  6
CONTINUOUS
 10
5.5
 20
16.5
 30
0.0
 11
6.0
 21
16.0
 31
0.0
  0
LINE
  5
122D
  8
240
  6
CONTINUOUS
 10
1.0000000000000291
 20
16.5
 30
0.0
 11
0.5000000000000293
 21
16.0
 31
0.0
  0
LINE
  5
122E
  8
243
  6
HIDDEN2
 10
-6.4999999999997122
 20
12.500000000000011
 30
0.0
 11
-6.4999999999999707
 21
8.0000000000000284
 31
0.0
  0
LINE
  5
122F
  8
245
  6
CENTER2
 10
-14.999999999999689
 20
16.0
 30
0.0
 11
-14.999999999999901
 21
6.3458845387283267
 31
0.0
  0
ARC
  5
1230
  8
247
  6
CONTINUOUS
 10
3.6268011885560152
 20
-8.0719994703795823
 30
0.0
 40
1.0306365966796871
 50
180.0
 51
0.0
1001
ACAD
1000
ASC_BOUNDS
1002
{
1070
    19
1005
1232
1002
}
  0
ARC
  5
1231
  8
247
  6
CONTINUOUS
 10
3.6268011885560152
 20
-8.0719994703795823
 30
0.0
 40
1.273141479492186
 50
180.0
 51
0.0
1001
ACAD
1000
ASC_BOUNDS
1002
{
1070
    19
1005
1232
1002
}
  0
ARC
  5
1233
  8
247
  6
CONTINUOUS
 10
3.74805362996227
 20
-4.4013299147155189
 30
0.0
 40
0.788140869140625
 50
253.99975070172749
 51
34.963873291630762
1001
ACAD
1000
ASC_BOUNDS
1002
{
1070
    19
1005
123B
1002
}
  0
ARC
  5
1234
  8
247
  6
CONTINUOUS
 10
3.6268011885560161
 20
-3.1491814772154498
 30
0.0
 40
1.273141479492186
 50
0.0
 51
194.770793966094
1001
ACAD
1000
ASC_BOUNDS
1002
{
1070
    19
1005
1232
1002
}
  0
LINE
  5
1235
  8
247
  6
CONTINUOUS
 10
4.8999429479093513
 20
-8.0719994703795823
 30
0.0
 11
4.8999429479093521
 21
-3.1491814772154498
 31
0.0
1001
ACAD
1000
ASC_BOUNDS
1002
{
1070
    19
1005
1232
1002
}
  0
ARC
  5
1236
  8
247
  6
CONTINUOUS
 10
2.875043376056027
 20
-4.1005425611998021
 30
0.0
 40
0.2546300053596497
 50
91.710121382064386
 51
253.99839835444871
1001
ACAD
1000
ASC_BOUNDS
1002
{
1070
    19
1005
123B
1002
}
  0
LINE
  5
1237
  8
247
  6
CONTINUOUS
 10
4.0849860030091634
 20
-4.1826012770201828
 30
0.0
 11
3.5419226485169588
 21
-4.0268792311217689
 31
0.0
1001
ACAD
1000
ASC_BOUNDS
1002
{
1070
    19
1005
123B
1002
}
  0
LINE
  5
1238
  8
247
  6
CONTINUOUS
 10
3.5419226485169588
 20
-4.2286980787779971
 30
0.0
 11
3.5419226485169588
 21
-4.0268792311217689
 31
0.0
1001
ACAD
1000
ASC_BOUNDS
1002
{
1070
    19
1005
123B
1002
}
  0
LINE
  5
1239
  8
247
  6
CONTINUOUS
 10
3.299417765704475
 20
-4.1591637770201828
 30
0.0
 11
3.299417765704475
 21
-3.4527886549498699
 31
0.0
1001
ACAD
1000
ASC_BOUNDS
1002
{
1070
    19
1005
123B
1002
}
  0
ARC
  5
123A
  8
247
  6
CONTINUOUS
 10
3.14179142293102
 20
-4.2274895826841998
 30
0.0
 40
0.7881328582763673
 50
143.44401219705779
 51
254.00018438768549
1001
ACAD
1000
ASC_BOUNDS
1002
{
1070
    19
1005
123B
1002
}
  0
ARC
  5
123C
  8
247
  6
CONTINUOUS
 10
3.6268011885560161
 20
-3.1491814772154498
 30
0.0
 40
1.0306365966796871
 50
0.0
 51
194.12743649641189
1001
ACAD
1000
ASC_BOUNDS
1002
{
1070
    19
1005
1232
1002
}
  0
LINE
  5
123D
  8
247
  6
CONTINUOUS
 10
4.6574380713380199
 20
-8.0719994703795823
 30
0.0
 11
4.6574380713380199
 21
-3.1491814772154498
 31
0.0
1001
ACAD
1000
ASC_BOUNDS
1002
{
1070
    19
1005
1232
1002
}
  0
ARC
  5
123E
  8
247
  6
CONTINUOUS
 10
3.6268011885560161
 20
-3.1491814772154498
 30
0.0
 40
1.0306394577026361
 50
200.8721834020736
 51
222.5419489373881
1001
ACAD
1000
ASC_BOUNDS
1002
{
1070
    19
1005
123B
1002
}
  0
ARC
  5
123F
  8
247
  6
CONTINUOUS
 10
3.6268011885560161
 20
-3.1491814772154498
 30
0.0
 40
1.2731420516967771
 50
200.22964506332011
 51
208.57168892371669
1001
ACAD
1000
ASC_BOUNDS
1002
{
1070
    19
1005
123B
1002
}
  0
LINE
  5
1240
  8
247
  6
CONTINUOUS
 10
2.663794596759145
 20
-3.5163811842467689
 30
0.0
 11
2.4321936446106922
 21
-3.5894128004576382
 31
0.0
1001
ACAD
1000
ASC_BOUNDS
1002
{
1070
    19
1005
123B
1002
}
  0
LINE
  5
1241
  8
247
  6
CONTINUOUS
 10
2.6273291426576
 20
-3.4007409254576819
 30
0.0
 11
2.3957281905091459
 21
-3.473772541668553
 31
0.0
1001
ACAD
1000
ASC_BOUNDS
1002
{
1070
    19
1005
1232
1002
}
  0
LINE
  5
125A
  8
247
  6
CONTINUOUS
 10
4.5361856299317358
 20
-3.8074273268248939
 30
0.0
 11
3.299417765704475
 21
-3.4527886549498699
 31
0.0
1001
ACAD
1000
ASC_BOUNDS
1002
{
1070
    19
1005
123B
1002
}
  0
LINE
  5
125B
  8
247
  6
CONTINUOUS
 10
4.3939401465333097
 20
-3.9496819654967221
 30
0.0
 11
4.5361856299317358
 21
-3.8074273268248939
 31
0.0
1001
ACAD
1000
ASC_BOUNDS
1002
{
1070
    19
1005
123B
1002
}
  0
LINE
  5
125C
  8
247
  6
CONTINUOUS
 10
4.5361856299317358
 20
-7.944750324871678
 30
0.0
 11
2.5961645918770548
 21
-7.388457600262595
 31
0.0
  0
LINE
  5
125D
  8
247
  6
CONTINUOUS
 10
2.3536597090638329
 20
-8.0719994703795823
 30
0.0
 11
2.3536597090638329
 21
-7.5711968580748712
 31
0.0
1001
ACAD
1000
ASC_BOUNDS
1002
{
1070
    19
1005
1232
1002
}
  0
LINE
  5
125E
  8
247
  6
CONTINUOUS
 10
2.5961645918763159
 20
-8.0719994703795823
 30
0.0
 11
2.5961645918763159
 21
-7.6407311598326828
 31
0.0
1001
ACAD
1000
ASC_BOUNDS
1002
{
1070
    19
1005
1232
1002
}
  0
LINE
  5
125F
  8
247
  6
CONTINUOUS
 10
2.3536597090638329
 20
-7.5711968580748712
 30
0.0
 11
2.5961645918763159
 21
-7.6407311598326828
 31
0.0
1001
ACAD
1000
ASC_BOUNDS
1002
{
1070
    19
1005
1232
1002
}
  0
LINE
  5
1260
  8
247
  6
CONTINUOUS
 10
2.5961645918763159
 20
-7.51459895768454
 30
0.0
 11
2.5961645918770548
 21
-7.388457600262595
 31
0.0
  0
LINE
  5
1261
  8
247
  6
CONTINUOUS
 10
2.3536597090638329
 20
-7.4450646559262719
 30
0.0
 11
2.5961645918763159
 21
-7.51459895768454
 31
0.0
  0
LINE
  5
1263
  8
247
  6
CONTINUOUS
 10
3.5419226485169588
 20
-4.2286980787779971
 30
0.0
 11
3.299417765704475
 21
-4.1591637770201828
 31
0.0
1001
ACAD
1000
ASC_BOUNDS
1002
{
1070
    19
1005
123B
1002
}
  0
ARC
  5
1264
  8
247
  6
CONTINUOUS
 10
4.0148016768372647
 20
-4.4273675123717462
 30
0.0
 40
0.2546298265457153
 50
254.0002730571841
 51
74.000273057184089
1001
ACAD
1000
ASC_BOUNDS
1002
{
1070
    19
1005
123B
1002
}
  0
LINE
  5
1265
  8
247
  6
CONTINUOUS
 10
3.944617350665395
 20
-4.6721337477233069
 30
0.0
 11
2.804849894610725
 21
-4.3453087965513637
 31
0.0
1001
ACAD
1000
ASC_BOUNDS
1002
{
1070
    19
1005
123B
1002
}
  0
LINE
  5
1267
  8
247
  6
CONTINUOUS
 10
2.6204077559388268
 20
-5.7430077711607623
 30
0.0
 11
2.6204077559388268
 21
-5.6547051588560739
 31
0.0
  0
LINE
  5
1268
  8
247
  6
CONTINUOUS
 10
2.6204077559388268
 20
-5.7430077711607623
 30
0.0
 11
2.3536597090638329
 21
-5.6665154615904489
 31
0.0
  0
LINE
  5
126B
  8
247
  6
CONTINUOUS
 10
2.3536597090638329
 20
-5.6665154615904489
 30
0.0
 11
2.3536597090638329
 21
-5.0358269850279962
 31
0.0
  0
ARC
  5
126C
  8
247
  6
CONTINUOUS
 10
3.9299322920716402
 20
-6.938402668621678
 30
0.0
 40
0.6062530517578125
 50
0.0
 51
130.32984065416761
  0
LINE
  5
126F
  8
247
  6
CONTINUOUS
 10
4.5361856299317358
 20
-6.2040490309264573
 30
0.0
 11
4.5361856299317358
 21
-5.6616540113951146
 31
0.0
  0
ARC
  5
1270
  8
247
  6
CONTINUOUS
 10
2.9599127608216511
 20
-6.6602563063170814
 30
0.0
 40
0.606258201599121
 50
17.669577547398141
 51
180.2361598426715
  0
ARC
  5
1271
  8
247
  6
CONTINUOUS
 10
3.7894903975403911
 20
-3.1127617994811212
 30
0.0
 40
2.0624633789062501
 50
245.2051773698422
 51
262.79482596205048
1001
ACAD
1000
ASC_BOUNDS
1002
{
1070
    19
1005
123B
1002
}
  0
LINE
  5
1272
  8
247
  6
CONTINUOUS
 10
4.5361856299317358
 20
-6.2040490309264573
 30
0.0
 11
2.6204077559388268
 21
-5.6547051588560739
 31
0.0
  0
LINE
  5
1274
  8
247
  6
CONTINUOUS
 10
2.6025030564030929
 20
-6.7848172912140958
 30
0.0
 11
3.2955725316234341
 21
-6.9835473164261552
 31
0.0
  0
ARC
  5
1275
  8
247
  6
CONTINUOUS
 10
2.9356695967591402
 20
-6.930803791668553
 30
0.0
 40
0.3637471675872803
 50
351.66260168792928
 51
156.33815509518971
  0
LINE
  5
1277
  8
247
  6
CONTINUOUS
 10
4.5361856299317358
 20
-5.6616540113951146
 30
0.0
 11
2.3536597090638329
 21
-5.0358269850279962
 31
0.0
  0
ARC
  5
128A
  8
247
  6
CONTINUOUS
 10
3.905679972735725
 20
-7.2089501539732641
 30
0.0
 40
0.363757574558258
 50
351.66285421114878
 51
156.33819215911379
  0
LINE
  5
128E
  8
247
  6
CONTINUOUS
 10
2.3536597090638329
 20
-7.4450646559262719
 30
0.0
 11
2.3536597090639182
 21
-6.6627551541785701
 31
0.0
  0
LINE
  5
1291
  8
247
  6
CONTINUOUS
 10
4.5361856299317358
 20
-7.944750324871678
 30
0.0
 11
4.5361856299317358
 21
-6.938402668621678
 31
0.0
  0
LINE
  5
1294
  8
247
  6
CONTINUOUS
 10
3.5725033384169071
 20
-7.062960759178682
 30
0.0
 11
4.2655933707702607
 21
-7.261694053750773
 31
0.0
  0
LINE
  5
1295
  8
240
  6
CONTINUOUS
 10
0.5000000000000293
 20
12.200000000000189
 30
0.0
 11
0.5000000000000293
 21
16.0
 31
0.0
  0
LINE
  5
1296
  8
240
  6
CONTINUOUS
 10
-2.500000000000056
 20
12.2000000000002
 30
0.0
 11
-2.500000000000056
 21
12.49999999999997
 31
0.0
  0
LINE
  5
1297
  8
240
  6
CONTINUOUS
 10
0.5
 20
12.199999999999971
 30
0.0
 11
-2.500000000000056
 21
12.19999999999999
 31
0.0
  0
LINE
  5
1298
  8
240
  6
CONTINUOUS
 10
1.0000000000000291
 20
16.5
 30
0.0
 11
5.5
 21
16.5
 31
0.0
  0
LINE
  5
1299
  8
250
  6
CONTINUOUS
 10
6.5
 20
-8.0
 30
0.0
 11
28.0
 21
-8.0000000000000071
 31
0.0
  0
LINE
  5
129A
  8
250
  6
CONTINUOUS
 10
6.5
 20
8.0
 30
0.0
 11
28.0
 21
7.9999999999999929
 31
0.0
  0
LINE
  5
129B
  8
250
  6
CONTINUOUS
 10
27.0
 20
-5.770000000000004
 30
0.0
 11
27.0
 21
5.7699999999999934
 31
0.0
  0
LINE
  5
129F
  8
250
  6
CONTINUOUS
 10
-42.000000000000092
 20
-0.5000000000000142
 30
0.0
 11
-42.000000000000092
 21
-36.0
 31
0.0
  0
LINE
  5
12A0
  8
250
  6
CONTINUOUS
 10
6.0
 20
-16.5
 30
0.0
 11
5.9999999999999991
 21
-36.0
 31
0.0
  0
LINE
  5
12A1
  8
250
  6
CONTINUOUS
 10
-39.770000000000103
 20
-35.0
 30
0.0
 11
3.7699999999999991
 21
-35.0
 31
0.0
  0
TEXT
  5
12A5
  8
250
  6
CONTINUOUS
 10
-72.0
 20
-4.0714285714285827
 30
0.0
 40
3.0
  1
\U+2205
 50
90.0
  0
TEXT
  5
12A6
  8
250
  6
CONTINUOUS
 10
-72.0
 20
-1.3571428571428701
 30
0.0
 40
3.0
  1
25
 50
90.0
  0
LINE
  5
12A7
  8
250
  6
CONTINUOUS
 10
-71.37166666666667
 20
10.27
 30
0.0
 11
-71.0
 21
12.5
 31
0.0
  0
LINE
  5
12A8
  8
250
  6
CONTINUOUS
 10
-70.62833333333333
 20
10.27
 30
0.0
 11
-71.0
 21
12.5
 31
0.0
  0
LINE
  5
12A9
  8
250
  6
CONTINUOUS
 10
-71.0
 20
12.5
 30
0.0
 11
-71.0
 21
10.27
 31
0.0
  0
LINE
  5
12AA
  8
250
  6
CONTINUOUS
 10
-70.62833333333333
 20
-10.27000000000001
 30
0.0
 11
-71.0
 21
-12.500000000000011
 31
0.0
  0
LINE
  5
12AB
  8
250
  6
CONTINUOUS
 10
-71.37166666666667
 20
-10.27000000000001
 30
0.0
 11
-71.0
 21
-12.500000000000011
 31
0.0
  0
LINE
  5
12AC
  8
250
  6
CONTINUOUS
 10
-71.0
 20
-12.500000000000011
 30
0.0
 11
-71.0
 21
-10.27000000000001
 31
0.0
  0
LINE
  5
12C3
  8
247
  6
CONTINUOUS
 10
2.3957281905091459
 20
-3.473772541668553
 30
0.0
 11
2.3957281905091459
 21
-3.473772541668553
 31
0.0
1001
HATCH_DISTANCE
1040
1.0
1001
HATCH_DISPLAY
1070
     0
1001
HATCH_TYPE
1070
     7
  0
LINE
  5
12C5
  8
247
  6
CONTINUOUS
 10
2.6273291426576
 20
-3.4007409254576819
 30
0.0
 11
2.6273291426576
 21
-3.4007409254576819
 31
0.0
1001
HATCH_DISTANCE
1040
1.0
1001
HATCH_DISPLAY
1070
     0
1001
HATCH_TYPE
1070
     7
  0
LINE
  5
12C7
  8
247
  6
CONTINUOUS
 10
2.3957281905091459
 20
-3.473772541668553
 30
0.0
 11
2.3957281905091459
 21
-3.473772541668553
 31
0.0
  0
LINE
  5
12C9
  8
247
  6
CONTINUOUS
 10
2.6273291426576
 20
-3.4007409254576819
 30
0.0
 11
2.6273291426576
 21
-3.4007409254576819
 31
0.0
  0
LINE
  5
12CB
  8
247
  6
CONTINUOUS
 10
2.3957281905091459
 20
-3.473772541668553
 30
0.0
 11
2.3957281905091459
 21
-3.473772541668553
 31
0.0
1001
HATCH_DISTANCE
1040
1.0
1001
HATCH_DISPLAY
1070
     0
1001
HATCH_TYPE
1070
     7
  0
LINE
  5
12CD
  8
247
  6
CONTINUOUS
 10
2.6273291426576
 20
-3.4007409254576819
 30
0.0
 11
2.6273291426576
 21
-3.4007409254576819
 31
0.0
1001
HATCH_DISTANCE
1040
1.0
1001
HATCH_DISPLAY
1070
     0
1001
HATCH_TYPE
1070
     7
  0
LINE
  5
12CF
  8
247
  6
CONTINUOUS
 10
2.3957281905091459
 20
-3.473772541668553
 30
0.0
 11
2.3957281905091459
 21
-3.473772541668553
 31
0.0
  0
LINE
  5
12D1
  8
247
  6
CONTINUOUS
 10
2.6273291426576
 20
-3.4007409254576819
 30
0.0
 11
2.6273291426576
 21
-3.4007409254576819
 31
0.0
  0
TEXT
  5
130F
  8
250
  6
CONTINUOUS
 10
26.0
 20
-4.0714285714285721
 30
0.0
 40
3.0
  1
\U+2205
 50
90.0
  0
TEXT
  5
1310
  8
250
  6
CONTINUOUS
 10
26.0
 20
-1.3571428571428581
 30
0.0
 40
3.0
  1
16
 50
90.0
  0
LINE
  5
1311
  8
250
  6
CONTINUOUS
 10
26.62833333333333
 20
5.7699999999999942
 30
0.0
 11
27.0
 21
7.9999999999999929
 31
0.0
  0
LINE
  5
1312
  8
250
  6
CONTINUOUS
 10
27.37166666666667
 20
5.7699999999999942
 30
0.0
 11
27.0
 21
7.9999999999999929
 31
0.0
  0
LINE
  5
1313
  8
250
  6
CONTINUOUS
 10
27.0
 20
7.9999999999999929
 30
0.0
 11
27.0
 21
5.7699999999999942
 31
0.0
  0
LINE
  5
1314
  8
250
  6
CONTINUOUS
 10
27.37166666666667
 20
-5.7700000000000058
 30
0.0
 11
27.0
 21
-8.0000000000000053
 31
0.0
  0
LINE
  5
1315
  8
250
  6
CONTINUOUS
 10
26.62833333333333
 20
-5.7700000000000058
 30
0.0
 11
27.0
 21
-8.0000000000000053
 31
0.0
  0
LINE
  5
1316
  8
250
  6
CONTINUOUS
 10
27.0
 20
-8.0000000000000053
 30
0.0
 11
27.0
 21
-5.7700000000000058
 31
0.0
  0
TEXT
  5
1317
  8
250
  6
CONTINUOUS
 10
-20.8571428571429
 20
-34.0
 30
0.0
 40
3.0
  1
48
  0
LINE
  5
1318
  8
250
  6
CONTINUOUS
 10
3.77
 20
-34.62833333333333
 30
0.0
 11
5.9999999999999991
 21
-35.0
 31
0.0
  0
LINE
  5
1319
  8
250
  6
CONTINUOUS
 10
3.77
 20
-35.37166666666667
 30
0.0
 11
5.9999999999999991
 21
-35.0
 31
0.0
  0
LINE
  5
131A
  8
250
  6
CONTINUOUS
 10
5.9999999999999991
 20
-35.0
 30
0.0
 11
3.77
 21
-35.0
 31
0.0
  0
LINE
  5
131B
  8
250
  6
CONTINUOUS
 10
-39.770000000000103
 20
-35.37166666666667
 30
0.0
 11
-42.000000000000092
 21
-35.0
 31
0.0
  0
LINE
  5
131C
  8
250
  6
CONTINUOUS
 10
-39.770000000000103
 20
-34.628333333333337
 30
0.0
 11
-42.000000000000092
 21
-35.0
 31
0.0
  0
LINE
  5
131D
  8
250
  6
CONTINUOUS
 10
-42.000000000000092
 20
-35.0
 30
0.0
 11
-39.770000000000103
 21
-35.0
 31
0.0
  0
VIEWPORT
  5
22
 67
     1
  8
0
 10
261.51769911504419
 20
148.5
 30
0.0
 40
523.0353982300885
 41
297.0
 68
     1
 69
     1
1001
ACAD
1000
MVIEW
1002
{
1070
    16
1010
0.0
1020
0.0
1030
0.0
1010
0.0
1020
0.0
1030
1.0
1040
0.0
1040
297.0
1040
261.51769911504419
1040
148.5
1040
50.0
1040
0.0
1040
0.0
1070
     0
1070
   100
1070
     1
1070
     1
1070
     0
1070
     0
1070
     0
1070
     0
1040
0.0
1040
0.0
1040
0.0
1040
1.0
1040
1.0
1040
10.0
1040
10.0
1070
     0
1002
{
1002
}
1002
}
1001
GENIUS_GENOBJ-N-SDF_13
1002
{
1000
OWNER
1000
GEN
1002
}
1001
GENIUS_GENODEF_13
1002
{
1000
HIER
1070
     0
1002
}
1002
{
1000
MANEDIT
1070
     0
1002
}
1002
{
1000
NOSEL
1070
     0
1002
}
1002
{
1000
BEHIND
1070
     0
1002
}
1002
{
1000
OTHER
1070
     0
1002
}
1002
{
1000
REACTOR
1002
}
1001
GENIUS_GENSCREG_15
1000
PF
1040
1.0
1000
DF
1040
1.0
1000
MIN
1011
0.0
1021
0.0
1031
0.0
1021
0.0
1031
0.0
1000
MAX
1011
523.0353982300885
1021
0.0
1031
0.0
1021
297.0
1031
0.0
1000
FLAGS
1070
     4
  0
ENDSEC
  0
EOF
