  0
SECTION
  2
HEADER
  9
$ACADVER
  1
AC1009
  9
$INSBASE
 10
0.0
 20
0.0
 30
0.0
  9
$EXTMIN
 10
-89.799999999999983
 20
-18.5
 30
0.0
  9
$EXTMAX
 10
22.000000000000011
 20
61.000000000000007
 30
0.0
  9
$LIMMIN
 10
0.0
 20
0.0
  9
$LIMMAX
 10
297.0
 20
210.0
  9
$ORTHOMODE
 70
     0
  9
$REGENMODE
 70
     1
  9
$FILLMODE
 70
     1
  9
$QTEXTMODE
 70
     0
  9
$MIRRTEXT
 70
     1
  9
$DRAGMODE
 70
     2
  9
$LTSCALE
 40
10.0
  9
$OSMODE
 70
  2799
  9
$ATTMODE
 70
     1
  9
$TEXTSIZE
 40
3.0
  9
$TRACEWID
 40
1.0
  9
$TEXTSTYLE
  7
YOKO
  9
$CLAYER
  8
240
  9
$CELTYPE
  6
BYLAYER
  9
$CECOLOR
 62
   256
  9
$DIMSCALE
 40
1.0
  9
$DIMASZ
 40
2.2299999999999991
  9
$DIMEXO
 40
0.5
  9
$DIMDLI
 40
7.0
  9
$DIMRND
 40
0.0
  9
$DIMDLE
 40
0.0
  9
$DIMEXE
 40
1.0
  9
$DIMTP
 40
0.0
  9
$DIMTM
 40
0.01
  9
$DIMTXT
 40
2.7999999999999989
  9
$DIMCEN
 40
0.0
  9
$DIMTSZ
 40
0.0
  9
$DIMTOL
 70
     0
  9
$DIMLIM
 70
     0
  9
$DIMTIH
 70
     0
  9
$DIMTOH
 70
     0
  9
$DIMSE1
 70
     0
  9
$DIMSE2
 70
     0
  9
$DIMTAD
 70
     3
  9
$DIMZIN
 70
     9
  9
$DIMBLK
  1
OPEN
  9
$DIMASO
 70
     1
  9
$DIMSHO
 70
     1
  9
$DIMPOST
  1

  9
$DIMAPOST
  1

  9
$DIMALT
 70
     0
  9
$DIMALTD
 70
     2
  9
$DIMALTF
 40
25.399999999999999
  9
$DIMLFAC
 40
1.0
  9
$DIMTOFL
 70
     1
  9
$DIMTVP
 40
0.0
  9
$DIMTIX
 70
     1
  9
$DIMSOXD
 70
     0
  9
$DIMSAH
 70
     0
  9
$DIMBLK1
  1

  9
$DIMBLK2
  1

  9
$DIMSTYLE
  2
BIGT
  9
$DIMCLRD
 70
   256
  9
$DIMCLRE
 70
   256
  9
$DIMCLRT
 70
    40
  9
$DIMTFAC
 40
1.0
  9
$DIMGAP
 40
1.0
  9
$LUNITS
 70
     2
  9
$LUPREC
 70
     3
  9
$SKETCHINC
 40
1.0
  9
$FILLETRAD
 40
0.0
  9
$AUNITS
 70
     0
  9
$AUPREC
 70
     3
  9
$MENU
  1
.
  9
$ELEVATION
 40
0.0
  9
$PELEVATION
 40
0.0
  9
$THICKNESS
 40
0.0
  9
$LIMCHECK
 70
     0
  9
$BLIPMODE
 70
     0
  9
$CHAMFERA
 40
0.25
  9
$CHAMFERB
 40
0.25
  9
$SKPOLY
 70
     0
  9
$TDCREATE
 40
2453712.7156020491
  9
$TDUPDATE
 40
2454784.4376468412
  9
$TDINDWG
 40
0.0098281713
  9
$TDUSRTIMER
 40
0.0098281713
  9
$USRTIMER
 70
     1
  9
$ANGBASE
 50
0.0
  9
$ANGDIR
 70
     0
  9
$PDMODE
 70
     1
  9
$PDSIZE
 40
0.0
  9
$PLINEWID
 40
0.0
  9
$COORDS
 70
     0
  9
$SPLFRAME
 70
     0
  9
$SPLINETYPE
 70
     6
  9
$SPLINESEGS
 70
     4
  9
$ATTDIA
 70
     1
  9
$ATTREQ
 70
     1
  9
$HANDLING
 70
     1
  9
$HANDSEED
  5
1B91
  9
$SURFTAB1
 70
     6
  9
$SURFTAB2
 70
     6
  9
$SURFTYPE
 70
     6
  9
$SURFU
 70
     6
  9
$SURFV
 70
     6
  9
$UCSNAME
  2

  9
$UCSORG
 10
0.0
 20
0.0
 30
0.0
  9
$UCSXDIR
 10
1.0
 20
0.0
 30
0.0
  9
$UCSYDIR
 10
0.0
 20
1.0
 30
0.0
  9
$PUCSNAME
  2

  9
$PUCSORG
 10
0.0
 20
0.0
 30
0.0
  9
$PUCSXDIR
 10
1.0
 20
0.0
 30
0.0
  9
$PUCSYDIR
 10
0.0
 20
1.0
 30
0.0
  9
$USERI1
 70
     1
  9
$USERI2
 70
     0
  9
$USERI3
 70
     0
  9
$USERI4
 70
     0
  9
$USERI5
 70
     0
  9
$USERR1
 40
0.0
  9
$USERR2
 40
0.0
  9
$USERR3
 40
0.0
  9
$USERR4
 40
0.0
  9
$USERR5
 40
0.0
  9
$WORLDVIEW
 70
     1
  9
$SHADEDGE
 70
     3
  9
$SHADEDIF
 70
    70
  9
$TILEMODE
 70
     1
  9
$MAXACTVP
 70
    16
  9
$PLIMCHECK
 70
     0
  9
$PEXTMIN
 10
1.0000000000000000E+020
 20
1.0000000000000000E+020
 30
1.0000000000000000E+020
  9
$PEXTMAX
 10
-1.0000000000000000E+020
 20
-1.0000000000000000E+020
 30
-1.0000000000000000E+020
  9
$PLIMMIN
 10
0.0
 20
0.0
  9
$PLIMMAX
 10
420.0
 20
297.0
  9
$UNITMODE
 70
     0
  9
$VISRETAIN
 70
     1
  9
$PLINEGEN
 70
     0
  9
$PSLTSCALE
 70
     1
  0
ENDSEC
  0
SECTION
  2
TABLES
  0
TABLE
  2
VPORT
 70
     3
  0
VPORT
  2
*ACTIVE
 70
     0
 10
0.0
 20
0.0
 11
1.0
 21
1.0
 12
-33.904164908901073
 22
21.249863187491091
 13
0.0
 23
0.0
 14
7.0
 24
7.0
 15
7.0
 25
7.0
 16
0.0
 26
0.0
 36
1.0
 17
0.0
 27
0.0
 37
0.0
 40
80.013604290024304
 41
1.5487804878048781
 42
50.0
 43
0.0
 44
0.0
 50
0.0
 51
0.0
 71
     0
 72
  2000
 73
     1
 74
     0
 75
     0
 76
     1
 77
     0
 78
     0
  0
ENDTAB
  0
TABLE
  2
LTYPE
 70
    13
  0
LTYPE
  2
CONTINUOUS
 70
     0
  3
Solid line
 72
    65
 73
     0
 40
0.0
  0
LTYPE
  2
CENTER2
 70
     0
  3
___ _ ___ _ ___ _ ___ _ ___ _ ___ _ ___ _ ___ _
 72
    65
 73
     4
 40
1.125
 49
0.75
 49
-0.125
 49
0.125
 49
-0.125
  0
LTYPE
  2
HIDDEN2
 70
     0
  3
_ _ _ _ _ _ _ _ _ _ _ _ _ _ _ _ _ _ _ _ _ _ _ _
 72
    65
 73
     2
 40
0.1875
 49
0.125
 49
-0.0625
  0
LTYPE
  2
PHANTOM2
 70
     0
  3
___ _ _ ___ _ _ ___ _ _ ___ _ _ ___ _ _ ___ _ _
 72
    65
 73
     6
 40
1.25
 49
0.625
 49
-0.125
 49
0.125
 49
-0.125
 49
0.125
 49
-0.125
  0
LTYPE
  2
CENTER
 70
     0
  3
____ _ ____ _ ____ _ ____ _ ____ _ ____ _ ____ 
 72
    65
 73
     4
 40
2.0
 49
1.25
 49
-0.25
 49
0.25
 49
-0.25
  0
LTYPE
  2
AM_ISO02W050
 70
     0
  3
__ __ __ __ __ __ __ __ __ __ __ __ __ __ __
 72
    65
 73
     2
 40
7.5
 49
6.0
 49
-1.5
  0
LTYPE
  2
AMCONSTR
 70
     0
  3
_______________________
 72
    65
 73
     2
 40
9999.0
 49
9999.0
 49
0.0
  0
LTYPE
  2
ACISOWELD
 70
     0
  3
_ _ _ _ _
 72
    65
 73
     2
 40
2.0
 49
2.0
 49
-1.0
  0
LTYPE
  2
ACISOTGB
 70
     0
  3
__ . . __ . .
 72
    65
 73
     6
 40
9.0
 49
4.0
 49
-1.0
 49
1.0
 49
-1.0
 49
1.0
 49
-1.0
  0
LTYPE
  2
ACISOTGL
 70
     0
  3
_ _ _ _ _
 72
    65
 73
     2
 40
3.0
 49
2.0
 49
-1.0
  0
LTYPE
  2
ACJISTGB
 70
     0
  3
__ . . __ . .
 72
    65
 73
     6
 40
9.0
 49
4.0
 49
-1.0
 49
1.0
 49
-1.0
 49
1.0
 49
-1.0
  0
LTYPE
  2
ACJISTGL
 70
     0
  3
_ _ _ _ _
 72
    65
 73
     2
 40
3.0
 49
2.0
 49
-1.0
  0
LTYPE
  2
HIDDEN
 70
     0
  3
Hidden __ __ __ __ __ __ __ __ __ __ __ __ __ _
 72
    65
 73
     2
 40
9.5249999999999986
 49
6.3499999999999988
 49
-3.1749999999999989
  0
ENDTAB
  0
TABLE
  2
LAYER
 70
     7
  0
LAYER
  2
0
 70
     0
 62
     7
  6
CONTINUOUS
  0
LAYER
  2
DEFPOINTS
 70
     0
 62
     7
  6
CONTINUOUS
  0
LAYER
  2
245
 70
     0
 62
     2
  6
CENTER2
  0
LAYER
  2
240
 70
     0
 62
     4
  6
CONTINUOUS
  0
LAYER
  2
241
 70
     0
 62
   211
  6
CONTINUOUS
  0
LAYER
  2
246
 70
     0
 62
     3
  6
PHANTOM2
  0
LAYER
  2
250
 70
     0
 62
     3
  6
CONTINUOUS
  0
ENDTAB
  0
TABLE
  2
STYLE
 70
     6
  0
STYLE
  2
STANDARD
 70
     0
 40
0.0
 41
1.0
 50
0.0
 71
     0
 42
3.0
  3
romans.shx
  4
extfont.shx
  0
STYLE
  2
ACISOTS
 70
     0
 40
1.0
 41
1.0
 50
0.0
 71
     0
 42
3.0
  3
amgdt.shx
  4
extfont.shx
  0
STYLE
  2
ACISOGDT
 70
     0
 40
0.0
 41
1.0
 50
0.0
 71
     0
 42
3.0
  3
amgdt.shx
  4
extfont.shx
  0
STYLE
  2
ACJISTS
 70
     0
 40
1.0
 41
1.0
 50
0.0
 71
     0
 42
3.0
  3
amgdt.shx
  4
extfont.shx
  0
STYLE
  2
ACJISGDT
 70
     0
 40
0.0
 41
1.0
 50
0.0
 71
     0
 42
3.0
  3
amgdt.shx
  4
extfont.shx
  0
STYLE
  2
YOKO
 70
     0
 40
0.0
 41
1.0
 50
0.0
 71
     0
 42
3.0
  3
romans.shx
  4
extfont.shx
  0
ENDTAB
  0
TABLE
  2
VIEW
 70
     0
  0
ENDTAB
  0
TABLE
  2
UCS
 70
     0
  0
ENDTAB
  0
TABLE
  2
APPID
 70
    27
  0
APPID
  2
ACAD
 70
     0
  0
APPID
  2
GLOBAL
 70
     0
  0
APPID
  2
DETAIL
 70
     0
  0
APPID
  2
GRPNAME
 70
     0
  0
APPID
  2
GPARA
 70
     0
  0
APPID
  2
MCAD_NO_VIS
 70
     0
  0
APPID
  2
ACAD_TEMP_GRAPHIC
 70
     0
  0
APPID
  2
ACATTRIBSERVICES
 70
     0
  0
APPID
  2
GENIUS_GENSCREG_15
 70
     0
  0
APPID
  2
GENIUS_GENODEF_13
 70
     0
  0
APPID
  2
GENIUS_GENOBJ-N-SDF_13
 70
     0
  0
APPID
  2
GENIUS_GENREC_14
 70
     0
  0
APPID
  2
GENIUS_GENOBJ-N-REC_13
 70
     0
  0
APPID
  2
GENIUS_GENDIMSH_14
 70
     0
  0
APPID
  2
GENIUS_GENOBJ-N-DIM_13
 70
     0
  0
APPID
  2
GENIUS_GENDIM_13
 70
     0
  0
APPID
  2
GENIUS_GENDTOL_13
 70
     0
  0
APPID
  2
GENIUS_GENOLIS_13
 70
     0
  0
APPID
  2
GENIUS_GENOENT_13
 70
     0
  0
APPID
  2
GENIUS_GENOBJ-F-FEM_13
 70
     0
  0
APPID
  2
GENIUS_GENOREF_13
 70
     0
  0
APPID
  2
GENIUS_GEFFEM_13
 70
     0
  0
APPID
  2
GENIUS_GEFFEMP_13
 70
     0
  0
APPID
  2
AD_DRAW
 70
     0
  0
APPID
  2
DESIGNERASSEMBLIES
 70
     0
  0
APPID
  2
ACADM_DIM_EDIT
 70
     0
  0
APPID
  2
AMDT_DM_ADJ
 70
     0
  0
ENDTAB
  0
TABLE
  2
DIMSTYLE
 70
    23
  0
DIMSTYLE
  2
BIGT
 70
     0
  3

  4

  5
OPEN
  6

  7

 40
1.0
 41
2.2299999999999991
 42
0.5
 43
7.0
 44
1.0
 45
0.0
 46
0.0
 47
0.0
 48
0.01
140
2.7999999999999989
141
0.0
142
0.0
143
25.399999999999999
144
1.0
145
0.0
146
1.0
147
1.0
 71
     0
 72
     0
 73
     0
 74
     0
 75
     0
 76
     0
 77
     3
 78
     9
170
     0
171
     2
172
     1
173
     0
174
     1
175
     0
176
   256
177
   256
178
    40
  0
DIMSTYLE
  2
AM_ISO
 70
     0
  3

  4
"
  5

  6

  7

 40
1.0
 41
2.5
 42
1.0
 43
10.0
 44
1.0
 45
0.0
 46
0.0
 47
0.1
 48
0.1
140
3.5
141
0.0
142
0.0
143
0.0393701
144
1.0
145
0.0
146
0.71
147
1.5
 71
     0
 72
     0
 73
     0
 74
     0
 75
     0
 76
     0
 77
     1
 78
     8
170
     0
171
     2
172
     1
173
     0
174
     0
175
     0
176
   256
177
   256
178
     2
  0
DIMSTYLE
  2
AM_ISO$3
 70
     0
  3

  4
"
  5

  6

  7

 40
1.0
 41
2.5
 42
1.0
 43
10.0
 44
1.0
 45
0.0
 46
0.0
 47
0.1
 48
0.1
140
3.5
141
0.0
142
0.0
143
0.0393701
144
1.0
145
0.0
146
0.71
147
1.5
 71
     0
 72
     0
 73
     0
 74
     1
 75
     0
 76
     0
 77
     1
 78
     8
170
     0
171
     2
172
     0
173
     0
174
     0
175
     0
176
   256
177
   256
178
     2
  0
DIMSTYLE
  2
AM_ISO$4
 70
     0
  3

  4
"
  5

  6

  7

 40
1.0
 41
2.5
 42
1.0
 43
10.0
 44
1.0
 45
0.0
 46
0.0
 47
0.1
 48
0.1
140
3.5
141
0.0
142
0.0
143
0.0393701
144
1.0
145
0.0
146
0.71
147
1.5
 71
     0
 72
     0
 73
     0
 74
     1
 75
     0
 76
     0
 77
     1
 78
     8
170
     0
171
     2
172
     0
173
     0
174
     0
175
     0
176
   256
177
   256
178
     2
  0
DIMSTYLE
  2
AM_ISO$6
 70
     0
  3

  4
"
  5

  6

  7

 40
1.0
 41
2.5
 42
1.0
 43
10.0
 44
1.0
 45
0.0
 46
0.0
 47
0.1
 48
0.1
140
3.5
141
0.0
142
0.0
143
0.0393701
144
1.0
145
0.0
146
0.71
147
1.5
 71
     0
 72
     0
 73
     0
 74
     0
 75
     0
 76
     0
 77
     0
 78
     8
170
     0
171
     2
172
     1
173
     0
174
     0
175
     0
176
   256
177
   256
178
     2
  0
DIMSTYLE
  2
AM_ISO$7
 70
     0
  3

  4
"
  5

  6

  7

 40
1.0
 41
2.5
 42
1.0
 43
10.0
 44
1.0
 45
0.0
 46
0.0
 47
0.1
 48
0.1
140
5.0
141
0.0
142
0.0
143
0.0393701
144
1.0
145
0.0
146
0.71
147
1.5
 71
     0
 72
     0
 73
     0
 74
     0
 75
     0
 76
     0
 77
     1
 78
     8
170
     0
171
     2
172
     1
173
     0
174
     0
175
     0
176
   256
177
   256
178
     2
  0
DIMSTYLE
  2
AM_ISO$SF
 70
     0
  3

  4
"
  5

  6

  7

 40
1.0
 41
2.5
 42
1.0
 43
10.0
 44
1.0
 45
0.0
 46
0.0
 47
0.1
 48
0.1
140
3.5
141
0.0
142
0.0
143
0.0393701
144
1.0
145
0.0
146
0.71
147
1.5
 71
     0
 72
     0
 73
     0
 74
     0
 75
     1
 76
     1
 77
     1
 78
     8
170
     0
171
     2
172
     1
173
     0
174
     0
175
     0
176
   256
177
   256
178
     2
  0
DIMSTYLE
  2
AM_ISO$SH
 70
     0
  3

  4
"
  5

  6
GENAXEH
  7

 40
1.0
 41
2.5
 42
1.0
 43
10.0
 44
1.0
 45
0.0
 46
0.0
 47
0.1
 48
0.1
140
3.5
141
0.0
142
0.0
143
0.0393701
144
2.0
145
0.0
146
0.71
147
1.5
 71
     0
 72
     0
 73
     0
 74
     0
 75
     1
 76
     1
 77
     1
 78
     8
170
     0
171
     2
172
     1
173
     1
174
     0
175
     0
176
   256
177
   256
178
     2
  0
DIMSTYLE
  2
BIGT$2
 70
     0
  3

  4

  5
OPEN
  6

  7

 40
1.0
 41
2.2299999999999991
 42
0.5
 43
7.0
 44
1.0
 45
0.0
 46
0.0
 47
0.0
 48
0.01
140
2.7999999999999989
141
0.0
142
0.0
143
25.399999999999999
144
1.0
145
0.0
146
1.0
147
1.0
 71
     0
 72
     0
 73
     0
 74
     0
 75
     0
 76
     0
 77
     3
 78
     9
170
     0
171
     2
172
     1
173
     0
174
     0
175
     0
176
   256
177
   256
178
    40
  0
DIMSTYLE
  2
BIGT$3
 70
     0
  3

  4

  5
OPEN
  6

  7

 40
1.0
 41
2.2299999999999991
 42
0.5
 43
2.5
 44
1.0
 45
0.0
 46
0.0
 47
0.0
 48
0.01
140
2.7999999999999989
141
0.0
142
0.0
143
25.399999999999999
144
1.0
145
0.0
146
1.0
147
1.0
 71
     0
 72
     0
 73
     0
 74
     0
 75
     0
 76
     0
 77
     3
 78
     9
170
     0
171
     2
172
     1
173
     0
174
     0
175
     0
176
   256
177
   256
178
    40
  0
DIMSTYLE
  2
BIGT$7
 70
     0
  3

  4

  5
OPEN
  6

  7

 40
0.0
 41
2.2299999999999991
 42
0.5
 43
7.0
 44
1.0
 45
0.0
 46
0.0
 47
0.0
 48
0.01
140
2.7999999999999989
141
0.0
142
0.0
143
25.399999999999999
144
1.0
145
0.0
146
1.0
147
1.0
 71
     0
 72
     0
 73
     0
 74
     0
 75
     0
 76
     0
 77
     3
 78
     9
170
     0
171
     2
172
     0
173
     0
174
     0
175
     0
176
   256
177
   256
178
    40
  0
DIMSTYLE
  2
BIGT$6
 70
     0
  3

  4

  5
OPEN
  6

  7

 40
1.0
 41
2.2299999999999991
 42
0.5
 43
2.5
 44
1.0
 45
0.0
 46
0.0
 47
0.0
 48
0.01
140
2.7999999999999989
141
0.0
142
0.0
143
25.399999999999999
144
1.0
145
0.0
146
1.0
147
1.0
 71
     0
 72
     0
 73
     0
 74
     0
 75
     0
 76
     0
 77
     3
 78
     9
170
     0
171
     2
172
     1
173
     0
174
     0
175
     0
176
   256
177
   256
178
    40
  0
DIMSTYLE
  2
BIGT$0
 70
     0
  3

  4

  5
OPEN
  6

  7

 40
1.0
 41
2.2299999999999991
 42
0.5
 43
7.0
 44
1.0
 45
0.0
 46
0.0
 47
0.0
 48
0.01
140
2.7999999999999989
141
0.0
142
0.0
143
25.399999999999999
144
1.0
145
0.0
146
1.0
147
1.0
 71
     0
 72
     0
 73
     0
 74
     0
 75
     0
 76
     0
 77
     3
 78
     9
170
     0
171
     2
172
     1
173
     0
174
     0
175
     0
176
   256
177
   256
178
    40
  0
DIMSTYLE
  2
BIGT$4
 70
     0
  3

  4

  5
OPEN
  6

  7

 40
1.0
 41
2.2299999999999991
 42
0.5
 43
2.5
 44
1.0
 45
0.0
 46
0.0
 47
0.0
 48
0.01
140
2.7999999999999989
141
0.0
142
0.0
143
25.399999999999999
144
1.0
145
0.0
146
1.0
147
1.0
 71
     0
 72
     0
 73
     0
 74
     0
 75
     0
 76
     0
 77
     3
 78
     9
170
     0
171
     2
172
     1
173
     0
174
     0
175
     0
176
   256
177
   256
178
    40
  0
DIMSTYLE
  2
BIGT$SH
 70
     0
  3

  4

  5
OPEN
  6

  7

 40
1.0
 41
2.2299999999999991
 42
0.5
 43
7.0
 44
1.0
 45
0.0
 46
0.0
 47
0.0
 48
0.0
140
2.7999999999999989
141
0.0
142
0.0
143
25.399999999999999
144
1.0
145
0.0
146
1.0
147
1.0
 71
     0
 72
     0
 73
     0
 74
     0
 75
     0
 76
     0
 77
     3
 78
     9
170
     0
171
     2
172
     1
173
     0
174
     0
175
     0
176
   256
177
   256
178
    40
  0
DIMSTYLE
  2
BIGT$SF
 70
     0
  3

  4

  5
OPEN
  6

  7

 40
1.0
 41
2.2299999999999991
 42
0.5
 43
7.0
 44
1.0
 45
0.0
 46
0.0
 47
0.0
 48
0.0
140
2.7999999999999989
141
0.0
142
0.0
143
25.399999999999999
144
1.0
145
0.0
146
1.0
147
1.0
 71
     0
 72
     0
 73
     0
 74
     0
 75
     0
 76
     0
 77
     3
 78
     9
170
     0
171
     2
172
     1
173
     0
174
     0
175
     0
176
   256
177
   256
178
    40
  0
DIMSTYLE
  2
TECHNICAL_OSAKA
 70
     0
  3

  4
"
  5
OPEN30
  6

  7

 40
1.0
 41
2.5
 42
1.0
 43
10.0
 44
1.0
 45
0.0
 46
0.0
 47
0.1
 48
0.1
140
2.7999999999999989
141
0.0
142
0.0
143
0.0393701
144
1.0
145
0.0
146
0.71
147
1.5
 71
     0
 72
     0
 73
     0
 74
     0
 75
     0
 76
     0
 77
     3
 78
     8
170
     0
171
     2
172
     1
173
     0
174
     0
175
     0
176
   256
177
   256
178
    40
  0
DIMSTYLE
  2
TECHNICAL_OSAKA$3
 70
     0
  3

  4
"
  5
OPEN30
  6

  7

 40
1.0
 41
2.5
 42
1.0
 43
10.0
 44
1.0
 45
0.0
 46
0.0
 47
0.1
 48
0.1
140
2.7999999999999989
141
0.0
142
0.0
143
0.0393701
144
1.0
145
0.0
146
0.71
147
1.5
 71
     0
 72
     0
 73
     0
 74
     1
 75
     0
 76
     0
 77
     3
 78
     8
170
     0
171
     2
172
     0
173
     0
174
     0
175
     0
176
   256
177
   256
178
    40
  0
DIMSTYLE
  2
TECHNICAL_OSAKA$4
 70
     0
  3

  4
"
  5
OPEN30
  6

  7

 40
1.0
 41
2.5
 42
1.0
 43
10.0
 44
1.0
 45
0.0
 46
0.0
 47
0.1
 48
0.1
140
2.7999999999999989
141
0.0
142
0.0
143
0.0393701
144
1.0
145
0.0
146
0.71
147
1.5
 71
     0
 72
     0
 73
     0
 74
     1
 75
     0
 76
     0
 77
     3
 78
     8
170
     0
171
     2
172
     0
173
     0
174
     0
175
     0
176
   256
177
   256
178
    40
  0
DIMSTYLE
  2
TECHNICAL_OSAKA$6
 70
     0
  3

  4
"
  5
OPEN30
  6

  7

 40
1.0
 41
2.5
 42
1.0
 43
10.0
 44
1.0
 45
0.0
 46
0.0
 47
0.1
 48
0.1
140
2.7999999999999989
141
0.0
142
0.0
143
0.0393701
144
1.0
145
0.0
146
0.71
147
1.5
 71
     0
 72
     0
 73
     0
 74
     0
 75
     0
 76
     0
 77
     0
 78
     8
170
     0
171
     2
172
     1
173
     0
174
     0
175
     0
176
   256
177
   256
178
    40
  0
DIMSTYLE
  2
TECHNICAL_OSAKA$7
 70
     0
  3

  4
"
  5
OPEN30
  6

  7

 40
1.0
 41
2.5
 42
1.0
 43
10.0
 44
1.0
 45
0.0
 46
0.0
 47
0.1
 48
0.1
140
2.7999999999999989
141
0.0
142
0.0
143
0.0393701
144
1.0
145
0.0
146
0.71
147
1.5
 71
     0
 72
     0
 73
     0
 74
     0
 75
     0
 76
     0
 77
     3
 78
     8
170
     0
171
     2
172
     1
173
     0
174
     0
175
     0
176
   256
177
   256
178
    40
  0
DIMSTYLE
  2
TECHNICAL_OSAKA$SF
 70
     0
  3

  4
"
  5
OPEN30
  6
OPEN30
  7
OPEN30
 40
1.0
 41
2.5
 42
1.0
 43
10.0
 44
1.0
 45
0.0
 46
0.0
 47
0.1
 48
0.1
140
3.5
141
0.0
142
0.0
143
0.0393701
144
1.0
145
0.0
146
0.71
147
1.5
 71
     0
 72
     0
 73
     0
 74
     0
 75
     1
 76
     1
 77
     3
 78
     8
170
     0
171
     2
172
     1
173
     0
174
     0
175
     0
176
   256
177
   256
178
    40
  0
DIMSTYLE
  2
TECHNICAL_OSAKA$SH
 70
     0
  3

  4
"
  5
OPEN30
  6
GENAXEH
  7
OPEN30
 40
1.0
 41
2.5
 42
1.0
 43
10.0
 44
1.0
 45
0.0
 46
0.0
 47
0.1
 48
0.1
140
3.5
141
0.0
142
0.0
143
0.0393701
144
2.0
145
0.0
146
0.71
147
1.5
 71
     0
 72
     0
 73
     0
 74
     0
 75
     1
 76
     1
 77
     3
 78
     8
170
     0
171
     2
172
     1
173
     1
174
     0
175
     0
176
   256
177
   256
178
    40
  0
ENDTAB
  0
ENDSEC
  0
SECTION
  2
BLOCKS
  0
BLOCK
  8
0
  2
$MODEL_SPACE
 70
     0
 10
0.0
 20
0.0
 30
0.0
  3
$MODEL_SPACE
  1

  0
ENDBLK
  5
1C
  8
0
  0
BLOCK
 67
     1
  8
0
  2
$PAPER_SPACE
 70
     0
 10
0.0
 20
0.0
 30
0.0
  3
$PAPER_SPACE
  1

  0
ENDBLK
  5
19
 67
     1
  8
0
  0
BLOCK
  8
0
  2
_OPEN
 70
     0
 10
0.0
 20
0.0
 30
0.0
  3
_OPEN
  1

  0
LINE
  5
1B27
  8
0
  6
BYBLOCK
 62
     0
 10
-1.0
 20
0.1666666666666666
 30
0.0
 11
0.0
 21
0.0
 31
0.0
  0
LINE
  5
1B28
  8
0
  6
BYBLOCK
 62
     0
 10
-1.0
 20
-0.1666666666666666
 30
0.0
 11
0.0
 21
0.0
 31
0.0
  0
LINE
  5
1B29
  8
0
  6
BYBLOCK
 62
     0
 10
0.0
 20
0.0
 30
0.0
 11
-1.0
 21
0.0
 31
0.0
  0
ENDBLK
  5
1B2A
  8
0
  0
BLOCK
  8
0
  2
GENAXEH
 70
     0
 10
0.0
 20
0.0
 30
0.0
  3
GENAXEH
  1

  0
LINE
  5
1B52
  8
0
 10
-1.0
 20
0.0
 30
0.0
 11
1.0
 21
0.0
 31
0.0
  0
ENDBLK
  5
1B53
  8
0
  0
BLOCK
  8
0
  2
_OPEN30
 70
     0
 10
0.0
 20
0.0
 30
0.0
  3
_OPEN30
  1

  0
LINE
  5
1B77
  8
0
  6
BYBLOCK
 62
     0
 10
-1.0
 20
0.26794919
 30
0.0
 11
0.0
 21
0.0
 31
0.0
  0
LINE
  5
1B78
  8
0
  6
BYBLOCK
 62
     0
 10
0.0
 20
0.0
 30
0.0
 11
-1.0
 21
-0.26794919
 31
0.0
  0
LINE
  5
1B79
  8
0
  6
BYBLOCK
 62
     0
 10
0.0
 20
0.0
 30
0.0
 11
-1.0
 21
0.0
 31
0.0
  0
ENDBLK
  5
1B7A
  8
0
  0
BLOCK
  8
0
  2
A$C09534F43
 70
     0
 10
0.0
 20
0.0
 30
0.0
  3
A$C09534F43
  1

  0
LINE
  5
1A68
  8
246
 10
-52.5
 20
-12.5
 30
0.0
 11
4.5
 21
-12.5
 31
0.0
  0
LINE
  5
1A69
  8
246
 10
-52.5
 20
12.5
 30
0.0
 11
4.5
 21
12.5
 31
0.0
  0
LINE
  5
1A6A
  8
245
  6
CENTER2
 10
-56.499999999999972
 20
-5.0
 30
0.0
 11
-56.499999999999972
 21
2.7117569999999769
 31
0.0
  0
LINE
  5
1A6B
  8
245
  6
CENTER2
 10
-77.0
 20
0.0
 30
0.0
 11
6.9999999999999991
 21
0.0
 31
0.0
  0
LINE
  5
1A6C
  8
241
  6
CONTINUOUS
 10
-53.59526249034441
 20
0.75
 30
0.0
 11
4.5
 21
0.75
 31
0.0
  0
LINE
  5
1A6D
  8
241
  6
CONTINUOUS
 10
-53.59526199999997
 20
-0.75
 30
0.0
 11
4.5
 21
-0.75
 31
0.0
  0
LINE
  5
1A6E
  8
241
  6
CONTINUOUS
 10
-52.999999999999972
 20
-15.700000000000021
 30
0.0
 11
-52.999999999999972
 21
-0.75
 31
0.0
  0
LINE
  5
1A6F
  8
241
  6
CONTINUOUS
 10
3.5
 20
-16.0
 30
0.0
 11
3.5
 21
-0.75
 31
0.0
  0
LINE
  5
1A70
  8
241
  6
CONTINUOUS
 10
2.5
 20
-18.5
 30
0.0
 11
2.5
 21
-0.75
 31
0.0
  0
LINE
  5
1A71
  8
241
  6
CONTINUOUS
 10
0.0
 20
-16.0
 30
0.0
 11
0.0
 21
-0.75
 31
0.0
  0
LINE
  5
1A72
  8
241
  6
CONTINUOUS
 10
-59.999999999999972
 20
-15.700000000000021
 30
0.0
 11
-59.999999999999972
 21
15.69999999999999
 31
0.0
  0
LINE
  5
1A73
  8
240
  6
CONTINUOUS
 10
4.5
 20
15.0
 30
0.0
 11
4.5
 21
0.75
 31
0.0
  0
LINE
  5
1A74
  8
240
  6
CONTINUOUS
 10
4.5
 20
-15.0
 30
0.0
 11
4.5
 21
-0.75
 31
0.0
  0
LINE
  5
1A75
  8
240
  6
CONTINUOUS
 10
3.5
 20
18.0
 30
0.0
 11
3.5
 21
16.0
 31
0.0
  0
LINE
  5
1A76
  8
240
  6
CONTINUOUS
 10
0.0
 20
17.830127999999998
 30
0.0
 11
0.0
 21
16.0
 31
0.0
  0
LINE
  5
1A77
  8
240
  6
CONTINUOUS
 10
-52.699999999999967
 20
16.0
 30
0.0
 11
0.0
 21
16.0
 31
0.0
  0
LINE
  5
1A78
  8
240
  6
CONTINUOUS
 10
3.5
 20
18.0
 30
0.0
 11
3.0
 21
18.5
 31
0.0
  0
LINE
  5
1A79
  8
240
  6
CONTINUOUS
 10
2.5
 20
18.5
 30
0.0
 11
3.0
 21
18.5
 31
0.0
  0
LINE
  5
1A7A
  8
240
  6
CONTINUOUS
 10
2.5
 20
18.5
 30
0.0
 11
0.0
 21
17.830127999999998
 31
0.0
  0
LINE
  5
1A7B
  8
240
  6
CONTINUOUS
 10
3.5
 20
16.0
 30
0.0
 11
4.5
 21
15.0
 31
0.0
  0
LINE
  5
1A7C
  8
240
  6
CONTINUOUS
 10
-74.999999999999972
 20
15.0
 30
0.0
 11
-74.999999999999972
 21
0.0
 31
0.0
  0
LINE
  5
1A7D
  8
240
  6
CONTINUOUS
 10
-52.699999999999967
 20
16.0
 30
0.0
 11
-52.999999999999972
 21
15.69999999999999
 31
0.0
  0
LINE
  5
1A7E
  8
240
  6
CONTINUOUS
 10
-59.999999999999972
 20
15.69999999999999
 30
0.0
 11
-52.999999999999972
 21
15.69999999999999
 31
0.0
  0
LINE
  5
1A7F
  8
240
  6
CONTINUOUS
 10
-60.299999999999983
 20
16.0
 30
0.0
 11
-59.999999999999972
 21
15.69999999999999
 31
0.0
  0
LINE
  5
1A80
  8
240
  6
CONTINUOUS
 10
-73.999999999999972
 20
16.0
 30
0.0
 11
-60.299999999999983
 21
16.0
 31
0.0
  0
ARC
  5
1A81
  8
240
  6
CONTINUOUS
 10
-73.999999999999972
 20
15.0
 30
0.0
 40
1.0
 50
90.0
 51
180.0
  0
LINE
  5
1A82
  8
240
  6
CONTINUOUS
 10
3.5
 20
-18.0
 30
0.0
 11
3.5
 21
-16.0
 31
0.0
  0
LINE
  5
1A83
  8
240
  6
CONTINUOUS
 10
0.0
 20
-17.830127000000001
 30
0.0
 11
0.0
 21
-16.0
 31
0.0
  0
LINE
  5
1A84
  8
240
  6
CONTINUOUS
 10
-52.699999999999967
 20
-16.0
 30
0.0
 11
0.0
 21
-16.0
 31
0.0
  0
LINE
  5
1A85
  8
240
  6
CONTINUOUS
 10
3.5
 20
-18.0
 30
0.0
 11
3.0
 21
-18.5
 31
0.0
  0
LINE
  5
1A86
  8
240
  6
CONTINUOUS
 10
2.5
 20
-18.5
 30
0.0
 11
3.0
 21
-18.5
 31
0.0
  0
LINE
  5
1A87
  8
240
  6
CONTINUOUS
 10
2.5
 20
-18.5
 30
0.0
 11
0.0
 21
-17.830127000000001
 31
0.0
  0
LINE
  5
1A88
  8
240
  6
CONTINUOUS
 10
3.5
 20
-16.0
 30
0.0
 11
4.5
 21
-15.0
 31
0.0
  0
LINE
  5
1A89
  8
240
  6
CONTINUOUS
 10
-74.999999999999972
 20
-15.0
 30
0.0
 11
-74.999999999999972
 21
0.0
 31
0.0
  0
LINE
  5
1A8A
  8
240
  6
CONTINUOUS
 10
-52.699999999999967
 20
-16.0
 30
0.0
 11
-52.999999999999972
 21
-15.700000000000021
 31
0.0
  0
LINE
  5
1A8B
  8
240
  6
CONTINUOUS
 10
-59.999999999999972
 20
-15.700000000000021
 30
0.0
 11
-52.999999999999972
 21
-15.700000000000021
 31
0.0
  0
LINE
  5
1A8C
  8
240
  6
CONTINUOUS
 10
-60.299999999999983
 20
-16.0
 30
0.0
 11
-59.999999999999972
 21
-15.700000000000021
 31
0.0
  0
LINE
  5
1A8D
  8
240
  6
CONTINUOUS
 10
-73.999999999999972
 20
-16.0
 30
0.0
 11
-60.299999999999983
 21
-16.0
 31
0.0
  0
ARC
  5
1A8E
  8
240
  6
CONTINUOUS
 10
-73.999999999999972
 20
-15.0
 30
0.0
 40
1.0
 50
180.0
 51
270.0
  0
CIRCLE
  5
1A8F
  8
241
  6
CONTINUOUS
 10
-56.499999999999972
 20
0.0
 30
0.0
 40
3.0
  0
LINE
  5
1A90
  8
241
  6
CONTINUOUS
 10
-52.999999999999972
 20
15.700000000000021
 30
0.0
 11
-52.999999999999972
 21
0.75
 31
0.0
  0
LINE
  5
1A91
  8
241
  6
CONTINUOUS
 10
0.0
 20
16.0
 30
0.0
 11
0.0
 21
0.75
 31
0.0
  0
LINE
  5
1A92
  8
241
  6
CONTINUOUS
 10
2.5
 20
18.5
 30
0.0
 11
2.5
 21
0.75
 31
0.0
  0
LINE
  5
1A93
  8
241
  6
CONTINUOUS
 10
3.5
 20
16.0
 30
0.0
 11
3.5
 21
0.75
 31
0.0
  0
ENDBLK
  5
1A96
  8
0
  0
ENDSEC
  0
SECTION
  2
ENTITIES
  0
TEXT
  5
155B
  8
241
 10
-70.0
 20
56.0
 30
0.0
 40
5.0
  1
OCA32
  7
YOKO
  0
LINE
  5
1570
  8
250
 10
3.5
 20
18.5
 30
0.0
 11
22.000000000000011
 21
18.499999999999989
 31
0.0
  0
LINE
  5
1571
  8
250
 10
3.5
 20
-18.5
 30
0.0
 11
22.0
 21
-18.5
 31
0.0
  0
LINE
  5
1572
  8
250
 10
21.000000000000011
 20
16.269999999999989
 30
0.0
 11
21.0
 21
-16.27
 31
0.0
  0
LINE
  5
1576
  8
250
 10
-74.499999999999972
 20
16.0
 30
0.0
 11
-86.999999999999986
 21
16.0
 31
0.0
  0
LINE
  5
1577
  8
250
 10
-74.499999999999972
 20
-16.0
 30
0.0
 11
-86.999999999999986
 21
-16.0
 31
0.0
  0
LINE
  5
1578
  8
250
 10
-85.999999999999986
 20
13.77
 30
0.0
 11
-85.999999999999986
 21
-13.77
 31
0.0
  0
LINE
  5
1582
  8
250
 10
0.0
 20
18.330127999999998
 30
0.0
 11
0.0000000000000011
 21
36.000000000000043
 31
0.0
  0
LINE
  5
1583
  8
250
 10
-74.999999999999972
 20
15.5
 30
0.0
 11
-74.999999999999972
 21
36.000000000000043
 31
0.0
  0
LINE
  5
1584
  8
250
 10
-2.2299999999999991
 20
35.000000000000028
 30
0.0
 11
-72.769999999999968
 21
35.000000000000028
 31
0.0
  0
LINE
  5
1588
  8
250
 10
4.5
 20
15.5
 30
0.0
 11
4.5
 21
36.0
 31
0.0
  0
LINE
  5
1589
  8
250
 10
0.0
 20
18.330127999999998
 30
0.0
 11
0.0000000000000011
 21
36.0
 31
0.0
  0
LINE
  5
158A
  8
250
 10
-2.2299999999999991
 20
35.0
 30
0.0
 11
-4.4599999999999991
 21
35.0
 31
0.0
  0
LINE
  5
158B
  8
250
 10
6.7300000000000004
 20
35.0
 30
0.0
 11
16.826666666666672
 21
35.0
 31
0.0
  0
LINE
  5
158C
  8
250
 10
0.0000000000000011
 20
35.0
 30
0.0
 11
4.5
 21
35.0
 31
0.0
  0
LINE
  5
1590
  8
250
 10
4.5
 20
15.5
 30
0.0
 11
4.5000000000000009
 21
43.0
 31
0.0
  0
LINE
  5
1591
  8
250
 10
-74.999999999999972
 20
15.5
 30
0.0
 11
-74.999999999999972
 21
43.0
 31
0.0
  0
LINE
  5
1592
  8
250
 10
2.2700000000000009
 20
42.0
 30
0.0
 11
-72.769999999999968
 21
42.0
 31
0.0
  0
TEXT
  5
1596
  8
250
 10
-39.91666666666665
 20
43.0
 30
0.0
 40
2.7999999999999989
  1
79.5
  0
LINE
  5
1597
  8
250
 10
-72.769999999999968
 20
41.62833333333333
 30
0.0
 11
-74.999999999999972
 21
42.0
 31
0.0
  0
LINE
  5
1598
  8
250
 10
-72.769999999999968
 20
42.371666666666663
 30
0.0
 11
-74.999999999999972
 21
42.0
 31
0.0
  0
LINE
  5
1599
  8
250
 10
-74.999999999999972
 20
42.0
 30
0.0
 11
-72.769999999999968
 21
42.0
 31
0.0
  0
LINE
  5
159A
  8
250
 10
2.2700000000000009
 20
42.371666666666663
 30
0.0
 11
4.5000000000000009
 21
42.0
 31
0.0
  0
LINE
  5
159B
  8
250
 10
2.2700000000000009
 20
41.62833333333333
 30
0.0
 11
4.5000000000000009
 21
42.0
 31
0.0
  0
LINE
  5
159C
  8
250
 10
4.5000000000000009
 20
42.0
 30
0.0
 11
2.2700000000000009
 21
42.0
 31
0.0
  0
TEXT
  5
159D
  8
250
 10
9.5600000000000005
 20
36.0
 30
0.0
 40
2.7999999999999989
  1
4.5
  0
LINE
  5
159E
  8
250
 10
6.7300000000000004
 20
34.62833333333333
 30
0.0
 11
4.5
 21
35.0
 31
0.0
  0
LINE
  5
159F
  8
250
 10
6.7300000000000004
 20
35.37166666666667
 30
0.0
 11
4.5
 21
35.0
 31
0.0
  0
LINE
  5
15A0
  8
250
 10
4.5
 20
35.0
 30
0.0
 11
6.7300000000000004
 21
35.0
 31
0.0
  0
LINE
  5
15A1
  8
250
 10
-2.2299999999999991
 20
35.37166666666667
 30
0.0
 11
0.0000000000000011
 21
35.0
 31
0.0
  0
LINE
  5
15A2
  8
250
 10
-2.2299999999999991
 20
34.62833333333333
 30
0.0
 11
0.0000000000000011
 21
35.0
 31
0.0
  0
LINE
  5
15A3
  8
250
 10
0.0000000000000011
 20
35.0
 30
0.0
 11
-2.2299999999999991
 21
35.0
 31
0.0
  0
TEXT
  5
15A4
  8
250
 10
-40.166666666666643
 20
36.000000000000043
 30
0.0
 40
2.7999999999999989
  1
75
  0
LINE
  5
15A5
  8
250
 10
-72.769999999999968
 20
34.628333333333373
 30
0.0
 11
-74.999999999999972
 21
35.000000000000028
 31
0.0
  0
LINE
  5
15A6
  8
250
 10
-72.769999999999968
 20
35.371666666666712
 30
0.0
 11
-74.999999999999972
 21
35.000000000000028
 31
0.0
  0
LINE
  5
15A7
  8
250
 10
-74.999999999999972
 20
35.000000000000028
 30
0.0
 11
-72.769999999999968
 21
35.000000000000028
 31
0.0
  0
LINE
  5
15A8
  8
250
 10
-2.2299999999999991
 20
35.371666666666712
 30
0.0
 11
0.0000000000000011
 21
35.000000000000028
 31
0.0
  0
LINE
  5
15A9
  8
250
 10
-2.2299999999999991
 20
34.628333333333373
 30
0.0
 11
0.0000000000000011
 21
35.000000000000028
 31
0.0
  0
LINE
  5
15AA
  8
250
 10
0.0000000000000011
 20
35.000000000000028
 30
0.0
 11
-2.2299999999999991
 21
35.000000000000028
 31
0.0
  0
TEXT
  5
15B2
  8
250
 10
-86.999999999999986
 20
-3.8000000000000091
 30
0.0
 40
2.7999999999999989
  1
\U+220532
 50
90.0
  0
LINE
  5
15B3
  8
250
 10
-85.628333333333316
 20
-13.77
 30
0.0
 11
-85.999999999999986
 21
-16.0
 31
0.0
  0
LINE
  5
15B4
  8
250
 10
-86.371666666666655
 20
-13.77
 30
0.0
 11
-85.999999999999986
 21
-16.0
 31
0.0
  0
LINE
  5
15B5
  8
250
 10
-85.999999999999986
 20
-16.0
 30
0.0
 11
-85.999999999999986
 21
-13.77
 31
0.0
  0
LINE
  5
15B6
  8
250
 10
-86.371666666666655
 20
13.77
 30
0.0
 11
-85.999999999999986
 21
16.0
 31
0.0
  0
LINE
  5
15B7
  8
250
 10
-85.628333333333316
 20
13.77
 30
0.0
 11
-85.999999999999986
 21
16.0
 31
0.0
  0
LINE
  5
15B8
  8
250
 10
-85.999999999999986
 20
16.0
 30
0.0
 11
-85.999999999999986
 21
13.77
 31
0.0
  0
TEXT
  5
15B9
  8
250
 10
20.0
 20
-3.7999999999999989
 30
0.0
 40
2.7999999999999989
  1
\U+220537
 50
90.0
  0
LINE
  5
15BA
  8
250
 10
21.37166666666667
 20
-16.27
 30
0.0
 11
21.0
 21
-18.5
 31
0.0
  0
LINE
  5
15BB
  8
250
 10
20.62833333333333
 20
-16.27
 30
0.0
 11
21.0
 21
-18.5
 31
0.0
  0
LINE
  5
15BC
  8
250
 10
21.0
 20
-18.5
 30
0.0
 11
21.0
 21
-16.27
 31
0.0
  0
LINE
  5
15BD
  8
250
 10
20.628333333333341
 20
16.269999999999989
 30
0.0
 11
21.000000000000011
 21
18.499999999999989
 31
0.0
  0
LINE
  5
15BE
  8
250
 10
21.37166666666667
 20
16.269999999999989
 30
0.0
 11
21.000000000000011
 21
18.499999999999989
 31
0.0
  0
LINE
  5
15BF
  8
250
 10
21.000000000000011
 20
18.499999999999989
 30
0.0
 11
21.000000000000011
 21
16.269999999999989
 31
0.0
  0
LINE
  5
1958
  8
250
 10
5.0
 20
12.5
 30
0.0
 11
15.0
 21
12.5
 31
0.0
  0
LINE
  5
1959
  8
250
 10
5.0
 20
-12.5
 30
0.0
 11
15.0
 21
-12.5
 31
0.0
  0
LINE
  5
195A
  8
250
 10
14.0
 20
10.27
 30
0.0
 11
14.0
 21
-10.27
 31
0.0
  0
TEXT
  5
1965
  8
250
 10
13.0
 20
-2.6505568332444081
 30
0.0
 40
2.7999999999999989
  1
\U+2205d
 50
90.0
  0
LINE
  5
1966
  8
250
 10
14.371666666666661
 20
-10.27
 30
0.0
 11
13.999999999999989
 21
-12.5
 31
0.0
  0
LINE
  5
1967
  8
250
 10
13.62833333333333
 20
-10.27
 30
0.0
 11
13.999999999999989
 21
-12.5
 31
0.0
  0
LINE
  5
1968
  8
250
 10
13.999999999999989
 20
-12.5
 30
0.0
 11
13.999999999999989
 21
-10.27
 31
0.0
  0
LINE
  5
1969
  8
250
 10
13.628333333333339
 20
10.27
 30
0.0
 11
14.0
 21
12.5
 31
0.0
  0
LINE
  5
196A
  8
250
 10
14.37166666666667
 20
10.27
 30
0.0
 11
14.0
 21
12.5
 31
0.0
  0
LINE
  5
196B
  8
250
 10
14.0
 20
12.5
 30
0.0
 11
14.0
 21
10.27
 31
0.0
  0
INSERT
  5
1A97
  8
240
  2
A$C09534F43
 10
0.0
 20
0.0
 30
0.0
  0
VIEWPORT
  5
22
 67
     1
  8
0
 10
261.51769911504419
 20
148.5
 30
0.0
 40
523.0353982300885
 41
297.0
 68
     1
 69
     1
1001
ACAD
1000
MVIEW
1002
{
1070
    16
1010
0.0
1020
0.0
1030
0.0
1010
0.0
1020
0.0
1030
1.0
1040
0.0
1040
297.0
1040
261.51769911504419
1040
148.5
1040
50.0
1040
0.0
1040
0.0
1070
     0
1070
   100
1070
     1
1070
     1
1070
     0
1070
     0
1070
     0
1070
     0
1040
0.0
1040
0.0
1040
0.0
1040
1.0
1040
1.0
1040
10.0
1040
10.0
1070
     0
1002
{
1002
}
1002
}
1001
GENIUS_GENODEF_13
1002
{
1000
HIER
1070
     0
1002
}
1002
{
1000
MANEDIT
1070
     0
1002
}
1002
{
1000
NOSEL
1070
     0
1002
}
1002
{
1000
BEHIND
1070
     0
1002
}
1002
{
1000
OTHER
1070
     0
1002
}
1002
{
1000
REACTOR
1002
}
1001
GENIUS_GENOBJ-N-SDF_13
1002
{
1000
OWNER
1000
GEN
1002
}
1001
GENIUS_GENSCREG_15
1000
PF
1040
1.0
1000
DF
1040
1.0
1000
MIN
1011
0.0
1021
0.0
1031
0.0
1021
0.0
1031
0.0
1000
MAX
1011
523.0353982300885
1021
0.0
1031
0.0
1021
297.0
1031
0.0
1000
FLAGS
1070
     2
  0
ENDSEC
  0
EOF
