  0
SECTION
  2
HEADER
  9
$ACADVER
  1
AC1009
  9
$INSBASE
 10
0.0
 20
0.0
 30
0.0
  9
$EXTMIN
 10
-87.799999999999983
 20
-18.500000000000039
 30
0.0
  9
$EXTMAX
 10
22.000000000000011
 20
61.000000000000007
 30
0.0
  9
$LIMMIN
 10
0.0
 20
0.0
  9
$LIMMAX
 10
297.0
 20
210.0
  9
$ORTHOMODE
 70
     1
  9
$REGENMODE
 70
     1
  9
$FILLMODE
 70
     1
  9
$QTEXTMODE
 70
     0
  9
$MIRRTEXT
 70
     1
  9
$DRAGMODE
 70
     2
  9
$LTSCALE
 40
10.0
  9
$OSMODE
 70
    33
  9
$ATTMODE
 70
     1
  9
$TEXTSIZE
 40
3.0
  9
$TRACEWID
 40
1.0
  9
$TEXTSTYLE
  7
YOKO
  9
$CLAYER
  8
240
  9
$CELTYPE
  6
BYLAYER
  9
$CECOLOR
 62
   256
  9
$DIMSCALE
 40
1.0
  9
$DIMASZ
 40
2.2299999999999991
  9
$DIMEXO
 40
0.5
  9
$DIMDLI
 40
7.0
  9
$DIMRND
 40
0.0
  9
$DIMDLE
 40
0.0
  9
$DIMEXE
 40
1.0
  9
$DIMTP
 40
0.0
  9
$DIMTM
 40
0.01
  9
$DIMTXT
 40
2.799999999999998
  9
$DIMCEN
 40
0.0
  9
$DIMTSZ
 40
0.0
  9
$DIMTOL
 70
     0
  9
$DIMLIM
 70
     0
  9
$DIMTIH
 70
     0
  9
$DIMTOH
 70
     0
  9
$DIMSE1
 70
     0
  9
$DIMSE2
 70
     0
  9
$DIMTAD
 70
     3
  9
$DIMZIN
 70
     9
  9
$DIMBLK
  1
OPEN
  9
$DIMASO
 70
     1
  9
$DIMSHO
 70
     1
  9
$DIMPOST
  1

  9
$DIMAPOST
  1

  9
$DIMALT
 70
     0
  9
$DIMALTD
 70
     2
  9
$DIMALTF
 40
25.399999999999999
  9
$DIMLFAC
 40
1.0
  9
$DIMTOFL
 70
     1
  9
$DIMTVP
 40
0.0
  9
$DIMTIX
 70
     1
  9
$DIMSOXD
 70
     0
  9
$DIMSAH
 70
     0
  9
$DIMBLK1
  1

  9
$DIMBLK2
  1

  9
$DIMSTYLE
  2
BIGT
  9
$DIMCLRD
 70
   256
  9
$DIMCLRE
 70
   256
  9
$DIMCLRT
 70
    40
  9
$DIMTFAC
 40
1.0
  9
$DIMGAP
 40
1.0
  9
$LUNITS
 70
     2
  9
$LUPREC
 70
     6
  9
$SKETCHINC
 40
1.0
  9
$FILLETRAD
 40
1.0
  9
$AUNITS
 70
     0
  9
$AUPREC
 70
     6
  9
$MENU
  1
.
  9
$ELEVATION
 40
0.0
  9
$PELEVATION
 40
0.0
  9
$THICKNESS
 40
0.0
  9
$LIMCHECK
 70
     0
  9
$BLIPMODE
 70
     0
  9
$CHAMFERA
 40
0.2
  9
$CHAMFERB
 40
0.2
  9
$SKPOLY
 70
     0
  9
$TDCREATE
 40
2457717.6653585299
  9
$TDUPDATE
 40
2460649.417264665
  9
$TDINDWG
 40
0.0195245023
  9
$TDUSRTIMER
 40
0.0195243171
  9
$USRTIMER
 70
     1
  9
$ANGBASE
 50
0.0
  9
$ANGDIR
 70
     0
  9
$PDMODE
 70
     1
  9
$PDSIZE
 40
0.0
  9
$PLINEWID
 40
0.0
  9
$COORDS
 70
     1
  9
$SPLFRAME
 70
     0
  9
$SPLINETYPE
 70
     6
  9
$SPLINESEGS
 70
     4
  9
$ATTDIA
 70
     1
  9
$ATTREQ
 70
     1
  9
$HANDLING
 70
     1
  9
$HANDSEED
  5
4BD7
  9
$SURFTAB1
 70
     6
  9
$SURFTAB2
 70
     6
  9
$SURFTYPE
 70
     6
  9
$SURFU
 70
     6
  9
$SURFV
 70
     6
  9
$UCSNAME
  2

  9
$UCSORG
 10
0.0
 20
0.0
 30
0.0
  9
$UCSXDIR
 10
1.0
 20
0.0
 30
0.0
  9
$UCSYDIR
 10
0.0
 20
1.0
 30
0.0
  9
$PUCSNAME
  2

  9
$PUCSORG
 10
0.0
 20
0.0
 30
0.0
  9
$PUCSXDIR
 10
1.0
 20
0.0
 30
0.0
  9
$PUCSYDIR
 10
0.0
 20
1.0
 30
0.0
  9
$USERI1
 70
     1
  9
$USERI2
 70
     0
  9
$USERI3
 70
     0
  9
$USERI4
 70
     0
  9
$USERI5
 70
     0
  9
$USERR1
 40
0.0
  9
$USERR2
 40
0.0
  9
$USERR3
 40
0.0
  9
$USERR4
 40
0.0
  9
$USERR5
 40
0.0
  9
$WORLDVIEW
 70
     1
  9
$SHADEDGE
 70
     3
  9
$SHADEDIF
 70
    70
  9
$TILEMODE
 70
     1
  9
$MAXACTVP
 70
    16
  9
$PLIMCHECK
 70
     0
  9
$PEXTMIN
 10
1.0000000000000000E+020
 20
1.0000000000000000E+020
 30
1.0000000000000000E+020
  9
$PEXTMAX
 10
-1.0000000000000000E+020
 20
-1.0000000000000000E+020
 30
-1.0000000000000000E+020
  9
$PLIMMIN
 10
0.0
 20
0.0
  9
$PLIMMAX
 10
420.0
 20
297.0
  9
$UNITMODE
 70
     0
  9
$VISRETAIN
 70
     1
  9
$PLINEGEN
 70
     0
  9
$PSLTSCALE
 70
     1
  0
ENDSEC
  0
SECTION
  2
TABLES
  0
TABLE
  2
VPORT
 70
     1
  0
VPORT
  2
*ACTIVE
 70
     0
 10
0.0
 20
0.0
 11
1.0
 21
1.0
 12
-61.418388635854797
 22
25.415440013058909
 13
0.0
 23
0.0
 14
7.0
 24
7.0
 15
7.0
 25
7.0
 16
0.0
 26
0.0
 36
1.0
 17
0.0
 27
0.0
 37
0.0
 40
165.49032755059341
 41
1.875335120643431
 42
50.0
 43
0.0
 44
0.0
 50
0.0
 51
0.0
 71
     0
 72
  2000
 73
     1
 74
     0
 75
     0
 76
     1
 77
     0
 78
     0
  0
ENDTAB
  0
TABLE
  2
LTYPE
 70
    20
  0
LTYPE
  2
CONTINUOUS
 70
     0
  3
Solid line
 72
    65
 73
     0
 40
0.0
  0
LTYPE
  2
CENTER2
 70
     0
  3
___ _ ___ _ ___ _ ___ _ ___ _ ___ _ ___ _ ___ _
 72
    65
 73
     4
 40
1.125
 49
0.75
 49
-0.125
 49
0.125
 49
-0.125
  0
LTYPE
  2
HIDDEN2
 70
     0
  3
_ _ _ _ _ _ _ _ _ _ _ _ _ _ _ _ _ _ _ _ _ _ _ _
 72
    65
 73
     2
 40
0.1875
 49
0.125
 49
-0.0625
  0
LTYPE
  2
PHANTOM2
 70
     0
  3
___ _ _ ___ _ _ ___ _ _ ___ _ _ ___ _ _ ___ _ _
 72
    65
 73
     6
 40
1.25
 49
0.625
 49
-0.125
 49
0.125
 49
-0.125
 49
0.125
 49
-0.125
  0
LTYPE
  2
AMCONSTR
 70
     0
  3
_______________________
 72
    65
 73
     2
 40
9999.0
 49
9999.0
 49
0.0
  0
LTYPE
  2
HIDDEN
 70
     0
  3
Hidden __ __ __ __ __ __ __ __ __ __ __ __ __ _
 72
    65
 73
     2
 40
0.375
 49
0.25
 49
-0.125
  0
LTYPE
  2
CENTER
 70
     0
  3
Center ____ _ ____ _ ____ _ ____ _ ____ _ ____
 72
    65
 73
     4
 40
2.0
 49
1.25
 49
-0.25
 49
0.25
 49
-0.25
  0
LTYPE
  2
AMZIGZAG2
 70
     0
  3
/\/-/\/-/\/-/\/-/\/-/\/
 72
    65
 73
     2
 40
0.4401
 49
0.0001
 49
-0.4400000000000002
  0
LTYPE
  2
ACANSTGB
 70
     0
  3
__ . . __ . .
 72
    65
 73
     6
 40
0.35433070866
 49
0.15748031496
 49
-0.03937007874
 49
0.03937007874
 49
-0.03937007874
 49
0.03937007874
 49
-0.03937007874
  0
LTYPE
  2
ACANSTGL
 70
     0
  3
_ _ _ _ _
 72
    65
 73
     2
 40
0.11811023622
 49
0.07874015748
 49
-0.03937007874
  0
ENDTAB
  0
TABLE
  2
LAYER
 70
     8
  0
LAYER
  2
0
 70
     0
 62
     7
  6
CONTINUOUS
  0
LAYER
  2
240
 70
     0
 62
     4
  6
CONTINUOUS
  0
LAYER
  2
DEFPOINTS
 70
     0
 62
     7
  6
CONTINUOUS
  0
LAYER
  2
245
 70
     0
 62
     2
  6
CENTER2
  0
LAYER
  2
241
 70
     0
 62
   211
  6
CONTINUOUS
  0
LAYER
  2
250
 70
     0
 62
     3
  6
CONTINUOUS
  0
LAYER
  2
243
 70
     0
 62
   211
  6
HIDDEN2
  0
ENDTAB
  0
TABLE
  2
STYLE
 70
     8
  0
STYLE
  2
STANDARD
 70
     0
 40
0.0
 41
1.0
 50
0.0
 71
     0
 42
3.0
  3
romans.shx
  4
extfont.shx
  0
STYLE
  2
YOKO
 70
     0
 40
0.0
 41
1.0
 50
0.0
 71
     0
 42
3.0
  3
romans.shx
  4
extfont.shx
  0
STYLE
  2
ACANSGDT
 70
     0
 40
0.0
 41
1.0
 50
0.0
 71
     0
 42
3.0
  3
amgdt.shx
  4

  0
ENDTAB
  0
TABLE
  2
VIEW
 70
     0
  0
ENDTAB
  0
TABLE
  2
UCS
 70
     0
  0
ENDTAB
  0
TABLE
  2
APPID
 70
    45
  0
APPID
  2
ACAD
 70
     0
  0
APPID
  2
ACADANNOTATIVE
 70
     0
  0
APPID
  2
GLOBAL
 70
     0
  0
APPID
  2
DETAIL
 70
     0
  0
APPID
  2
GRPNAME
 70
     0
  0
APPID
  2
GPARA
 70
     0
  0
APPID
  2
MCAD_NO_VIS
 70
     0
  0
APPID
  2
ACAD_TEMP_GRAPHIC
 70
     0
  0
APPID
  2
ACATTRIBSERVICES
 70
     0
  0
APPID
  2
GENIUS_GENSCREG_15
 70
     0
  0
APPID
  2
GENIUS_GENODEF_13
 70
     0
  0
APPID
  2
GENIUS_GENOBJ-N-SDF_13
 70
     0
  0
APPID
  2
GENIUS_GENREC_14
 70
     0
  0
APPID
  2
GENIUS_GENOBJ-N-REC_13
 70
     0
  0
APPID
  2
GENIUS_GENDIMSH_14
 70
     0
  0
APPID
  2
GENIUS_GENOBJ-N-DIM_13
 70
     0
  0
APPID
  2
GENIUS_GENDIM_13
 70
     0
  0
APPID
  2
GENIUS_GENDTOL_13
 70
     0
  0
APPID
  2
GENIUS_GENOLIS_13
 70
     0
  0
APPID
  2
GENIUS_GENOENT_13
 70
     0
  0
APPID
  2
GENIUS_GENOBJ-F-FEM_13
 70
     0
  0
APPID
  2
GENIUS_GENOREF_13
 70
     0
  0
APPID
  2
GENIUS_GEFFEM_13
 70
     0
  0
APPID
  2
GENIUS_GEFFEMP_13
 70
     0
  0
APPID
  2
AD_DRAW
 70
     0
  0
APPID
  2
DESIGNERASSEMBLIES
 70
     0
  0
APPID
  2
ACADM_DIM_EDIT
 70
     0
  0
APPID
  2
AMDT_DM_ADJ
 70
     0
  0
APPID
  2
ITEMNAME
 70
     0
  0
APPID
  2
GENIUS_GENOBJ-N-FIL_13
 70
     0
  0
APPID
  2
GENIUS_GENFIL_13
 70
     0
  0
APPID
  2
GENIUS_GENOBJ-N-CHA_13
 70
     0
  0
APPID
  2
ACAD_NAV_VCDISPLAY
 70
     0
  0
APPID
  2
LAYER_SCALE
 70
     0
  0
APPID
  2
ACAD_PSEXT
 70
     0
  0
APPID
  2
ACAECLAYERSTANDARD
 70
     0
  0
APPID
  2
ACAD_EXEMPT_FROM_CAD_STANDARDS
 70
     0
  0
APPID
  2
ACAD_DSTYLE_DIMINSPECT
 70
     0
  0
APPID
  2
ACAD_DSTYLE_DIMJAG
 70
     0
  0
APPID
  2
ACAD_DSTYLE_DIMBREAK
 70
     0
  0
APPID
  2
ACAD_MLEADERVER
 70
     0
  0
APPID
  2
ACAD_DSTYLE_DIMARC_LENGTH_
 70
     0
  0
APPID
  2
ACAD_DSTYLE_DIM_LINETYPE
 70
     0
  0
APPID
  2
ACAD_DSTYLE_DIM_EXT1_LINETYPE
 70
     0
  0
APPID
  2
ACAD_DSTYLE_DIM_EXT2_LINETYPE
 70
     0
  0
ENDTAB
  0
TABLE
  2
DIMSTYLE
 70
    18
  0
DIMSTYLE
  2
STANDARD
 70
     0
  3

  4

  5

  6

  7

 40
1.0
 41
0.18
 42
0.0625
 43
0.38
 44
0.18
 45
0.0
 46
0.0
 47
0.0
 48
0.0
140
0.18
141
0.09
142
0.0
143
25.399999999999999
144
1.0
145
0.0
146
1.0
147
0.09
 71
     0
 72
     0
 73
     1
 74
     1
 75
     0
 76
     0
 77
     0
 78
     0
170
     0
171
     2
172
     0
173
     0
174
     0
175
     0
176
     0
177
     0
178
     0
  0
DIMSTYLE
  2
BIGT
 70
     0
  3

  4

  5

  6

  7

 40
1.0
 41
2.2299999999999991
 42
0.5
 43
7.0
 44
1.0
 45
0.0
 46
0.0
 47
0.0
 48
0.01
140
2.799999999999998
141
0.0
142
0.0
143
25.399999999999999
144
1.0
145
0.0
146
1.0
147
1.0
 71
     0
 72
     0
 73
     0
 74
     0
 75
     0
 76
     0
 77
     3
 78
     9
170
     0
171
     2
172
     1
173
     0
174
     1
175
     0
176
   256
177
   256
178
    40
  0
DIMSTYLE
  2
AM_ANSI
 70
     0
  3

  4
mm
  5

  6

  7

 40
1.0
 41
0.12
 42
0.05
 43
0.5
 44
0.1
 45
0.0
 46
0.0
 47
0.1
 48
0.1
140
0.12
141
0.0
142
0.0
143
25.399999999999999
144
1.0
145
0.0
146
0.71
147
0.06
 71
     0
 72
     0
 73
     1
 74
     1
 75
     0
 76
     0
 77
     0
 78
     7
170
     0
171
     2
172
     0
173
     0
174
     0
175
     0
176
   256
177
   256
178
     2
  0
DIMSTYLE
  2
AM_ANSI$3
 70
     0
  3

  4
mm
  5

  6

  7

 40
1.0
 41
0.12
 42
0.05
 43
0.5
 44
0.1
 45
0.0
 46
0.0
 47
0.1
 48
0.1
140
0.12
141
0.0
142
0.0
143
25.399999999999999
144
1.0
145
0.0
146
0.71
147
0.06
 71
     0
 72
     0
 73
     1
 74
     1
 75
     0
 76
     0
 77
     0
 78
     7
170
     0
171
     2
172
     0
173
     0
174
     0
175
     0
176
   256
177
   256
178
     2
  0
DIMSTYLE
  2
AM_ANSI$4
 70
     0
  3

  4
mm
  5

  6

  7

 40
1.0
 41
0.12
 42
0.05
 43
0.5
 44
0.1
 45
0.0
 46
0.0
 47
0.1
 48
0.1
140
0.12
141
0.0
142
0.0
143
25.399999999999999
144
1.0
145
0.0
146
0.71
147
0.06
 71
     0
 72
     0
 73
     1
 74
     1
 75
     0
 76
     0
 77
     0
 78
     7
170
     0
171
     2
172
     0
173
     0
174
     0
175
     0
176
   256
177
   256
178
     2
  0
DIMSTYLE
  2
AM_ANSI$7
 70
     0
  3

  4
mm
  5

  6

  7

 40
1.0
 41
0.12
 42
0.05
 43
0.5
 44
0.1
 45
0.0
 46
0.0
 47
0.1
 48
0.1
140
0.12
141
0.0
142
0.0
143
25.399999999999999
144
1.0
145
0.0
146
0.71
147
0.06
 71
     0
 72
     0
 73
     1
 74
     1
 75
     0
 76
     0
 77
     0
 78
     7
170
     0
171
     2
172
     0
173
     0
174
     0
175
     0
176
   256
177
   256
178
     2
  0
DIMSTYLE
  2
AM_ANSI$SF
 70
     0
  3

  4
mm
  5

  6

  7

 40
1.0
 41
0.12
 42
0.05
 43
0.5
 44
0.1
 45
0.0
 46
0.0
 47
0.1
 48
0.1
140
0.12
141
0.0
142
0.0
143
25.399999999999999
144
1.0
145
0.0
146
0.71
147
0.06
 71
     0
 72
     0
 73
     1
 74
     1
 75
     1
 76
     1
 77
     0
 78
     7
170
     0
171
     2
172
     0
173
     0
174
     0
175
     0
176
   256
177
   256
178
     2
  0
DIMSTYLE
  2
AM_ANSI$SH
 70
     0
  3

  4
mm
  5

  6

  7

 40
1.0
 41
0.12
 42
0.05
 43
0.5
 44
0.1
 45
0.0
 46
0.0
 47
0.1
 48
0.1
140
0.12
141
0.0
142
0.0
143
25.399999999999999
144
1.0
145
0.0
146
0.71
147
0.06
 71
     0
 72
     0
 73
     1
 74
     1
 75
     1
 76
     1
 77
     0
 78
     7
170
     0
171
     2
172
     0
173
     1
174
     0
175
     0
176
   256
177
   256
178
     2
  0
ENDTAB
  0
ENDSEC
  0
SECTION
  2
BLOCKS
  0
BLOCK
  8
0
  2
$MODEL_SPACE
 70
     0
 10
0.0
 20
0.0
 30
0.0
  3
$MODEL_SPACE
  1

  0
ENDBLK
  5
4A75
  8
0
  0
BLOCK
 67
     1
  8
0
  2
$PAPER_SPACE
 70
     0
 10
0.0
 20
0.0
 30
0.0
  3
$PAPER_SPACE
  1

  0
ENDBLK
  5
4A71
 67
     1
  8
0
  0
BLOCK
  8
0
  2
_OPEN
 70
     0
 10
0.0
 20
0.0
 30
0.0
  3
_OPEN
  1

  0
LINE
  5
4726
  8
0
  6
BYBLOCK
 62
     0
 10
-1.0
 20
0.1666666666666666
 30
0.0
 11
0.0
 21
0.0
 31
0.0
  0
LINE
  5
4727
  8
0
  6
BYBLOCK
 62
     0
 10
-1.0
 20
-0.1666666666666666
 30
0.0
 11
0.0
 21
0.0
 31
0.0
  0
LINE
  5
4728
  8
0
  6
BYBLOCK
 62
     0
 10
0.0
 20
0.0
 30
0.0
 11
-1.0
 21
0.0
 31
0.0
  0
ENDBLK
  5
4729
  8
0
  0
BLOCK
  8
0
  2
_ACMFILLEDHALF
 70
     0
 10
0.0
 20
0.0
 30
0.0
  3
_ACMFILLEDHALF
  1

  0
TRACE
  5
4955
  8
240
 62
     0
 10
-0.8
 20
0.0
 30
0.0
 11
-1.0
 21
0.166666666
 31
0.0
 12
0.0
 22
0.0
 32
0.0
 13
0.0
 23
0.0
 33
0.0
  0
LINE
  5
4956
  8
240
 62
     0
 10
-1.0
 20
0.0
 30
0.0
 11
-0.8
 21
0.0
 31
0.0
  0
ENDBLK
  5
4954
  8
0
  0
ENDSEC
  0
SECTION
  2
ENTITIES
  0
LINE
  5
426C
  8
245
  6
CENTER2
 10
-77.0
 20
0.0
 30
0.0
 11
5.4746750725247439
 21
0.0
 31
0.0
  0
LINE
  5
426E
  8
241
  6
CONTINUOUS
 10
-56.490192038989861
 20
-0.4999999999999716
 30
0.0
 11
3.5
 21
-0.4999999999999953
 31
0.0
  0
LINE
  5
426F
  8
241
  6
CONTINUOUS
 10
-56.49019203898996
 20
0.4999999999999858
 30
0.0
 11
3.5
 21
0.5000000000000333
 31
0.0
  0
LINE
  5
4270
  8
240
  6
CONTINUOUS
 10
3.5
 20
-18.0
 30
0.0
 11
3.0
 21
-18.5
 31
0.0
  0
LINE
  5
4271
  8
240
  6
CONTINUOUS
 10
3.0
 20
18.500000000000011
 30
0.0
 11
3.5
 21
18.000000000000011
 31
0.0
  0
LINE
  5
427F
  8
241
  6
CONTINUOUS
 10
-2.0
 20
-15.699999999999999
 30
0.0
 11
-2.0
 21
-0.5
 31
0.0
  0
LINE
  5
4280
  8
241
  6
CONTINUOUS
 10
2.5
 20
-18.5
 30
0.0
 11
2.5
 21
-0.5
 31
0.0
  0
LINE
  5
4281
  8
241
  6
CONTINUOUS
 10
3.0
 20
-18.5
 30
0.0
 11
3.0
 21
-0.5
 31
0.0
  0
LINE
  5
4282
  8
240
  6
CONTINUOUS
 10
0.0
 20
-17.83012701892223
 30
0.0
 11
0.0
 21
-15.699999999999999
 31
0.0
  0
LINE
  5
4283
  8
240
  6
CONTINUOUS
 10
-75.0
 20
-14.99999999999998
 30
0.0
 11
-75.0
 21
15.000000000000011
 31
0.0
  0
LINE
  5
4284
  8
240
  6
CONTINUOUS
 10
-74.0
 20
-15.99999999999998
 30
0.0
 11
-2.0
 21
-16.0
 31
0.0
  0
LINE
  5
429A
  8
240
  6
CONTINUOUS
 10
0.0
 20
-15.699999999999999
 30
0.0
 11
-2.0
 21
-15.699999999999999
 31
0.0
  0
LINE
  5
429B
  8
240
  6
CONTINUOUS
 10
2.5
 20
-18.500000000000039
 30
0.0
 11
0.0
 21
-17.83012701892223
 31
0.0
  0
LINE
  5
429C
  8
240
  6
CONTINUOUS
 10
2.5
 20
-18.5
 30
0.0
 11
3.0
 21
-18.5
 31
0.0
  0
LINE
  5
429D
  8
240
  6
CONTINUOUS
 10
-2.0
 20
16.000000000000011
 30
0.0
 11
-74.0
 21
16.000000000000011
 31
0.0
  0
LINE
  5
429E
  8
243
  6
HIDDEN2
 10
-47.942264973081024
 20
10.0
 30
0.0
 11
3.4999999999999991
 21
10.0
 31
0.0
  0
LINE
  5
42D3
  8
240
  6
CONTINUOUS
 10
0.0
 20
15.699999999999999
 30
0.0
 11
0.0
 21
17.83012701892223
 31
0.0
  0
LINE
  5
42D4
  8
240
  6
CONTINUOUS
 10
-2.0
 20
15.699999999999999
 30
0.0
 11
-2.0
 21
16.000000000000011
 31
0.0
  0
LINE
  5
42D5
  8
240
  6
CONTINUOUS
 10
0.0
 20
15.699999999999999
 30
0.0
 11
-2.0
 21
15.699999999999999
 31
0.0
  0
LINE
  5
42D6
  8
240
  6
CONTINUOUS
 10
2.499999999999829
 20
18.500000000000011
 30
0.0
 11
3.0
 21
18.500000000000011
 31
0.0
  0
LINE
  5
42D7
  8
240
  6
CONTINUOUS
 10
0.0
 20
17.83012701892223
 30
0.0
 11
2.499999999999829
 21
18.500000000000011
 31
0.0
  0
LINE
  5
42DA
  8
240
  6
CONTINUOUS
 10
3.5
 20
-18.0
 30
0.0
 11
3.5
 21
-0.4999999999999953
 31
0.0
  0
LINE
  5
4318
  8
241
  6
CONTINUOUS
 10
-56.490192038989861
 20
-0.4999999999999716
 30
0.0
 11
-56.49019203898996
 21
0.4999999999999858
 31
0.0
  0
LINE
  5
4319
  8
241
  6
CONTINUOUS
 10
-43.500241645124277
 20
-0.4999999999999575
 30
0.0
 11
-43.500241645124277
 21
0.5000000000000429
 31
0.0
  0
LINE
  5
4321
  8
240
  6
CONTINUOUS
 10
3.5
 20
0.5000000000000333
 30
0.0
 11
3.5
 21
18.000000000000011
 31
0.0
  0
ARC
  5
4322
  8
240
  6
CONTINUOUS
 10
-74.0
 20
15.000000000000011
 30
0.0
 40
1.0
 50
90.0
 51
180.0
1001
GENIUS_GENODEF_13
1002
{
1000
HIER
1070
     0
1002
}
1002
{
1000
MANEDIT
1070
     0
1002
}
1002
{
1000
NOSEL
1070
     0
1002
}
1002
{
1000
BEHIND
1070
     0
1002
}
1002
{
1000
OTHER
1070
     0
1002
}
1002
{
1000
REACTOR
1002
}
1001
GENIUS_GENOBJ-N-FIL_13
1002
{
1000
OWNER
1000
GEN
1002
}
  0
ARC
  5
4323
  8
240
  6
CONTINUOUS
 10
-74.0
 20
-14.99999999999998
 30
0.0
 40
1.0
 50
180.0
 51
270.0
1001
GENIUS_GENODEF_13
1002
{
1000
HIER
1070
     0
1002
}
1002
{
1000
MANEDIT
1070
     0
1002
}
1002
{
1000
NOSEL
1070
     0
1002
}
1002
{
1000
BEHIND
1070
     0
1002
}
1002
{
1000
OTHER
1070
     0
1002
}
1002
{
1000
REACTOR
1002
}
1001
GENIUS_GENOBJ-N-FIL_13
1002
{
1000
OWNER
1000
GEN
1002
}
  0
LINE
  5
432B
  8
240
  6
CONTINUOUS
 10
-2.0
 20
-15.699999999999999
 30
0.0
 11
-2.0
 21
-16.0
 31
0.0
  0
LINE
  5
432C
  8
241
  6
CONTINUOUS
 10
0.0
 20
-15.699999999999999
 30
0.0
 11
0.0
 21
-0.4999999999999939
 31
0.0
  0
LINE
  5
432D
  8
241
  6
CONTINUOUS
 10
-2.0
 20
15.699999999999999
 30
0.0
 11
-2.0
 21
0.5
 31
0.0
  0
LINE
  5
432E
  8
241
  6
CONTINUOUS
 10
2.5
 20
18.5
 30
0.0
 11
2.5
 21
0.5
 31
0.0
  0
LINE
  5
432F
  8
241
  6
CONTINUOUS
 10
3.0
 20
18.5
 30
0.0
 11
3.0
 21
0.5
 31
0.0
  0
LINE
  5
4330
  8
243
  6
HIDDEN2
 10
-47.942264973081024
 20
-10.0
 30
0.0
 11
3.5
 21
-10.0
 31
0.0
  0
LINE
  5
4331
  8
241
  6
CONTINUOUS
 10
0.0
 20
15.699999999999999
 30
0.0
 11
0.0
 21
0.4999999999999939
 31
0.0
  0
TEXT
  5
44D2
  8
241
  6
CONTINUOUS
 10
-70.0
 20
56.0
 30
0.0
 40
5.0
  1
OCA32-20
  7
YOKO
  0
LINE
  5
44D4
  8
250
  6
CONTINUOUS
 10
4.0
 20
10.0
 30
0.0
 11
15.000000000000011
 21
10.0
 31
0.0
  0
LINE
  5
44D5
  8
250
  6
CONTINUOUS
 10
4.0
 20
-10.0
 30
0.0
 11
15.0
 21
-10.0
 31
0.0
  0
LINE
  5
44D6
  8
250
  6
CONTINUOUS
 10
14.0
 20
10.000000000000069
 30
0.0
 11
14.0
 21
-10.0
 31
0.0
  0
LINE
  5
44DA
  8
250
  6
CONTINUOUS
 10
-74.5
 20
16.000000000000011
 30
0.0
 11
-84.999999999999986
 21
16.000000000000021
 31
0.0
  0
LINE
  5
44DB
  8
250
  6
CONTINUOUS
 10
-74.5
 20
-15.99999999999998
 30
0.0
 11
-84.999999999999986
 21
-15.99999999999998
 31
0.0
  0
LINE
  5
44DC
  8
250
  6
CONTINUOUS
 10
-83.999999999999986
 20
13.77000000000001
 30
0.0
 11
-83.999999999999986
 21
-13.76999999999998
 31
0.0
  0
LINE
  5
44E0
  8
250
  6
CONTINUOUS
 10
3.5
 20
18.500000000000011
 30
0.0
 11
22.000000000000011
 21
18.500000000000011
 31
0.0
  0
LINE
  5
44E1
  8
250
  6
CONTINUOUS
 10
3.5
 20
-18.5
 30
0.0
 11
22.0
 21
-18.5
 31
0.0
  0
LINE
  5
44E2
  8
250
  6
CONTINUOUS
 10
21.0
 20
16.27000000000001
 30
0.0
 11
21.0
 21
-16.27
 31
0.0
  0
LINE
  5
44E6
  8
250
  6
CONTINUOUS
 10
0.0
 20
18.330127018922209
 30
0.0
 11
0.0000000000000011
 21
36.0
 31
0.0
  0
LINE
  5
44E7
  8
250
  6
CONTINUOUS
 10
3.5
 20
18.500000000000011
 30
0.0
 11
3.5
 21
36.0
 31
0.0
  0
LINE
  5
44E8
  8
250
  6
CONTINUOUS
 10
-2.2299999999999991
 20
35.0
 30
0.0
 11
-4.4599999999999991
 21
35.0
 31
0.0
  0
LINE
  5
44E9
  8
250
  6
CONTINUOUS
 10
5.7300000000000004
 20
35.0
 30
0.0
 11
14.0
 21
35.0
 31
0.0
  0
LINE
  5
44EB
  8
250
  6
CONTINUOUS
 10
0.0000000000000011
 20
35.0
 30
0.0
 11
3.5
 21
35.0
 31
0.0
  0
LINE
  5
44EE
  8
250
  6
CONTINUOUS
 10
-75.0
 20
15.500000000000011
 30
0.0
 11
-75.0
 21
36.0
 31
0.0
  0
LINE
  5
44EF
  8
250
  6
CONTINUOUS
 10
0.0
 20
18.330127018922209
 30
0.0
 11
0.0000000000000011
 21
36.0
 31
0.0
  0
LINE
  5
44F0
  8
250
  6
CONTINUOUS
 10
-72.769999999999982
 20
35.0
 30
0.0
 11
-2.2299999999999991
 21
35.0
 31
0.0
  0
LINE
  5
44F4
  8
250
  6
CONTINUOUS
 10
-75.0
 20
15.500000000000011
 30
0.0
 11
-75.0
 21
43.0
 31
0.0
  0
LINE
  5
44F5
  8
250
  6
CONTINUOUS
 10
3.5
 20
18.500000000000011
 30
0.0
 11
3.5
 21
43.0
 31
0.0
  0
LINE
  5
44F6
  8
250
  6
CONTINUOUS
 10
-72.769999999999982
 20
42.0
 30
0.0
 11
1.27
 21
42.0
 31
0.0
  0
TEXT
  5
44FA
  8
250
  6
CONTINUOUS
 10
13.0
 20
-3.6490866257896322
 30
0.0
 40
2.799999999999998
  1
\U+220520
 50
90.0
  0
LINE
  5
44FB
  8
250
  6
CONTINUOUS
 10
14.371666666666661
 20
-7.7699999999999969
 30
0.0
 11
14.0
 21
-10.0
 31
0.0
  0
LINE
  5
44FC
  8
250
  6
CONTINUOUS
 10
13.62833333333333
 20
-7.7699999999999969
 30
0.0
 11
14.0
 21
-10.0
 31
0.0
  0
LINE
  5
44FD
  8
250
  6
CONTINUOUS
 10
14.0
 20
-10.0
 30
0.0
 11
14.0
 21
-7.7699999999999969
 31
0.0
  0
LINE
  5
44FE
  8
250
  6
CONTINUOUS
 10
13.628333333333339
 20
7.7699999999999987
 30
0.0
 11
14.000000000000011
 21
10.0
 31
0.0
  0
LINE
  5
44FF
  8
250
  6
CONTINUOUS
 10
14.37166666666667
 20
7.7699999999999987
 30
0.0
 11
14.000000000000011
 21
10.0
 31
0.0
  0
LINE
  5
4500
  8
250
  6
CONTINUOUS
 10
14.000000000000011
 20
10.0
 30
0.0
 11
14.000000000000011
 21
7.7699999999999987
 31
0.0
  0
TEXT
  5
4501
  8
250
  6
CONTINUOUS
 10
20.0
 20
-3.933333333333326
 30
0.0
 40
2.799999999999998
  1
\U+220537
 50
90.0
  0
LINE
  5
4502
  8
250
  6
CONTINUOUS
 10
21.371666666666648
 20
-16.27
 30
0.0
 11
21.0
 21
-18.5
 31
0.0
  0
LINE
  5
4503
  8
250
  6
CONTINUOUS
 10
20.62833333333333
 20
-16.27
 30
0.0
 11
21.0
 21
-18.5
 31
0.0
  0
LINE
  5
4504
  8
250
  6
CONTINUOUS
 10
21.0
 20
-18.5
 30
0.0
 11
21.0
 21
-16.27
 31
0.0
  0
LINE
  5
4505
  8
250
  6
CONTINUOUS
 10
20.628333333333341
 20
16.27000000000001
 30
0.0
 11
21.0
 21
18.500000000000011
 31
0.0
  0
LINE
  5
4506
  8
250
  6
CONTINUOUS
 10
21.37166666666667
 20
16.27000000000001
 30
0.0
 11
21.0
 21
18.500000000000011
 31
0.0
  0
LINE
  5
4507
  8
250
  6
CONTINUOUS
 10
21.0
 20
18.500000000000011
 30
0.0
 11
21.0
 21
16.27000000000001
 31
0.0
  0
LINE
  5
4508
  8
250
  6
CONTINUOUS
 10
5.7300000000000004
 20
34.62833333333333
 30
0.0
 11
3.5
 21
35.0
 31
0.0
  0
LINE
  5
4509
  8
250
  6
CONTINUOUS
 10
5.7300000000000004
 20
35.37166666666667
 30
0.0
 11
3.5
 21
35.0
 31
0.0
  0
LINE
  5
450A
  8
250
  6
CONTINUOUS
 10
3.5
 20
35.0
 30
0.0
 11
5.7300000000000004
 21
35.0
 31
0.0
  0
LINE
  5
450B
  8
250
  6
CONTINUOUS
 10
-2.2299999999999991
 20
35.37166666666667
 30
0.0
 11
0.0000000000000011
 21
35.0
 31
0.0
  0
LINE
  5
450C
  8
250
  6
CONTINUOUS
 10
-2.2299999999999991
 20
34.62833333333333
 30
0.0
 11
0.0000000000000011
 21
35.0
 31
0.0
  0
LINE
  5
450D
  8
250
  6
CONTINUOUS
 10
0.0000000000000011
 20
35.0
 30
0.0
 11
-2.2299999999999991
 21
35.0
 31
0.0
  0
TEXT
  5
450E
  8
250
  6
CONTINUOUS
 10
4.6310932266972404
 20
36.492019386217038
 30
0.0
 40
2.799999999999998
  1
3.5
  0
TEXT
  5
450F
  8
250
  6
CONTINUOUS
 10
-40.166666666666643
 20
36.0
 30
0.0
 40
2.799999999999998
  1
75
  0
LINE
  5
4510
  8
250
  6
CONTINUOUS
 10
-2.2299999999999991
 20
35.37166666666667
 30
0.0
 11
0.0000000000000011
 21
35.0
 31
0.0
  0
LINE
  5
4511
  8
250
  6
CONTINUOUS
 10
-2.2299999999999991
 20
34.62833333333333
 30
0.0
 11
0.0000000000000011
 21
35.0
 31
0.0
  0
LINE
  5
4512
  8
250
  6
CONTINUOUS
 10
0.0000000000000011
 20
35.0
 30
0.0
 11
-2.2299999999999991
 21
35.0
 31
0.0
  0
LINE
  5
4513
  8
250
  6
CONTINUOUS
 10
-72.769999999999982
 20
34.62833333333333
 30
0.0
 11
-75.0
 21
35.0
 31
0.0
  0
LINE
  5
4514
  8
250
  6
CONTINUOUS
 10
-72.769999999999982
 20
35.37166666666667
 30
0.0
 11
-75.0
 21
35.0
 31
0.0
  0
LINE
  5
4515
  8
250
  6
CONTINUOUS
 10
-75.0
 20
35.0
 30
0.0
 11
-72.769999999999982
 21
35.0
 31
0.0
  0
TEXT
  5
4516
  8
250
  6
CONTINUOUS
 10
-40.416666666666657
 20
43.0
 30
0.0
 40
2.799999999999998
  1
78.5
  0
LINE
  5
4517
  8
250
  6
CONTINUOUS
 10
1.27
 20
42.371666666666663
 30
0.0
 11
3.5
 21
42.0
 31
0.0
  0
LINE
  5
4518
  8
250
  6
CONTINUOUS
 10
1.27
 20
41.62833333333333
 30
0.0
 11
3.5
 21
42.0
 31
0.0
  0
LINE
  5
4519
  8
250
  6
CONTINUOUS
 10
3.5
 20
42.0
 30
0.0
 11
1.27
 21
42.0
 31
0.0
  0
LINE
  5
451A
  8
250
  6
CONTINUOUS
 10
-72.769999999999982
 20
41.62833333333333
 30
0.0
 11
-75.0
 21
42.0
 31
0.0
  0
LINE
  5
451B
  8
250
  6
CONTINUOUS
 10
-72.769999999999982
 20
42.371666666666663
 30
0.0
 11
-75.0
 21
42.0
 31
0.0
  0
LINE
  5
451C
  8
250
  6
CONTINUOUS
 10
-75.0
 20
42.0
 30
0.0
 11
-72.769999999999982
 21
42.0
 31
0.0
  0
TEXT
  5
451D
  8
250
  6
CONTINUOUS
 10
-85.0
 20
-3.9333333333333269
 30
0.0
 40
2.799999999999998
  1
\U+220532
 50
90.0
  0
LINE
  5
451E
  8
250
  6
CONTINUOUS
 10
-83.628333333333316
 20
-13.76999999999998
 30
0.0
 11
-83.999999999999986
 21
-15.99999999999998
 31
0.0
  0
LINE
  5
451F
  8
250
  6
CONTINUOUS
 10
-84.371666666666655
 20
-13.76999999999998
 30
0.0
 11
-83.999999999999986
 21
-15.99999999999998
 31
0.0
  0
LINE
  5
4520
  8
250
  6
CONTINUOUS
 10
-83.999999999999986
 20
-15.99999999999998
 30
0.0
 11
-83.999999999999986
 21
-13.76999999999998
 31
0.0
  0
LINE
  5
4521
  8
250
  6
CONTINUOUS
 10
-84.371666666666655
 20
13.770000000000019
 30
0.0
 11
-83.999999999999986
 21
16.000000000000021
 31
0.0
  0
LINE
  5
4522
  8
250
  6
CONTINUOUS
 10
-83.628333333333316
 20
13.770000000000019
 30
0.0
 11
-83.999999999999986
 21
16.000000000000021
 31
0.0
  0
LINE
  5
4523
  8
250
  6
CONTINUOUS
 10
-83.999999999999986
 20
16.000000000000021
 30
0.0
 11
-83.999999999999986
 21
13.770000000000019
 31
0.0
  0
VIEWPORT
  5
22
 67
     1
  8
0
 10
261.51769911504419
 20
148.5
 30
0.0
 40
523.0353982300885
 41
297.0
 68
     1
 69
     1
1001
ACAD
1000
MVIEW
1002
{
1070
    16
1010
0.0
1020
0.0
1030
0.0
1010
0.0
1020
0.0
1030
1.0
1040
0.0
1040
297.0
1040
261.51769911504419
1040
148.5
1040
50.0
1040
0.0
1040
0.0
1070
     0
1070
   100
1070
     1
1070
     1
1070
     0
1070
     0
1070
     0
1070
     0
1040
0.0
1040
0.0
1040
0.0
1040
1.0
1040
1.0
1040
10.0
1040
10.0
1070
     0
1002
{
1002
}
1002
}
1001
GENIUS_GENODEF_13
1002
{
1000
HIER
1070
     0
1002
}
1002
{
1000
MANEDIT
1070
     0
1002
}
1002
{
1000
NOSEL
1070
     0
1002
}
1002
{
1000
BEHIND
1070
     0
1002
}
1002
{
1000
OTHER
1070
     0
1002
}
1002
{
1000
REACTOR
1002
}
1001
GENIUS_GENOBJ-N-SDF_13
1002
{
1000
OWNER
1000
GEN
1002
}
1001
GENIUS_GENSCREG_15
1000
PF
1040
1.0
1000
DF
1040
1.0
1000
MIN
1011
0.0
1021
0.0
1031
0.0
1021
0.0
1031
0.0
1000
MAX
1011
523.0353982300885
1021
0.0
1031
0.0
1021
297.0
1031
0.0
1000
FLAGS
1070
     4
  0
ENDSEC
  0
EOF
