  0
SECTION
  2
HEADER
  9
$ACADVER
  1
AC1009
  9
$INSBASE
 10
0.0
 20
0.0
 30
0.0
  9
$EXTMIN
 10
-80.800000000000011
 20
-15.000000000000011
 30
0.0
  9
$EXTMAX
 10
22.000000000000011
 20
54.000000000000007
 30
0.0
  9
$LIMMIN
 10
0.0
 20
0.0
  9
$LIMMAX
 10
297.0
 20
210.0
  9
$ORTHOMODE
 70
     0
  9
$REGENMODE
 70
     1
  9
$FILLMODE
 70
     1
  9
$QTEXTMODE
 70
     0
  9
$MIRRTEXT
 70
     1
  9
$DRAGMODE
 70
     2
  9
$LTSCALE
 40
10.0
  9
$OSMODE
 70
  2799
  9
$ATTMODE
 70
     1
  9
$TEXTSIZE
 40
3.0
  9
$TRACEWID
 40
1.0
  9
$TEXTSTYLE
  7
YOKO
  9
$CLAYER
  8
240
  9
$CELTYPE
  6
BYLAYER
  9
$CECOLOR
 62
   256
  9
$DIMSCALE
 40
1.0
  9
$DIMASZ
 40
2.2299999999999991
  9
$DIMEXO
 40
0.5
  9
$DIMDLI
 40
7.0
  9
$DIMRND
 40
0.0
  9
$DIMDLE
 40
0.0
  9
$DIMEXE
 40
1.0
  9
$DIMTP
 40
0.0
  9
$DIMTM
 40
0.01
  9
$DIMTXT
 40
2.7999999999999989
  9
$DIMCEN
 40
0.0
  9
$DIMTSZ
 40
0.0
  9
$DIMTOL
 70
     0
  9
$DIMLIM
 70
     0
  9
$DIMTIH
 70
     0
  9
$DIMTOH
 70
     0
  9
$DIMSE1
 70
     0
  9
$DIMSE2
 70
     0
  9
$DIMTAD
 70
     3
  9
$DIMZIN
 70
     9
  9
$DIMBLK
  1
OPEN
  9
$DIMASO
 70
     1
  9
$DIMSHO
 70
     1
  9
$DIMPOST
  1

  9
$DIMAPOST
  1

  9
$DIMALT
 70
     0
  9
$DIMALTD
 70
     2
  9
$DIMALTF
 40
25.399999999999999
  9
$DIMLFAC
 40
1.0
  9
$DIMTOFL
 70
     1
  9
$DIMTVP
 40
0.0
  9
$DIMTIX
 70
     1
  9
$DIMSOXD
 70
     0
  9
$DIMSAH
 70
     0
  9
$DIMBLK1
  1

  9
$DIMBLK2
  1

  9
$DIMSTYLE
  2
BIGT
  9
$DIMCLRD
 70
   256
  9
$DIMCLRE
 70
   256
  9
$DIMCLRT
 70
    40
  9
$DIMTFAC
 40
1.0
  9
$DIMGAP
 40
1.0
  9
$LUNITS
 70
     2
  9
$LUPREC
 70
     3
  9
$SKETCHINC
 40
1.0
  9
$FILLETRAD
 40
1.0
  9
$AUNITS
 70
     0
  9
$AUPREC
 70
     3
  9
$MENU
  1
.
  9
$ELEVATION
 40
0.0
  9
$PELEVATION
 40
0.0
  9
$THICKNESS
 40
0.0
  9
$LIMCHECK
 70
     0
  9
$BLIPMODE
 70
     0
  9
$CHAMFERA
 40
0.5
  9
$CHAMFERB
 40
0.5
  9
$SKPOLY
 70
     0
  9
$TDCREATE
 40
2454784.3614950348
  9
$TDUPDATE
 40
2454784.4373019682
  9
$TDINDWG
 40
0.065176875
  9
$TDUSRTIMER
 40
0.065176875
  9
$USRTIMER
 70
     1
  9
$ANGBASE
 50
0.0
  9
$ANGDIR
 70
     0
  9
$PDMODE
 70
     1
  9
$PDSIZE
 40
0.0
  9
$PLINEWID
 40
0.0
  9
$COORDS
 70
     0
  9
$SPLFRAME
 70
     0
  9
$SPLINETYPE
 70
     6
  9
$SPLINESEGS
 70
     4
  9
$ATTDIA
 70
     1
  9
$ATTREQ
 70
     1
  9
$HANDLING
 70
     1
  9
$HANDSEED
  5
1831
  9
$SURFTAB1
 70
     6
  9
$SURFTAB2
 70
     6
  9
$SURFTYPE
 70
     6
  9
$SURFU
 70
     6
  9
$SURFV
 70
     6
  9
$UCSNAME
  2

  9
$UCSORG
 10
0.0
 20
0.0
 30
0.0
  9
$UCSXDIR
 10
1.0
 20
0.0
 30
0.0
  9
$UCSYDIR
 10
0.0
 20
1.0
 30
0.0
  9
$PUCSNAME
  2

  9
$PUCSORG
 10
0.0
 20
0.0
 30
0.0
  9
$PUCSXDIR
 10
1.0
 20
0.0
 30
0.0
  9
$PUCSYDIR
 10
0.0
 20
1.0
 30
0.0
  9
$USERI1
 70
     1
  9
$USERI2
 70
     0
  9
$USERI3
 70
     0
  9
$USERI4
 70
     0
  9
$USERI5
 70
     0
  9
$USERR1
 40
0.0
  9
$USERR2
 40
0.0
  9
$USERR3
 40
0.0
  9
$USERR4
 40
0.0
  9
$USERR5
 40
0.0
  9
$WORLDVIEW
 70
     1
  9
$SHADEDGE
 70
     3
  9
$SHADEDIF
 70
    70
  9
$TILEMODE
 70
     1
  9
$MAXACTVP
 70
    16
  9
$PLIMCHECK
 70
     0
  9
$PEXTMIN
 10
1.0000000000000000E+020
 20
1.0000000000000000E+020
 30
1.0000000000000000E+020
  9
$PEXTMAX
 10
-1.0000000000000000E+020
 20
-1.0000000000000000E+020
 30
-1.0000000000000000E+020
  9
$PLIMMIN
 10
0.0
 20
0.0
  9
$PLIMMAX
 10
420.0
 20
297.0
  9
$UNITMODE
 70
     0
  9
$VISRETAIN
 70
     1
  9
$PLINEGEN
 70
     0
  9
$PSLTSCALE
 70
     1
  0
ENDSEC
  0
SECTION
  2
TABLES
  0
TABLE
  2
VPORT
 70
     3
  0
VPORT
  2
*ACTIVE
 70
     0
 10
0.0
 20
0.0
 11
1.0
 21
1.0
 12
-29.401255173395221
 22
19.50332884315603
 13
0.0
 23
0.0
 14
7.0
 24
7.0
 15
7.0
 25
7.0
 16
0.0
 26
0.0
 36
1.0
 17
0.0
 27
0.0
 37
0.0
 40
69.446344162447332
 41
1.5487804878048781
 42
50.0
 43
0.0
 44
0.0
 50
0.0
 51
0.0
 71
     0
 72
  2000
 73
     1
 74
     0
 75
     0
 76
     1
 77
     0
 78
     0
  0
ENDTAB
  0
TABLE
  2
LTYPE
 70
    13
  0
LTYPE
  2
CONTINUOUS
 70
     0
  3
Solid line
 72
    65
 73
     0
 40
0.0
  0
LTYPE
  2
CENTER2
 70
     0
  3
___ _ ___ _ ___ _ ___ _ ___ _ ___ _ ___ _ ___ _
 72
    65
 73
     4
 40
1.125
 49
0.75
 49
-0.125
 49
0.125
 49
-0.125
  0
LTYPE
  2
HIDDEN2
 70
     0
  3
_ _ _ _ _ _ _ _ _ _ _ _ _ _ _ _ _ _ _ _ _ _ _ _
 72
    65
 73
     2
 40
0.1875
 49
0.125
 49
-0.0625
  0
LTYPE
  2
PHANTOM2
 70
     0
  3
___ _ _ ___ _ _ ___ _ _ ___ _ _ ___ _ _ ___ _ _
 72
    65
 73
     6
 40
1.25
 49
0.625
 49
-0.125
 49
0.125
 49
-0.125
 49
0.125
 49
-0.125
  0
LTYPE
  2
CENTER
 70
     0
  3
____ _ ____ _ ____ _ ____ _ ____ _ ____ _ ____ 
 72
    65
 73
     4
 40
2.0
 49
1.25
 49
-0.25
 49
0.25
 49
-0.25
  0
LTYPE
  2
AM_ISO02W050
 70
     0
  3
__ __ __ __ __ __ __ __ __ __ __ __ __ __ __
 72
    65
 73
     2
 40
7.5
 49
6.0
 49
-1.5
  0
LTYPE
  2
AMCONSTR
 70
     0
  3
_______________________
 72
    65
 73
     2
 40
9999.0
 49
9999.0
 49
0.0
  0
LTYPE
  2
ACISOWELD
 70
     0
  3
_ _ _ _ _
 72
    65
 73
     2
 40
2.0
 49
2.0
 49
-1.0
  0
LTYPE
  2
ACISOTGB
 70
     0
  3
__ . . __ . .
 72
    65
 73
     6
 40
9.0
 49
4.0
 49
-1.0
 49
1.0
 49
-1.0
 49
1.0
 49
-1.0
  0
LTYPE
  2
ACISOTGL
 70
     0
  3
_ _ _ _ _
 72
    65
 73
     2
 40
3.0
 49
2.0
 49
-1.0
  0
LTYPE
  2
ACJISTGB
 70
     0
  3
__ . . __ . .
 72
    65
 73
     6
 40
9.0
 49
4.0
 49
-1.0
 49
1.0
 49
-1.0
 49
1.0
 49
-1.0
  0
LTYPE
  2
ACJISTGL
 70
     0
  3
_ _ _ _ _
 72
    65
 73
     2
 40
3.0
 49
2.0
 49
-1.0
  0
LTYPE
  2
HIDDEN
 70
     0
  3
Hidden __ __ __ __ __ __ __ __ __ __ __ __ __ _
 72
    65
 73
     2
 40
9.5249999999999986
 49
6.3499999999999988
 49
-3.1749999999999989
  0
ENDTAB
  0
TABLE
  2
LAYER
 70
     7
  0
LAYER
  2
0
 70
     0
 62
     7
  6
CONTINUOUS
  0
LAYER
  2
DEFPOINTS
 70
     0
 62
     7
  6
CONTINUOUS
  0
LAYER
  2
245
 70
     0
 62
     2
  6
CENTER2
  0
LAYER
  2
240
 70
     0
 62
     4
  6
CONTINUOUS
  0
LAYER
  2
241
 70
     0
 62
   211
  6
CONTINUOUS
  0
LAYER
  2
246
 70
     0
 62
     3
  6
PHANTOM2
  0
LAYER
  2
250
 70
     0
 62
     3
  6
CONTINUOUS
  0
ENDTAB
  0
TABLE
  2
STYLE
 70
     6
  0
STYLE
  2
STANDARD
 70
     0
 40
0.0
 41
1.0
 50
0.0
 71
     0
 42
3.0
  3
romans.shx
  4
extfont.shx
  0
STYLE
  2
ACISOTS
 70
     0
 40
1.0
 41
1.0
 50
0.0
 71
     0
 42
3.0
  3
amgdt.shx
  4
extfont.shx
  0
STYLE
  2
ACISOGDT
 70
     0
 40
0.0
 41
1.0
 50
0.0
 71
     0
 42
3.0
  3
amgdt.shx
  4
extfont.shx
  0
STYLE
  2
ACJISTS
 70
     0
 40
1.0
 41
1.0
 50
0.0
 71
     0
 42
3.0
  3
amgdt.shx
  4
extfont.shx
  0
STYLE
  2
ACJISGDT
 70
     0
 40
0.0
 41
1.0
 50
0.0
 71
     0
 42
3.0
  3
amgdt.shx
  4
extfont.shx
  0
STYLE
  2
YOKO
 70
     0
 40
0.0
 41
1.0
 50
0.0
 71
     0
 42
3.0
  3
romans.shx
  4
extfont.shx
  0
ENDTAB
  0
TABLE
  2
VIEW
 70
     0
  0
ENDTAB
  0
TABLE
  2
UCS
 70
     0
  0
ENDTAB
  0
TABLE
  2
APPID
 70
    30
  0
APPID
  2
ACAD
 70
     0
  0
APPID
  2
GLOBAL
 70
     0
  0
APPID
  2
DETAIL
 70
     0
  0
APPID
  2
GRPNAME
 70
     0
  0
APPID
  2
GPARA
 70
     0
  0
APPID
  2
MCAD_NO_VIS
 70
     0
  0
APPID
  2
ACAD_TEMP_GRAPHIC
 70
     0
  0
APPID
  2
ACATTRIBSERVICES
 70
     0
  0
APPID
  2
GENIUS_GENSCREG_15
 70
     0
  0
APPID
  2
GENIUS_GENODEF_13
 70
     0
  0
APPID
  2
GENIUS_GENOBJ-N-SDF_13
 70
     0
  0
APPID
  2
GENIUS_GENREC_14
 70
     0
  0
APPID
  2
GENIUS_GENOBJ-N-REC_13
 70
     0
  0
APPID
  2
GENIUS_GENDIMSH_14
 70
     0
  0
APPID
  2
GENIUS_GENOBJ-N-DIM_13
 70
     0
  0
APPID
  2
GENIUS_GENDIM_13
 70
     0
  0
APPID
  2
GENIUS_GENDTOL_13
 70
     0
  0
APPID
  2
GENIUS_GENOLIS_13
 70
     0
  0
APPID
  2
GENIUS_GENOENT_13
 70
     0
  0
APPID
  2
GENIUS_GENOBJ-F-FEM_13
 70
     0
  0
APPID
  2
GENIUS_GENOREF_13
 70
     0
  0
APPID
  2
GENIUS_GEFFEM_13
 70
     0
  0
APPID
  2
GENIUS_GEFFEMP_13
 70
     0
  0
APPID
  2
AD_DRAW
 70
     0
  0
APPID
  2
DESIGNERASSEMBLIES
 70
     0
  0
APPID
  2
ACADM_DIM_EDIT
 70
     0
  0
APPID
  2
AMDT_DM_ADJ
 70
     0
  0
APPID
  2
GENIUS_GENFIL_13
 70
     0
  0
APPID
  2
GENIUS_GENOBJ-N-CHA_13
 70
     0
  0
APPID
  2
GENIUS_GENOBJ-N-FIL_13
 70
     0
  0
ENDTAB
  0
TABLE
  2
DIMSTYLE
 70
    23
  0
DIMSTYLE
  2
BIGT
 70
     0
  3

  4

  5
OPEN
  6

  7

 40
1.0
 41
2.2299999999999991
 42
0.5
 43
7.0
 44
1.0
 45
0.0
 46
0.0
 47
0.0
 48
0.01
140
2.7999999999999989
141
0.0
142
0.0
143
25.399999999999999
144
1.0
145
0.0
146
1.0
147
1.0
 71
     0
 72
     0
 73
     0
 74
     0
 75
     0
 76
     0
 77
     3
 78
     9
170
     0
171
     2
172
     1
173
     0
174
     1
175
     0
176
   256
177
   256
178
    40
  0
DIMSTYLE
  2
AM_ISO
 70
     0
  3

  4
"
  5

  6

  7

 40
1.0
 41
2.5
 42
1.0
 43
10.0
 44
1.0
 45
0.0
 46
0.0
 47
0.1
 48
0.1
140
3.5
141
0.0
142
0.0
143
0.0393701
144
1.0
145
0.0
146
0.71
147
1.5
 71
     0
 72
     0
 73
     0
 74
     0
 75
     0
 76
     0
 77
     1
 78
     8
170
     0
171
     2
172
     1
173
     0
174
     0
175
     0
176
   256
177
   256
178
     2
  0
DIMSTYLE
  2
AM_ISO$3
 70
     0
  3

  4
"
  5

  6

  7

 40
1.0
 41
2.5
 42
1.0
 43
10.0
 44
1.0
 45
0.0
 46
0.0
 47
0.1
 48
0.1
140
3.5
141
0.0
142
0.0
143
0.0393701
144
1.0
145
0.0
146
0.71
147
1.5
 71
     0
 72
     0
 73
     0
 74
     1
 75
     0
 76
     0
 77
     1
 78
     8
170
     0
171
     2
172
     0
173
     0
174
     0
175
     0
176
   256
177
   256
178
     2
  0
DIMSTYLE
  2
AM_ISO$4
 70
     0
  3

  4
"
  5

  6

  7

 40
1.0
 41
2.5
 42
1.0
 43
10.0
 44
1.0
 45
0.0
 46
0.0
 47
0.1
 48
0.1
140
3.5
141
0.0
142
0.0
143
0.0393701
144
1.0
145
0.0
146
0.71
147
1.5
 71
     0
 72
     0
 73
     0
 74
     1
 75
     0
 76
     0
 77
     1
 78
     8
170
     0
171
     2
172
     0
173
     0
174
     0
175
     0
176
   256
177
   256
178
     2
  0
DIMSTYLE
  2
AM_ISO$6
 70
     0
  3

  4
"
  5

  6

  7

 40
1.0
 41
2.5
 42
1.0
 43
10.0
 44
1.0
 45
0.0
 46
0.0
 47
0.1
 48
0.1
140
3.5
141
0.0
142
0.0
143
0.0393701
144
1.0
145
0.0
146
0.71
147
1.5
 71
     0
 72
     0
 73
     0
 74
     0
 75
     0
 76
     0
 77
     0
 78
     8
170
     0
171
     2
172
     1
173
     0
174
     0
175
     0
176
   256
177
   256
178
     2
  0
DIMSTYLE
  2
AM_ISO$7
 70
     0
  3

  4
"
  5

  6

  7

 40
1.0
 41
2.5
 42
1.0
 43
10.0
 44
1.0
 45
0.0
 46
0.0
 47
0.1
 48
0.1
140
5.0
141
0.0
142
0.0
143
0.0393701
144
1.0
145
0.0
146
0.71
147
1.5
 71
     0
 72
     0
 73
     0
 74
     0
 75
     0
 76
     0
 77
     1
 78
     8
170
     0
171
     2
172
     1
173
     0
174
     0
175
     0
176
   256
177
   256
178
     2
  0
DIMSTYLE
  2
AM_ISO$SF
 70
     0
  3

  4
"
  5

  6

  7

 40
1.0
 41
2.5
 42
1.0
 43
10.0
 44
1.0
 45
0.0
 46
0.0
 47
0.1
 48
0.1
140
3.5
141
0.0
142
0.0
143
0.0393701
144
1.0
145
0.0
146
0.71
147
1.5
 71
     0
 72
     0
 73
     0
 74
     0
 75
     1
 76
     1
 77
     1
 78
     8
170
     0
171
     2
172
     1
173
     0
174
     0
175
     0
176
   256
177
   256
178
     2
  0
DIMSTYLE
  2
AM_ISO$SH
 70
     0
  3

  4
"
  5

  6
GENAXEH
  7

 40
1.0
 41
2.5
 42
1.0
 43
10.0
 44
1.0
 45
0.0
 46
0.0
 47
0.1
 48
0.1
140
3.5
141
0.0
142
0.0
143
0.0393701
144
2.0
145
0.0
146
0.71
147
1.5
 71
     0
 72
     0
 73
     0
 74
     0
 75
     1
 76
     1
 77
     1
 78
     8
170
     0
171
     2
172
     1
173
     1
174
     0
175
     0
176
   256
177
   256
178
     2
  0
DIMSTYLE
  2
BIGT$2
 70
     0
  3

  4

  5
OPEN
  6

  7

 40
1.0
 41
2.2299999999999991
 42
0.5
 43
7.0
 44
1.0
 45
0.0
 46
0.0
 47
0.0
 48
0.01
140
2.7999999999999989
141
0.0
142
0.0
143
25.399999999999999
144
1.0
145
0.0
146
1.0
147
1.0
 71
     0
 72
     0
 73
     0
 74
     0
 75
     0
 76
     0
 77
     3
 78
     9
170
     0
171
     2
172
     1
173
     0
174
     0
175
     0
176
   256
177
   256
178
    40
  0
DIMSTYLE
  2
BIGT$3
 70
     0
  3

  4

  5
OPEN
  6

  7

 40
1.0
 41
2.2299999999999991
 42
0.5
 43
2.5
 44
1.0
 45
0.0
 46
0.0
 47
0.0
 48
0.01
140
2.7999999999999989
141
0.0
142
0.0
143
25.399999999999999
144
1.0
145
0.0
146
1.0
147
1.0
 71
     0
 72
     0
 73
     0
 74
     0
 75
     0
 76
     0
 77
     3
 78
     9
170
     0
171
     2
172
     1
173
     0
174
     0
175
     0
176
   256
177
   256
178
    40
  0
DIMSTYLE
  2
BIGT$7
 70
     0
  3

  4

  5
OPEN
  6

  7

 40
0.0
 41
2.2299999999999991
 42
0.5
 43
7.0
 44
1.0
 45
0.0
 46
0.0
 47
0.0
 48
0.01
140
2.7999999999999989
141
0.0
142
0.0
143
25.399999999999999
144
1.0
145
0.0
146
1.0
147
1.0
 71
     0
 72
     0
 73
     0
 74
     0
 75
     0
 76
     0
 77
     3
 78
     9
170
     0
171
     2
172
     0
173
     0
174
     0
175
     0
176
   256
177
   256
178
    40
  0
DIMSTYLE
  2
BIGT$6
 70
     0
  3

  4

  5
OPEN
  6

  7

 40
1.0
 41
2.2299999999999991
 42
0.5
 43
2.5
 44
1.0
 45
0.0
 46
0.0
 47
0.0
 48
0.01
140
2.7999999999999989
141
0.0
142
0.0
143
25.399999999999999
144
1.0
145
0.0
146
1.0
147
1.0
 71
     0
 72
     0
 73
     0
 74
     0
 75
     0
 76
     0
 77
     3
 78
     9
170
     0
171
     2
172
     1
173
     0
174
     0
175
     0
176
   256
177
   256
178
    40
  0
DIMSTYLE
  2
BIGT$0
 70
     0
  3

  4

  5
OPEN
  6

  7

 40
1.0
 41
2.2299999999999991
 42
0.5
 43
7.0
 44
1.0
 45
0.0
 46
0.0
 47
0.0
 48
0.01
140
2.7999999999999989
141
0.0
142
0.0
143
25.399999999999999
144
1.0
145
0.0
146
1.0
147
1.0
 71
     0
 72
     0
 73
     0
 74
     0
 75
     0
 76
     0
 77
     3
 78
     9
170
     0
171
     2
172
     1
173
     0
174
     0
175
     0
176
   256
177
   256
178
    40
  0
DIMSTYLE
  2
BIGT$4
 70
     0
  3

  4

  5
OPEN
  6

  7

 40
1.0
 41
2.2299999999999991
 42
0.5
 43
2.5
 44
1.0
 45
0.0
 46
0.0
 47
0.0
 48
0.01
140
2.7999999999999989
141
0.0
142
0.0
143
25.399999999999999
144
1.0
145
0.0
146
1.0
147
1.0
 71
     0
 72
     0
 73
     0
 74
     0
 75
     0
 76
     0
 77
     3
 78
     9
170
     0
171
     2
172
     1
173
     0
174
     0
175
     0
176
   256
177
   256
178
    40
  0
DIMSTYLE
  2
BIGT$SH
 70
     0
  3

  4

  5
OPEN
  6

  7

 40
1.0
 41
2.2299999999999991
 42
0.5
 43
7.0
 44
1.0
 45
0.0
 46
0.0
 47
0.0
 48
0.0
140
2.7999999999999989
141
0.0
142
0.0
143
25.399999999999999
144
1.0
145
0.0
146
1.0
147
1.0
 71
     0
 72
     0
 73
     0
 74
     0
 75
     0
 76
     0
 77
     3
 78
     9
170
     0
171
     2
172
     1
173
     0
174
     0
175
     0
176
   256
177
   256
178
    40
  0
DIMSTYLE
  2
BIGT$SF
 70
     0
  3

  4

  5
OPEN
  6

  7

 40
1.0
 41
2.2299999999999991
 42
0.5
 43
7.0
 44
1.0
 45
0.0
 46
0.0
 47
0.0
 48
0.0
140
2.7999999999999989
141
0.0
142
0.0
143
25.399999999999999
144
1.0
145
0.0
146
1.0
147
1.0
 71
     0
 72
     0
 73
     0
 74
     0
 75
     0
 76
     0
 77
     3
 78
     9
170
     0
171
     2
172
     1
173
     0
174
     0
175
     0
176
   256
177
   256
178
    40
  0
DIMSTYLE
  2
TECHNICAL_OSAKA
 70
     0
  3

  4
"
  5
OPEN30
  6

  7

 40
1.0
 41
2.5
 42
1.0
 43
10.0
 44
1.0
 45
0.0
 46
0.0
 47
0.1
 48
0.1
140
2.7999999999999989
141
0.0
142
0.0
143
0.0393701
144
1.0
145
0.0
146
0.71
147
1.5
 71
     0
 72
     0
 73
     0
 74
     0
 75
     0
 76
     0
 77
     3
 78
     8
170
     0
171
     2
172
     1
173
     0
174
     0
175
     0
176
   256
177
   256
178
    40
  0
DIMSTYLE
  2
TECHNICAL_OSAKA$3
 70
     0
  3

  4
"
  5
OPEN30
  6

  7

 40
1.0
 41
2.5
 42
1.0
 43
10.0
 44
1.0
 45
0.0
 46
0.0
 47
0.1
 48
0.1
140
2.7999999999999989
141
0.0
142
0.0
143
0.0393701
144
1.0
145
0.0
146
0.71
147
1.5
 71
     0
 72
     0
 73
     0
 74
     1
 75
     0
 76
     0
 77
     3
 78
     8
170
     0
171
     2
172
     0
173
     0
174
     0
175
     0
176
   256
177
   256
178
    40
  0
DIMSTYLE
  2
TECHNICAL_OSAKA$4
 70
     0
  3

  4
"
  5
OPEN30
  6

  7

 40
1.0
 41
2.5
 42
1.0
 43
10.0
 44
1.0
 45
0.0
 46
0.0
 47
0.1
 48
0.1
140
2.7999999999999989
141
0.0
142
0.0
143
0.0393701
144
1.0
145
0.0
146
0.71
147
1.5
 71
     0
 72
     0
 73
     0
 74
     1
 75
     0
 76
     0
 77
     3
 78
     8
170
     0
171
     2
172
     0
173
     0
174
     0
175
     0
176
   256
177
   256
178
    40
  0
DIMSTYLE
  2
TECHNICAL_OSAKA$6
 70
     0
  3

  4
"
  5
OPEN30
  6

  7

 40
1.0
 41
2.5
 42
1.0
 43
10.0
 44
1.0
 45
0.0
 46
0.0
 47
0.1
 48
0.1
140
2.7999999999999989
141
0.0
142
0.0
143
0.0393701
144
1.0
145
0.0
146
0.71
147
1.5
 71
     0
 72
     0
 73
     0
 74
     0
 75
     0
 76
     0
 77
     0
 78
     8
170
     0
171
     2
172
     1
173
     0
174
     0
175
     0
176
   256
177
   256
178
    40
  0
DIMSTYLE
  2
TECHNICAL_OSAKA$7
 70
     0
  3

  4
"
  5
OPEN30
  6

  7

 40
1.0
 41
2.5
 42
1.0
 43
10.0
 44
1.0
 45
0.0
 46
0.0
 47
0.1
 48
0.1
140
2.7999999999999989
141
0.0
142
0.0
143
0.0393701
144
1.0
145
0.0
146
0.71
147
1.5
 71
     0
 72
     0
 73
     0
 74
     0
 75
     0
 76
     0
 77
     3
 78
     8
170
     0
171
     2
172
     1
173
     0
174
     0
175
     0
176
   256
177
   256
178
    40
  0
DIMSTYLE
  2
TECHNICAL_OSAKA$SF
 70
     0
  3

  4
"
  5
OPEN30
  6
OPEN30
  7
OPEN30
 40
1.0
 41
2.5
 42
1.0
 43
10.0
 44
1.0
 45
0.0
 46
0.0
 47
0.1
 48
0.1
140
3.5
141
0.0
142
0.0
143
0.0393701
144
1.0
145
0.0
146
0.71
147
1.5
 71
     0
 72
     0
 73
     0
 74
     0
 75
     1
 76
     1
 77
     3
 78
     8
170
     0
171
     2
172
     1
173
     0
174
     0
175
     0
176
   256
177
   256
178
    40
  0
DIMSTYLE
  2
TECHNICAL_OSAKA$SH
 70
     0
  3

  4
"
  5
OPEN30
  6
GENAXEH
  7
OPEN30
 40
1.0
 41
2.5
 42
1.0
 43
10.0
 44
1.0
 45
0.0
 46
0.0
 47
0.1
 48
0.1
140
3.5
141
0.0
142
0.0
143
0.0393701
144
2.0
145
0.0
146
0.71
147
1.5
 71
     0
 72
     0
 73
     0
 74
     0
 75
     1
 76
     1
 77
     3
 78
     8
170
     0
171
     2
172
     1
173
     1
174
     0
175
     0
176
   256
177
   256
178
    40
  0
ENDTAB
  0
ENDSEC
  0
SECTION
  2
BLOCKS
  0
BLOCK
  8
0
  2
$MODEL_SPACE
 70
     0
 10
0.0
 20
0.0
 30
0.0
  3
$MODEL_SPACE
  1

  0
ENDBLK
  5
1C
  8
0
  0
BLOCK
 67
     1
  8
0
  2
$PAPER_SPACE
 70
     0
 10
0.0
 20
0.0
 30
0.0
  3
$PAPER_SPACE
  1

  0
ENDBLK
  5
19
 67
     1
  8
0
  0
BLOCK
  8
0
  2
_OPEN
 70
     0
 10
0.0
 20
0.0
 30
0.0
  3
_OPEN
  1

  0
LINE
  5
17C7
  8
0
  6
BYBLOCK
 62
     0
 10
-1.0
 20
0.1666666666666666
 30
0.0
 11
0.0
 21
0.0
 31
0.0
  0
LINE
  5
17C8
  8
0
  6
BYBLOCK
 62
     0
 10
-1.0
 20
-0.1666666666666666
 30
0.0
 11
0.0
 21
0.0
 31
0.0
  0
LINE
  5
17C9
  8
0
  6
BYBLOCK
 62
     0
 10
0.0
 20
0.0
 30
0.0
 11
-1.0
 21
0.0
 31
0.0
  0
ENDBLK
  5
17CA
  8
0
  0
BLOCK
  8
0
  2
GENAXEH
 70
     0
 10
0.0
 20
0.0
 30
0.0
  3
GENAXEH
  1

  0
LINE
  5
17F2
  8
0
 10
-1.0
 20
0.0
 30
0.0
 11
1.0
 21
0.0
 31
0.0
  0
ENDBLK
  5
17F3
  8
0
  0
BLOCK
  8
0
  2
_OPEN30
 70
     0
 10
0.0
 20
0.0
 30
0.0
  3
_OPEN30
  1

  0
LINE
  5
1817
  8
0
  6
BYBLOCK
 62
     0
 10
-1.0
 20
0.26794919
 30
0.0
 11
0.0
 21
0.0
 31
0.0
  0
LINE
  5
1818
  8
0
  6
BYBLOCK
 62
     0
 10
0.0
 20
0.0
 30
0.0
 11
-1.0
 21
-0.26794919
 31
0.0
  0
LINE
  5
1819
  8
0
  6
BYBLOCK
 62
     0
 10
0.0
 20
0.0
 30
0.0
 11
-1.0
 21
0.0
 31
0.0
  0
ENDBLK
  5
181A
  8
0
  0
BLOCK
  8
0
  2
A$C418317E8
 70
     0
 10
0.0
 20
0.0
 30
0.0
  3
A$C418317E8
  1

  0
LINE
  5
160F
  8
246
 10
4.4999999999999991
 20
-10.0
 30
0.0
 11
-58.0
 21
-10.0
 31
0.0
  0
LINE
  5
1610
  8
246
 10
4.5
 20
10.0
 30
0.0
 11
-58.0
 21
10.0
 31
0.0
  0
LINE
  5
1611
  8
240
 10
4.4999999999999982
 20
-0.75
 30
0.0
 11
4.4999999999999982
 21
-12.5
 31
0.0
  0
LINE
  5
1612
  8
241
 10
3.5
 20
-0.75
 30
0.0
 11
3.5
 21
-13.5
 31
0.0
  0
LINE
  5
1613
  8
241
 10
-0.0000000000000007
 20
0.75
 30
0.0
 11
0.0
 21
12.199999999999999
 31
0.0
  0
LINE
  5
1614
  8
241
 10
-2.0
 20
0.75
 30
0.0
 11
-2.0
 21
12.199999999999999
 31
0.0
  0
LINE
  5
1615
  8
241
 10
-43.999999999999993
 20
0.7500000000000001
 30
0.0
 11
-43.999999999999993
 21
12.199999999999999
 31
0.0
  0
ARC
  5
1616
  8
241
 10
-47.5
 20
-0.0000000000000053
 30
0.0
 40
3.0
 50
14.47751218593003
 51
345.52248781407019
  0
LINE
  5
1617
  8
245
 10
-47.5
 20
6.2133315334070867
 30
0.0
 11
-47.5
 21
-6.2133315334070867
 31
0.0
  0
LINE
  5
1618
  8
241
 10
4.4999999999999982
 20
-0.75
 30
0.0
 11
-44.595262490344439
 21
-0.7500000000000001
 31
0.0
  0
LINE
  5
1619
  8
241
 10
4.4999999999999982
 20
0.75
 30
0.0
 11
-44.595262490344439
 21
0.7500000000000001
 31
0.0
  0
LINE
  5
161A
  8
241
 10
3.5
 20
13.5
 30
0.0
 11
3.5
 21
0.75
 31
0.0
  0
LINE
  5
161B
  8
241
 10
-0.0000000000000015
 20
-12.199999999999999
 30
0.0
 11
-0.0000000000000008
 21
-0.75
 31
0.0
  0
LINE
  5
161C
  8
241
 10
-2.0
 20
-12.199999999999999
 30
0.0
 11
-1.9999999999999989
 21
-0.75
 31
0.0
  0
LINE
  5
161D
  8
241
 10
-43.999999999999993
 20
-12.199999999999999
 30
0.0
 11
-43.999999999999979
 21
-0.7500000000000001
 31
0.0
  0
LINE
  5
161E
  8
241
 10
-51.0
 20
-12.199999999999999
 30
0.0
 11
-51.0
 21
12.199999999999999
 31
0.0
  0
LINE
  5
161F
  8
240
 10
-2.0
 20
-12.5
 30
0.0
 11
-43.700000000000003
 21
-12.5
 31
0.0
  0
LINE
  5
1620
  8
240
 10
0.0
 20
-14.06217782649107
 30
0.0
 11
0.0
 21
-12.199999999999999
 31
0.0
  0
LINE
  5
1621
  8
240
 10
3.5
 20
-14.5
 30
0.0
 11
3.5
 21
-13.5
 31
0.0
  0
LINE
  5
1622
  8
240
 10
3.5
 20
-13.5
 30
0.0
 11
4.5
 21
-12.5
 31
0.0
  0
LINE
  5
1623
  8
240
 10
3.017037086855467
 20
-14.87059047744874
 30
0.0
 11
-0.0000000000000009
 21
-14.06217782649107
 31
0.0
  0
LINE
  5
1624
  8
240
 10
3.017037086855467
 20
-14.87059047744874
 30
0.0
 11
3.5
 21
-14.5
 31
0.0
1001
GENIUS_GENFIL_13
1070
     0
1040
0.5
1040
0.5
1040
0.2500000000000284
1040
45.00000000000162
1002
{
1002
}
1001
GENIUS_GENODEF_13
1002
{
1000
HIER
1070
     0
1002
}
1002
{
1000
MANEDIT
1070
     0
1002
}
1002
{
1000
NOSEL
1070
     0
1002
}
1002
{
1000
BEHIND
1070
     0
1002
}
1002
{
1000
OTHER
1070
     0
1002
}
1002
{
1000
REACTOR
1002
}
1001
GENIUS_GENOBJ-N-CHA_13
1002
{
1000
OWNER
1000
GEN
1002
}
  0
LINE
  5
1625
  8
240
 10
-2.0
 20
-12.5
 30
0.0
 11
-2.0
 21
-12.199999999999999
 31
0.0
  0
LINE
  5
1626
  8
240
 10
0.0
 20
-12.199999999999999
 30
0.0
 11
-2.0
 21
-12.199999999999999
 31
0.0
  0
LINE
  5
1627
  8
240
 10
-43.999999999999993
 20
-12.199999999999999
 30
0.0
 11
-51.0
 21
-12.199999999999999
 31
0.0
  0
LINE
  5
1628
  8
240
 10
-51.29999999999999
 20
-12.5
 30
0.0
 11
-51.0
 21
-12.199999999999999
 31
0.0
  0
LINE
  5
1629
  8
240
 10
-44.0
 20
-12.199999999999999
 30
0.0
 11
-43.700000000000003
 21
-12.5
 31
0.0
  0
LINE
  5
162A
  8
240
 10
-51.29999999999999
 20
-12.5
 30
0.0
 11
-67.0
 21
-12.5
 31
0.0
  0
ARC
  5
162B
  8
240
 10
-67.0
 20
-11.500000000000011
 30
0.0
 40
1.0
 50
179.9999999999994
 51
270.0
1001
GENIUS_GENOBJ-N-FIL_13
1002
{
1000
OWNER
1000
GEN
1002
}
1001
GENIUS_GENODEF_13
1002
{
1000
HIER
1070
     0
1002
}
1002
{
1000
MANEDIT
1070
     0
1002
}
1002
{
1000
NOSEL
1070
     0
1002
}
1002
{
1000
BEHIND
1070
     0
1002
}
1002
{
1000
OTHER
1070
     0
1002
}
1002
{
1000
REACTOR
1002
}
  0
ARC
  5
162C
  8
240
 10
-67.0
 20
11.500000000000011
 30
0.0
 40
1.0
 50
90.0
 51
180.0000000000006
1001
GENIUS_GENOBJ-N-FIL_13
1002
{
1000
OWNER
1000
GEN
1002
}
1001
GENIUS_GENODEF_13
1002
{
1000
HIER
1070
     0
1002
}
1002
{
1000
MANEDIT
1070
     0
1002
}
1002
{
1000
NOSEL
1070
     0
1002
}
1002
{
1000
BEHIND
1070
     0
1002
}
1002
{
1000
OTHER
1070
     0
1002
}
1002
{
1000
REACTOR
1002
}
  0
LINE
  5
162D
  8
240
 10
-51.29999999999999
 20
12.5
 30
0.0
 11
-67.0
 21
12.5
 31
0.0
  0
LINE
  5
162E
  8
240
 10
-44.0
 20
12.199999999999999
 30
0.0
 11
-43.700000000000003
 21
12.5
 31
0.0
  0
LINE
  5
162F
  8
240
 10
-51.29999999999999
 20
12.5
 30
0.0
 11
-51.0
 21
12.199999999999999
 31
0.0
  0
LINE
  5
1630
  8
240
 10
-43.999999999999993
 20
12.199999999999999
 30
0.0
 11
-51.0
 21
12.199999999999999
 31
0.0
  0
LINE
  5
1631
  8
240
 10
-68.0
 20
11.5
 30
0.0
 11
-68.0
 21
-11.500000000000011
 31
0.0
  0
LINE
  5
1632
  8
240
 10
0.0
 20
12.199999999999999
 30
0.0
 11
-2.0
 21
12.199999999999999
 31
0.0
  0
LINE
  5
1633
  8
240
 10
-2.0
 20
12.5
 30
0.0
 11
-2.0
 21
12.199999999999999
 31
0.0
  0
LINE
  5
1634
  8
240
 10
3.017037086855467
 20
14.87059047744874
 30
0.0
 11
3.5
 21
14.5
 31
0.0
1001
GENIUS_GENFIL_13
1070
     0
1040
0.5
1040
0.5
1040
0.2500000000000284
1040
45.00000000000162
1002
{
1002
}
1001
GENIUS_GENODEF_13
1002
{
1000
HIER
1070
     0
1002
}
1002
{
1000
MANEDIT
1070
     0
1002
}
1002
{
1000
NOSEL
1070
     0
1002
}
1002
{
1000
BEHIND
1070
     0
1002
}
1002
{
1000
OTHER
1070
     0
1002
}
1002
{
1000
REACTOR
1002
}
1001
GENIUS_GENOBJ-N-CHA_13
1002
{
1000
OWNER
1000
GEN
1002
}
  0
LINE
  5
1635
  8
240
 10
3.017037086855467
 20
14.87059047744874
 30
0.0
 11
-0.0000000000000009
 21
14.06217782649107
 31
0.0
  0
LINE
  5
1636
  8
240
 10
3.5
 20
13.5
 30
0.0
 11
4.5
 21
12.5
 31
0.0
  0
LINE
  5
1637
  8
240
 10
3.5
 20
14.5
 30
0.0
 11
3.5
 21
13.5
 31
0.0
  0
LINE
  5
1638
  8
240
 10
0.0
 20
14.06217782649107
 30
0.0
 11
0.0
 21
12.199999999999999
 31
0.0
  0
LINE
  5
1639
  8
240
 10
-2.0
 20
12.5
 30
0.0
 11
-43.700000000000003
 21
12.5
 31
0.0
  0
LINE
  5
163A
  8
240
 10
4.5
 20
12.5
 30
0.0
 11
4.4999999999999991
 21
0.75
 31
0.0
  0
LINE
  5
163B
  8
245
 10
9.2110426648889643
 20
0.0
 30
0.0
 11
-73.040611252020881
 21
0.0
 31
0.0
  0
ENDBLK
  5
163E
  8
0
  0
BLOCK
  8
0
  2
A$C22A91175
 70
     0
 10
0.0
 20
0.0
 30
0.0
  3
A$C22A91175
  1

  0
INSERT
  5
1733
  8
240
  2
A$C418317E8
 10
0.0
 20
0.0
 30
0.0
  0
ENDBLK
  5
1736
  8
0
  0
ENDSEC
  0
SECTION
  2
ENTITIES
  0
TEXT
  5
15B5
  8
241
 10
-63.0
 20
49.0
 30
0.0
 40
5.0
  1
OCA25
  7
YOKO
  0
LINE
  5
15B6
  8
250
 10
-67.5
 20
12.5
 30
0.0
 11
-78.0
 21
12.500000000000011
 31
0.0
  0
LINE
  5
15B7
  8
250
 10
-67.5
 20
-12.500000000000011
 30
0.0
 11
-78.0
 21
-12.5
 31
0.0
  0
LINE
  5
15B8
  8
250
 10
-77.0
 20
10.27000000000001
 30
0.0
 11
-77.0
 21
-10.27
 31
0.0
  0
LINE
  5
15BC
  8
250
 10
5.0
 20
10.0
 30
0.0
 11
15.0
 21
9.9999999999999964
 31
0.0
  0
LINE
  5
15BD
  8
250
 10
5.0
 20
-10.0
 30
0.0
 11
14.999999999999989
 21
-10.0
 31
0.0
  0
LINE
  5
15BE
  8
250
 10
13.999999999999989
 20
7.769999999999996
 30
0.0
 11
13.999999999999989
 21
-7.7700000000000049
 31
0.0
  0
LINE
  5
15C2
  8
250
 10
-0.0000000000000009
 20
14.56217782649107
 30
0.0
 11
0.0
 21
29.000000000000028
 31
0.0
  0
LINE
  5
15C3
  8
250
 10
-68.0
 20
12.000000000000011
 30
0.0
 11
-68.0
 21
29.000000000000028
 31
0.0
  0
LINE
  5
15C4
  8
250
 10
-2.2299999999999991
 20
28.000000000000028
 30
0.0
 11
-65.769999999999996
 21
28.000000000000028
 31
0.0
  0
LINE
  5
15C8
  8
250
 10
4.5
 20
13.0
 30
0.0
 11
4.5
 21
29.0
 31
0.0
  0
LINE
  5
15C9
  8
250
 10
0.0
 20
14.56217782649107
 30
0.0
 11
0.0000000000000009
 21
29.0
 31
0.0
  0
LINE
  5
15CA
  8
250
 10
-2.2299999999999991
 20
28.0
 30
0.0
 11
-4.4599999999999991
 21
28.0
 31
0.0
  0
LINE
  5
15CB
  8
250
 10
6.7300000000000004
 20
28.0
 30
0.0
 11
16.826666666666672
 21
28.0
 31
0.0
  0
LINE
  5
15CC
  8
250
 10
0.0000000000000009
 20
28.0
 30
0.0
 11
4.5
 21
28.0
 31
0.0
  0
LINE
  5
15D0
  8
250
 10
4.5
 20
13.0
 30
0.0
 11
4.5000000000000009
 21
36.0
 31
0.0
  0
LINE
  5
15D1
  8
250
 10
-68.0
 20
12.0
 30
0.0
 11
-68.0
 21
36.0
 31
0.0
  0
LINE
  5
15D2
  8
250
 10
2.2700000000000009
 20
35.0
 30
0.0
 11
-65.769999999999996
 21
35.0
 31
0.0
  0
LINE
  5
15D6
  8
250
 10
4.0
 20
15.0
 30
0.0
 11
22.000000000000011
 21
14.999999999999989
 31
0.0
  0
LINE
  5
15D7
  8
250
 10
4.0
 20
-15.0
 30
0.0
 11
22.0
 21
-15.000000000000011
 31
0.0
  0
LINE
  5
15D8
  8
250
 10
21.0
 20
12.769999999999991
 30
0.0
 11
21.0
 21
-12.77000000000001
 31
0.0
  0
TEXT
  5
15DC
  8
250
 10
20.0
 20
-3.800000000000002
 30
0.0
 40
2.7999999999999989
  1
\U+220530
 50
90.0
  0
LINE
  5
15DD
  8
250
 10
21.371666666666659
 20
-12.77000000000001
 30
0.0
 11
21.0
 21
-15.000000000000011
 31
0.0
  0
LINE
  5
15DE
  8
250
 10
20.62833333333333
 20
-12.77000000000001
 30
0.0
 11
21.0
 21
-15.000000000000011
 31
0.0
  0
LINE
  5
15DF
  8
250
 10
21.0
 20
-15.000000000000011
 30
0.0
 11
21.0
 21
-12.77000000000001
 31
0.0
  0
LINE
  5
15E0
  8
250
 10
20.628333333333341
 20
12.769999999999991
 30
0.0
 11
21.0
 21
14.999999999999989
 31
0.0
  0
LINE
  5
15E1
  8
250
 10
21.37166666666667
 20
12.769999999999991
 30
0.0
 11
21.0
 21
14.999999999999989
 31
0.0
  0
LINE
  5
15E2
  8
250
 10
21.0
 20
14.999999999999989
 30
0.0
 11
21.0
 21
12.769999999999991
 31
0.0
  0
TEXT
  5
15E3
  8
250
 10
-36.416666666666671
 20
36.0
 30
0.0
 40
2.7999999999999989
  1
72.5
  0
LINE
  5
15E4
  8
250
 10
-65.769999999999996
 20
34.62833333333333
 30
0.0
 11
-68.0
 21
35.0
 31
0.0
  0
LINE
  5
15E5
  8
250
 10
-65.769999999999996
 20
35.37166666666667
 30
0.0
 11
-68.0
 21
35.0
 31
0.0
  0
LINE
  5
15E6
  8
250
 10
-68.0
 20
35.0
 30
0.0
 11
-65.769999999999996
 21
35.0
 31
0.0
  0
LINE
  5
15E7
  8
250
 10
2.2700000000000009
 20
35.37166666666667
 30
0.0
 11
4.5000000000000009
 21
35.0
 31
0.0
  0
LINE
  5
15E8
  8
250
 10
2.2700000000000009
 20
34.62833333333333
 30
0.0
 11
4.5000000000000009
 21
35.0
 31
0.0
  0
LINE
  5
15E9
  8
250
 10
4.5000000000000009
 20
35.0
 30
0.0
 11
2.2700000000000009
 21
35.0
 31
0.0
  0
TEXT
  5
15EA
  8
250
 10
9.5600000000000005
 20
29.0
 30
0.0
 40
2.7999999999999989
  1
4.5
  0
LINE
  5
15EB
  8
250
 10
6.7300000000000004
 20
27.62833333333333
 30
0.0
 11
4.5
 21
28.0
 31
0.0
  0
LINE
  5
15EC
  8
250
 10
6.7300000000000004
 20
28.371666666666659
 30
0.0
 11
4.5
 21
28.0
 31
0.0
  0
LINE
  5
15ED
  8
250
 10
4.5
 20
28.0
 30
0.0
 11
6.7300000000000004
 21
28.0
 31
0.0
  0
LINE
  5
15EE
  8
250
 10
-2.2299999999999991
 20
28.371666666666659
 30
0.0
 11
0.0000000000000009
 21
28.0
 31
0.0
  0
LINE
  5
15EF
  8
250
 10
-2.2299999999999991
 20
27.62833333333333
 30
0.0
 11
0.0000000000000009
 21
28.0
 31
0.0
  0
LINE
  5
15F0
  8
250
 10
0.0000000000000009
 20
28.0
 30
0.0
 11
-2.2299999999999991
 21
28.0
 31
0.0
  0
TEXT
  5
15F1
  8
250
 10
-36.733333333333341
 20
29.000000000000028
 30
0.0
 40
2.7999999999999989
  1
68
  0
LINE
  5
15F2
  8
250
 10
-65.769999999999996
 20
27.628333333333369
 30
0.0
 11
-68.0
 21
28.000000000000028
 31
0.0
  0
LINE
  5
15F3
  8
250
 10
-65.769999999999996
 20
28.371666666666702
 30
0.0
 11
-68.0
 21
28.000000000000028
 31
0.0
  0
LINE
  5
15F4
  8
250
 10
-68.0
 20
28.000000000000028
 30
0.0
 11
-65.769999999999996
 21
28.000000000000028
 31
0.0
  0
LINE
  5
15F5
  8
250
 10
-2.2299999999999991
 20
28.371666666666702
 30
0.0
 11
0.0
 21
28.000000000000028
 31
0.0
  0
LINE
  5
15F6
  8
250
 10
-2.2299999999999991
 20
27.628333333333369
 30
0.0
 11
0.0
 21
28.000000000000028
 31
0.0
  0
LINE
  5
15F7
  8
250
 10
0.0
 20
28.000000000000028
 30
0.0
 11
-2.2299999999999991
 21
28.000000000000028
 31
0.0
  0
TEXT
  5
15F8
  8
250
 10
12.999999999999989
 20
-2.333333333333333
 30
0.0
 40
2.7999999999999989
  1
\U+2205d
 50
90.0
  0
LINE
  5
15F9
  8
250
 10
14.37166666666665
 20
-7.7700000000000058
 30
0.0
 11
13.999999999999989
 21
-10.0
 31
0.0
  0
LINE
  5
15FA
  8
250
 10
13.62833333333332
 20
-7.7700000000000058
 30
0.0
 11
13.999999999999989
 21
-10.0
 31
0.0
  0
LINE
  5
15FB
  8
250
 10
13.999999999999989
 20
-10.0
 30
0.0
 11
13.999999999999989
 21
-7.7700000000000058
 31
0.0
  0
LINE
  5
15FC
  8
250
 10
13.62833333333333
 20
7.769999999999996
 30
0.0
 11
13.999999999999989
 21
9.9999999999999964
 31
0.0
  0
LINE
  5
15FD
  8
250
 10
14.371666666666661
 20
7.769999999999996
 30
0.0
 11
13.999999999999989
 21
9.9999999999999964
 31
0.0
  0
LINE
  5
15FE
  8
250
 10
13.999999999999989
 20
9.9999999999999964
 30
0.0
 11
13.999999999999989
 21
7.769999999999996
 31
0.0
  0
TEXT
  5
15FF
  8
250
 10
-78.0
 20
-3.799999999999998
 30
0.0
 40
2.7999999999999989
  1
\U+220525
 50
90.0
  0
LINE
  5
1600
  8
250
 10
-76.62833333333333
 20
-10.27
 30
0.0
 11
-77.0
 21
-12.5
 31
0.0
  0
LINE
  5
1601
  8
250
 10
-77.371666666666655
 20
-10.27
 30
0.0
 11
-77.0
 21
-12.5
 31
0.0
  0
LINE
  5
1602
  8
250
 10
-77.0
 20
-12.5
 30
0.0
 11
-77.0
 21
-10.27
 31
0.0
  0
LINE
  5
1603
  8
250
 10
-77.371666666666655
 20
10.27000000000001
 30
0.0
 11
-77.0
 21
12.500000000000011
 31
0.0
  0
LINE
  5
1604
  8
250
 10
-76.62833333333333
 20
10.27000000000001
 30
0.0
 11
-77.0
 21
12.500000000000011
 31
0.0
  0
LINE
  5
1605
  8
250
 10
-77.0
 20
12.500000000000011
 30
0.0
 11
-77.0
 21
10.27000000000001
 31
0.0
  0
INSERT
  5
1737
  8
240
  2
A$C22A91175
 10
0.0
 20
0.0
 30
0.0
  0
VIEWPORT
  5
22
 67
     1
  8
0
 10
261.51769911504419
 20
148.5
 30
0.0
 40
523.0353982300885
 41
297.0
 68
     1
 69
     1
1001
ACAD
1000
MVIEW
1002
{
1070
    16
1010
0.0
1020
0.0
1030
0.0
1010
0.0
1020
0.0
1030
1.0
1040
0.0
1040
297.0
1040
261.51769911504419
1040
148.5
1040
50.0
1040
0.0
1040
0.0
1070
     0
1070
   100
1070
     1
1070
     1
1070
     0
1070
     0
1070
     0
1070
     0
1040
0.0
1040
0.0
1040
0.0
1040
1.0
1040
1.0
1040
10.0
1040
10.0
1070
     0
1002
{
1002
}
1002
}
1001
GENIUS_GENODEF_13
1002
{
1000
HIER
1070
     0
1002
}
1002
{
1000
MANEDIT
1070
     0
1002
}
1002
{
1000
NOSEL
1070
     0
1002
}
1002
{
1000
BEHIND
1070
     0
1002
}
1002
{
1000
OTHER
1070
     0
1002
}
1002
{
1000
REACTOR
1002
}
1001
GENIUS_GENOBJ-N-SDF_13
1002
{
1000
OWNER
1000
GEN
1002
}
1001
GENIUS_GENSCREG_15
1000
PF
1040
1.0
1000
DF
1040
1.0
1000
MIN
1011
0.0
1021
-0.0
1031
0.0
1021
0.0
1031
0.0
1000
MAX
1011
523.0353982300885
1021
-0.0
1031
0.0
1021
297.0
1031
0.0
1000
FLAGS
1070
     2
  0
ENDSEC
  0
EOF
