  0
SECTION
  2
HEADER
  9
$ACADVER
  1
AC1009
  9
$INSBASE
 10
0.0
 20
0.0
 30
0.0
  9
$EXTMIN
 10
-1.0
 20
-11.95999999999998
 30
0.0
  9
$EXTMAX
 10
34.523809523809668
 20
38.800074646405001
 30
0.0
  9
$LIMMIN
 10
0.0
 20
0.0
  9
$LIMMAX
 10
297.0
 20
210.0
  9
$ORTHOMODE
 70
     1
  9
$REGENMODE
 70
     1
  9
$FILLMODE
 70
     1
  9
$QTEXTMODE
 70
     0
  9
$MIRRTEXT
 70
     1
  9
$DRAGMODE
 70
     2
  9
$LTSCALE
 40
10.0
  9
$OSMODE
 70
  3071
  9
$ATTMODE
 70
     1
  9
$TEXTSIZE
 40
3.0
  9
$TRACEWID
 40
1.0
  9
$TEXTSTYLE
  7
YOKO
  9
$CLAYER
  8
240
  9
$CELTYPE
  6
BYLAYER
  9
$CECOLOR
 62
   256
  9
$DIMSCALE
 40
1.0
  9
$DIMASZ
 40
2.0
  9
$DIMEXO
 40
0.5
  9
$DIMDLI
 40
2.5
  9
$DIMRND
 40
0.0
  9
$DIMDLE
 40
0.0
  9
$DIMEXE
 40
1.0
  9
$DIMTP
 40
0.0
  9
$DIMTM
 40
0.0
  9
$DIMTXT
 40
2.799999999999998
  9
$DIMCEN
 40
0.0
  9
$DIMTSZ
 40
0.0
  9
$DIMTOL
 70
     0
  9
$DIMLIM
 70
     0
  9
$DIMTIH
 70
     0
  9
$DIMTOH
 70
     0
  9
$DIMSE1
 70
     0
  9
$DIMSE2
 70
     0
  9
$DIMTAD
 70
     3
  9
$DIMZIN
 70
     8
  9
$DIMBLK
  1

  9
$DIMASO
 70
     1
  9
$DIMSHO
 70
     1
  9
$DIMPOST
  1

  9
$DIMAPOST
  1

  9
$DIMALT
 70
     0
  9
$DIMALTD
 70
     2
  9
$DIMALTF
 40
25.399999999999999
  9
$DIMLFAC
 40
1.0
  9
$DIMTOFL
 70
     1
  9
$DIMTVP
 40
0.0
  9
$DIMTIX
 70
     1
  9
$DIMSOXD
 70
     0
  9
$DIMSAH
 70
     1
  9
$DIMBLK1
  1
OPEN
  9
$DIMBLK2
  1
OPEN
  9
$DIMSTYLE
  2
BIGT
  9
$DIMCLRD
 70
   256
  9
$DIMCLRE
 70
   256
  9
$DIMCLRT
 70
    40
  9
$DIMTFAC
 40
1.0
  9
$DIMGAP
 40
1.0
  9
$LUNITS
 70
     2
  9
$LUPREC
 70
     3
  9
$SKETCHINC
 40
1.0
  9
$FILLETRAD
 40
0.0
  9
$AUNITS
 70
     0
  9
$AUPREC
 70
     3
  9
$MENU
  1
.
  9
$ELEVATION
 40
0.0
  9
$PELEVATION
 40
0.0
  9
$THICKNESS
 40
0.0
  9
$LIMCHECK
 70
     0
  9
$BLIPMODE
 70
     0
  9
$CHAMFERA
 40
10.0
  9
$CHAMFERB
 40
10.0
  9
$SKPOLY
 70
     0
  9
$TDCREATE
 40
2456744.4658731129
  9
$TDUPDATE
 40
2457371.5817066198
  9
$TDINDWG
 40
0.1259779398
  9
$TDUSRTIMER
 40
0.1259576157
  9
$USRTIMER
 70
     1
  9
$ANGBASE
 50
0.0
  9
$ANGDIR
 70
     0
  9
$PDMODE
 70
     0
  9
$PDSIZE
 40
-5.0
  9
$PLINEWID
 40
0.0
  9
$COORDS
 70
     1
  9
$SPLFRAME
 70
     0
  9
$SPLINETYPE
 70
     6
  9
$SPLINESEGS
 70
     8
  9
$ATTDIA
 70
     1
  9
$ATTREQ
 70
     1
  9
$HANDLING
 70
     1
  9
$HANDSEED
  5
138F
  9
$SURFTAB1
 70
     6
  9
$SURFTAB2
 70
     6
  9
$SURFTYPE
 70
     6
  9
$SURFU
 70
     6
  9
$SURFV
 70
     6
  9
$UCSNAME
  2

  9
$UCSORG
 10
0.0
 20
0.0
 30
0.0
  9
$UCSXDIR
 10
1.0
 20
0.0
 30
0.0
  9
$UCSYDIR
 10
0.0
 20
1.0
 30
0.0
  9
$PUCSNAME
  2

  9
$PUCSORG
 10
0.0
 20
0.0
 30
0.0
  9
$PUCSXDIR
 10
1.0
 20
0.0
 30
0.0
  9
$PUCSYDIR
 10
0.0
 20
1.0
 30
0.0
  9
$USERI1
 70
     1
  9
$USERI2
 70
     0
  9
$USERI3
 70
     0
  9
$USERI4
 70
     0
  9
$USERI5
 70
     0
  9
$USERR1
 40
0.0
  9
$USERR2
 40
0.0
  9
$USERR3
 40
0.0
  9
$USERR4
 40
0.0
  9
$USERR5
 40
0.0
  9
$WORLDVIEW
 70
     1
  9
$SHADEDGE
 70
     3
  9
$SHADEDIF
 70
    70
  9
$TILEMODE
 70
     1
  9
$MAXACTVP
 70
    16
  9
$PLIMCHECK
 70
     0
  9
$PEXTMIN
 10
1.0000000000000000E+020
 20
1.0000000000000000E+020
 30
1.0000000000000000E+020
  9
$PEXTMAX
 10
-1.0000000000000000E+020
 20
-1.0000000000000000E+020
 30
-1.0000000000000000E+020
  9
$PLIMMIN
 10
0.0
 20
0.0
  9
$PLIMMAX
 10
420.0
 20
297.0
  9
$UNITMODE
 70
     0
  9
$VISRETAIN
 70
     0
  9
$PLINEGEN
 70
     0
  9
$PSLTSCALE
 70
     1
  0
ENDSEC
  0
SECTION
  2
TABLES
  0
TABLE
  2
VPORT
 70
     1
  0
VPORT
  2
*ACTIVE
 70
     0
 10
0.0
 20
0.0
 11
1.0
 21
1.0
 12
16.764407805081131
 22
13.42361746915188
 13
0.0
 23
0.0
 14
7.0
 24
7.0
 15
7.0
 25
7.0
 16
0.0
 26
0.0
 36
1.0
 17
0.0
 27
0.0
 37
0.0
 40
51.12917767683777
 41
1.397993311036789
 42
50.0
 43
0.0
 44
0.0
 50
0.0
 51
0.0
 71
     0
 72
 20000
 73
     1
 74
     0
 75
     0
 76
     1
 77
     0
 78
     0
  0
ENDTAB
  0
TABLE
  2
LTYPE
 70
    16
  0
LTYPE
  2
CONTINUOUS
 70
     0
  3
Solid line
 72
    65
 73
     0
 40
0.0
  0
LTYPE
  2
CENTER2
 70
     0
  3
___ _ ___ _ ___ _ ___ _ ___ _ ___ _ ___ _ ___ _
 72
    65
 73
     4
 40
1.125
 49
0.75
 49
-0.125
 49
0.125
 49
-0.125
  0
LTYPE
  2
PHANTOM2
 70
     0
  3
___ _ _ ___ _ _ ___ _ _ ___ _ _ ___ _ _ ___ _ _
 72
    65
 73
     6
 40
1.25
 49
0.625
 49
-0.125
 49
0.125
 49
-0.125
 49
0.125
 49
-0.125
  0
LTYPE
  2
HIDDEN2
 70
     0
  3
_ _ _ _ _ _ _ _ _ _ _ _ _ _ _ _ _ _ _ _ _ _ _ _
 72
    65
 73
     2
 40
0.1875
 49
0.125
 49
-0.0625
  0
LTYPE
  2
AMCONSTR
 70
     0
  3
_______________________
 72
    65
 73
     2
 40
9999.0
 49
9999.0
 49
0.0
  0
LTYPE
  2
HIDDEN
 70
     0
  3
Hidden __ __ __ __ __ __ __ __ __ __ __ __ __ _
 72
    65
 73
     2
 40
0.375
 49
0.25
 49
-0.125
  0
LTYPE
  2
CENTER
 70
     0
  3
Center ____ _ ____ _ ____ _ ____ _ ____ _ ____
 72
    65
 73
     4
 40
2.0
 49
1.25
 49
-0.25
 49
0.25
 49
-0.25
  0
LTYPE
  2
AMZIGZAG2
 70
     0
  3
/\/-/\/-/\/-/\/-/\/-/\/
 72
    65
 73
     2
 40
0.4401
 49
0.0001
 49
-0.4400000000000002
  0
LTYPE
  2
ACANSTGB
 70
     0
  3
__ . . __ . .
 72
    65
 73
     6
 40
0.35433070866
 49
0.15748031496
 49
-0.03937007874
 49
0.03937007874
 49
-0.03937007874
 49
0.03937007874
 49
-0.03937007874
  0
LTYPE
  2
ACANSTGL
 70
     0
  3
_ _ _ _ _
 72
    65
 73
     2
 40
0.11811023622
 49
0.07874015748
 49
-0.03937007874
  0
ENDTAB
  0
TABLE
  2
LAYER
 70
     7
  0
LAYER
  2
0
 70
     0
 62
     7
  6
CONTINUOUS
  0
LAYER
  2
240
 70
     0
 62
     4
  6
CONTINUOUS
  0
LAYER
  2
241
 70
     0
 62
   211
  6
CONTINUOUS
  0
LAYER
  2
245
 70
     0
 62
     2
  6
CENTER2
  0
LAYER
  2
250
 70
     0
 62
     3
  6
CONTINUOUS
  0
LAYER
  2
DEFPOINTS
 70
     0
 62
     7
  6
CONTINUOUS
  0
LAYER
  2
247
 70
     0
 62
    60
  6
CONTINUOUS
  0
ENDTAB
  0
TABLE
  2
STYLE
 70
     6
  0
STYLE
  2
STANDARD
 70
     0
 40
0.0
 41
1.0
 50
0.0
 71
     0
 42
3.0
  3
romans.shx
  4
BIGFONT.SHX
  0
STYLE
  2
YOKO
 70
     0
 40
0.0
 41
1.0
 50
0.0
 71
     0
 42
3.0
  3
romans.shx
  4
extfont.shx
  0
STYLE
  2
ACANSGDT
 70
     0
 40
0.0
 41
1.0
 50
0.0
 71
     0
 42
3.0
  3
amgdt.shx
  4

  0
ENDTAB
  0
TABLE
  2
VIEW
 70
     0
  0
ENDTAB
  0
TABLE
  2
UCS
 70
     0
  0
ENDTAB
  0
TABLE
  2
APPID
 70
    42
  0
APPID
  2
ACAD
 70
     0
  0
APPID
  2
ACADANNOTATIVE
 70
     0
  0
APPID
  2
GLOBAL
 70
     0
  0
APPID
  2
DETAIL
 70
     0
  0
APPID
  2
GRPNAME
 70
     0
  0
APPID
  2
GPARA
 70
     0
  0
APPID
  2
DCO15
 70
     0
  0
APPID
  2
ITEMNAME
 70
     0
  0
APPID
  2
GRADE_0
 70
     0
  0
APPID
  2
GENIUS_GENODEF_13
 70
     0
  0
APPID
  2
GENIUS_GENOBJ-N-FIL_13
 70
     0
  0
APPID
  2
ACAD_NAV_VCDISPLAY
 70
     0
  0
APPID
  2
ACAD_PSEXT
 70
     0
  0
APPID
  2
ASKLEADERCHILD
 70
     0
  0
APPID
  2
ASK_MEN_XD
 70
     0
  0
APPID
  2
MCAD_NO_VIS
 70
     0
  0
APPID
  2
ACAD_TEMP_GRAPHIC
 70
     0
  0
APPID
  2
ACATTRIBSERVICES
 70
     0
  0
APPID
  2
GENIUS_GENSCREG_15
 70
     0
  0
APPID
  2
GENIUS_GENOBJ-N-SDF_13
 70
     0
  0
APPID
  2
GENIUS_GENREC_14
 70
     0
  0
APPID
  2
GENIUS_GENOBJ-N-REC_13
 70
     0
  0
APPID
  2
GENIUS_GENDIMSH_14
 70
     0
  0
APPID
  2
GENIUS_GENOBJ-N-DIM_13
 70
     0
  0
APPID
  2
GENIUS_GENDIM_13
 70
     0
  0
APPID
  2
GENIUS_GENDTOL_13
 70
     0
  0
APPID
  2
GENIUS_GENOLIS_13
 70
     0
  0
APPID
  2
GENIUS_GENOENT_13
 70
     0
  0
APPID
  2
GENIUS_GENOBJ-F-FEM_13
 70
     0
  0
APPID
  2
GENIUS_GENOREF_13
 70
     0
  0
APPID
  2
GENIUS_GEFFEM_13
 70
     0
  0
APPID
  2
GENIUS_GEFFEMP_13
 70
     0
  0
APPID
  2
AD_DRAW
 70
     0
  0
APPID
  2
DESIGNERASSEMBLIES
 70
     0
  0
APPID
  2
ACADM_DIM_EDIT
 70
     0
  0
APPID
  2
AMDT_DM_ADJ
 70
     0
  0
APPID
  2
GENIUS_GENFIL_13
 70
     0
  0
APPID
  2
GENIUS_GENOBJ-N-CHA_13
 70
     0
  0
APPID
  2
ACAD_EXEMPT_FROM_CAD_STANDARDS
 70
     0
  0
APPID
  2
ACAD_MLEADERVER
 70
     0
  0
APPID
  2
ACAD_DSTYLE_DIMJAG
 70
     0
  0
APPID
  2
ACAD_DSTYLE_DIMBREAK
 70
     0
  0
ENDTAB
  0
TABLE
  2
DIMSTYLE
 70
     9
  0
DIMSTYLE
  2
STANDARD
 70
     0
  3

  4

  5

  6

  7

 40
1.0
 41
0.18
 42
0.0625
 43
0.38
 44
0.18
 45
0.0
 46
0.0
 47
0.0
 48
0.0
140
0.18
141
0.09
142
0.0
143
25.399999999999999
144
1.0
145
0.0
146
1.0
147
0.09
 71
     0
 72
     0
 73
     1
 74
     1
 75
     0
 76
     0
 77
     0
 78
     0
170
     0
171
     2
172
     0
173
     0
174
     0
175
     0
176
     0
177
     0
178
     0
  0
DIMSTYLE
  2
BIGT
 70
     0
  3

  4

  5

  6

  7

 40
1.0
 41
2.2299999999999991
 42
0.5
 43
7.0
 44
1.0
 45
0.0
 46
0.0
 47
0.0
 48
0.01
140
2.799999999999998
141
0.0
142
0.0
143
25.399999999999999
144
1.0
145
0.0
146
1.0
147
1.0
 71
     0
 72
     0
 73
     0
 74
     0
 75
     0
 76
     0
 77
     3
 78
     9
170
     0
171
     2
172
     1
173
     0
174
     1
175
     0
176
   256
177
   256
178
    40
  0
DIMSTYLE
  2
AM_ANSI
 70
     0
  3

  4
mm
  5

  6

  7

 40
1.0
 41
0.12
 42
0.05
 43
0.5
 44
0.1
 45
0.0
 46
0.0
 47
0.1
 48
0.1
140
0.12
141
0.0
142
0.0
143
25.399999999999999
144
1.0
145
0.0
146
0.71
147
0.06
 71
     0
 72
     0
 73
     1
 74
     1
 75
     0
 76
     0
 77
     0
 78
     7
170
     0
171
     2
172
     0
173
     0
174
     0
175
     0
176
   256
177
   256
178
     2
  0
DIMSTYLE
  2
AM_ANSI$3
 70
     0
  3

  4
mm
  5

  6

  7

 40
1.0
 41
0.12
 42
0.05
 43
0.5
 44
0.1
 45
0.0
 46
0.0
 47
0.1
 48
0.1
140
0.12
141
0.0
142
0.0
143
25.399999999999999
144
1.0
145
0.0
146
0.71
147
0.06
 71
     0
 72
     0
 73
     1
 74
     1
 75
     0
 76
     0
 77
     0
 78
     7
170
     0
171
     2
172
     0
173
     0
174
     0
175
     0
176
   256
177
   256
178
     2
  0
DIMSTYLE
  2
AM_ANSI$4
 70
     0
  3

  4
mm
  5

  6

  7

 40
1.0
 41
0.12
 42
0.05
 43
0.5
 44
0.1
 45
0.0
 46
0.0
 47
0.1
 48
0.1
140
0.12
141
0.0
142
0.0
143
25.399999999999999
144
1.0
145
0.0
146
0.71
147
0.06
 71
     0
 72
     0
 73
     1
 74
     1
 75
     0
 76
     0
 77
     0
 78
     7
170
     0
171
     2
172
     0
173
     0
174
     0
175
     0
176
   256
177
   256
178
     2
  0
DIMSTYLE
  2
AM_ANSI$7
 70
     0
  3

  4
mm
  5

  6

  7

 40
1.0
 41
0.12
 42
0.05
 43
0.5
 44
0.1
 45
0.0
 46
0.0
 47
0.1
 48
0.1
140
0.12
141
0.0
142
0.0
143
25.399999999999999
144
1.0
145
0.0
146
0.71
147
0.06
 71
     0
 72
     0
 73
     1
 74
     1
 75
     0
 76
     0
 77
     0
 78
     7
170
     0
171
     2
172
     0
173
     0
174
     0
175
     0
176
   256
177
   256
178
     2
  0
DIMSTYLE
  2
AM_ANSI$SF
 70
     0
  3

  4
mm
  5

  6

  7

 40
1.0
 41
0.12
 42
0.05
 43
0.5
 44
0.1
 45
0.0
 46
0.0
 47
0.1
 48
0.1
140
0.12
141
0.0
142
0.0
143
25.399999999999999
144
1.0
145
0.0
146
0.71
147
0.06
 71
     0
 72
     0
 73
     1
 74
     1
 75
     1
 76
     1
 77
     0
 78
     7
170
     0
171
     2
172
     0
173
     0
174
     0
175
     0
176
   256
177
   256
178
     2
  0
DIMSTYLE
  2
AM_ANSI$SH
 70
     0
  3

  4
mm
  5

  6

  7

 40
1.0
 41
0.12
 42
0.05
 43
0.5
 44
0.1
 45
0.0
 46
0.0
 47
0.1
 48
0.1
140
0.12
141
0.0
142
0.0
143
25.399999999999999
144
1.0
145
0.0
146
0.71
147
0.06
 71
     0
 72
     0
 73
     1
 74
     1
 75
     1
 76
     1
 77
     0
 78
     7
170
     0
171
     2
172
     0
173
     1
174
     0
175
     0
176
   256
177
   256
178
     2
  0
ENDTAB
  0
ENDSEC
  0
SECTION
  2
BLOCKS
  0
BLOCK
  8
0
  2
$MODEL_SPACE
 70
     0
 10
0.0
 20
0.0
 30
0.0
  3
$MODEL_SPACE
  1

  0
ENDBLK
  5
1273
  8
0
  0
BLOCK
 67
     1
  8
0
  2
$PAPER_SPACE
 70
     0
 10
0.0
 20
0.0
 30
0.0
  3
$PAPER_SPACE
  1

  0
ENDBLK
  5
126F
 67
     1
  8
0
  0
BLOCK
  8
0
  2
_OPEN
 70
     0
 10
0.0
 20
0.0
 30
0.0
  3
_OPEN
  1

  0
LINE
  5
EBE
  8
0
  6
BYBLOCK
 62
     0
 10
-1.0
 20
0.1666666666666666
 30
0.0
 11
0.0
 21
0.0
 31
0.0
  0
LINE
  5
EBF
  8
0
  6
BYBLOCK
 62
     0
 10
-1.0
 20
-0.1666666666666666
 30
0.0
 11
0.0
 21
0.0
 31
0.0
  0
LINE
  5
EC0
  8
0
  6
BYBLOCK
 62
     0
 10
0.0
 20
0.0
 30
0.0
 11
-1.0
 21
0.0
 31
0.0
  0
ENDBLK
  5
EC1
  8
0
  0
BLOCK
  8
0
  2
矢印なし
 70
     0
 10
0.0
 20
0.0
 30
0.0
  3
矢印なし
  1

  0
ENDBLK
  5
6E5
  8
0
  0
BLOCK
  8
0
  2
_ACMFILLEDHALF
 70
     0
 10
0.0
 20
0.0
 30
0.0
  3
_ACMFILLEDHALF
  1

  0
TRACE
  5
1159
  8
240
 62
     0
 10
-0.8
 20
0.0
 30
0.0
 11
-1.0
 21
0.166666666
 31
0.0
 12
0.0
 22
0.0
 32
0.0
 13
0.0
 23
0.0
 33
0.0
  0
LINE
  5
115A
  8
240
 62
     0
 10
-1.0
 20
0.0
 30
0.0
 11
-0.8
 21
0.0
 31
0.0
  0
ENDBLK
  5
1158
  8
0
  0
ENDSEC
  0
SECTION
  2
ENTITIES
  0
INSERT
  5
6E6
  8
245
  2
矢印なし
 10
175.62382696643769
 20
90.55123571690595
 30
0.0
  0
TEXT
  5
88F
  8
241
  6
CONTINUOUS
 10
0.0000000000001551
 20
33.800074646404987
 30
0.0
 40
5.0
  1
MW1821E
  7
YOKO
 11
0.0000000000001551
 21
33.800074646404987
 31
0.0
 73
     1
  0
LINE
  5
F66
  8
240
  6
CONTINUOUS
 10
9.9999999999999005
 20
6.2505592929475871
 30
0.0
 11
9.9999999999999005
 21
9.7030097733591152
 31
0.0
  0
LINE
  5
F67
  8
241
  6
CONTINUOUS
 10
5.3799999999998951
 20
5.576990226641227
 30
0.0
 11
5.3799999999998951
 21
9.0294407070527605
 31
0.0
  0
LINE
  5
F69
  8
241
  6
CONTINUOUS
 10
5.8494592710666611
 20
5.1830671254363532
 30
0.0
 11
9.6694592710666551
 21
5.8566361917426963
 31
0.0
  0
ARC
  5
F6A
  8
240
  6
CONTINUOUS
 10
9.5999999999998948
 20
9.7030097733591152
 30
0.0
 40
0.4
 50
0.0000000000008142
 51
100.0000000000001
1001
GENIUS_GENOBJ-N-FIL_13
1002
{
1000
OWNER
1000
GEN
1002
}
1001
GENIUS_GENODEF_13
1002
{
1000
HIER
1070
     0
1002
}
1002
{
1000
MANEDIT
1070
     0
1002
}
1002
{
1000
NOSEL
1070
     0
1002
}
1002
{
1000
BEHIND
1070
     0
1002
}
1002
{
1000
OTHER
1070
     0
1002
}
1002
{
1000
REACTOR
1002
}
  0
ARC
  5
F6B
  8
241
  6
CONTINUOUS
 10
5.7799999999998972
 20
9.0294407070527871
 30
0.0
 40
0.4
 50
99.999999999998565
 51
180.00000000000071
1001
GENIUS_GENOBJ-N-FIL_13
1002
{
1000
OWNER
1000
GEN
1002
}
1001
GENIUS_GENODEF_13
1002
{
1000
HIER
1070
     0
1002
}
1002
{
1000
MANEDIT
1070
     0
1002
}
1002
{
1000
NOSEL
1070
     0
1002
}
1002
{
1000
BEHIND
1070
     0
1002
}
1002
{
1000
OTHER
1070
     0
1002
}
1002
{
1000
REACTOR
1002
}
  0
ARC
  5
F6C
  8
241
  6
CONTINUOUS
 10
5.7799999999998972
 20
5.576990226641227
 30
0.0
 40
0.4
 50
180.0
 51
279.99999999999852
1001
GENIUS_GENOBJ-N-FIL_13
1002
{
1000
OWNER
1000
GEN
1002
}
1001
GENIUS_GENODEF_13
1002
{
1000
HIER
1070
     0
1002
}
1002
{
1000
MANEDIT
1070
     0
1002
}
1002
{
1000
NOSEL
1070
     0
1002
}
1002
{
1000
BEHIND
1070
     0
1002
}
1002
{
1000
OTHER
1070
     0
1002
}
1002
{
1000
REACTOR
1002
}
  0
LINE
  5
F6E
  8
241
  6
CONTINUOUS
 10
1.4000000000000441
 20
9.7994252683730725
 30
0.0
 11
1.3999999999999551
 21
3.80000000000003
 31
0.0
  0
LINE
  5
F6F
  8
240
  6
CONTINUOUS
 10
9.7999999999999368
 20
2.9971608935827709
 30
0.0
 11
9.7999999999999652
 21
5.904149131433841
 31
0.0
  0
ARC
  5
F70
  8
240
  6
CONTINUOUS
 10
9.2999999999999368
 20
2.9971608935827709
 30
0.0
 40
0.5
 50
289.99999999999818
 51
0.0
1001
ASK_MEN_XD
1005
F77
1070
     1
1005
F6F
1070
     1
  0
LINE
  5
F71
  8
240
  6
CONTINUOUS
 10
0.0000000000000426
 20
9.7994252683730885
 30
0.0
 11
5.5749999999967601
 21
9.7994252683729304
 31
0.0
  0
LINE
  5
F72
  8
240
  6
CONTINUOUS
 10
5.5749999999967601
 20
9.7994252683729304
 30
0.0
 11
5.574999999999914
 21
9.5669947442999757
 31
0.0
  0
LINE
  5
F77
  8
240
  6
CONTINUOUS
 10
9.4710100716627448
 20
2.527314583189824
 30
0.0
 11
6.3159597133486161
 21
1.378970165152626
 31
0.0
  0
ARC
  5
F78
  8
240
  6
CONTINUOUS
 10
6.9999999999999272
 20
-0.5004150764191948
 30
0.0
 40
2.0000000000000031
 50
126.85007463407381
 51
165.51020643654721
  0
LINE
  5
F79
  8
240
  6
CONTINUOUS
 10
5.574999999999914
 20
9.5669947442999757
 30
0.0
 11
6.5251122452404324
 21
9.5669947442990555
 31
0.0
  0
LINE
  5
F7B
  8
240
  6
CONTINUOUS
 10
9.5305407289331328
 20
10.09693287456402
 30
0.0
 11
6.5251122452404324
 21
9.5669947442990555
 31
0.0
  0
LINE
  5
F7C
  8
241
  6
CONTINUOUS
 10
5.710540728933136
 20
9.4233638082576636
 30
0.0
 11
6.525112245233414
 21
9.5669947442986398
 31
0.0
  0
ARC
  5
F7D
  8
241
  6
CONTINUOUS
 10
9.5999999999998948
 20
6.2505592929475871
 30
0.0
 40
0.4
 50
279.99999999999852
 51
300.00000000001131
1001
GENIUS_GENODEF_13
1002
{
1000
HIER
1070
     0
1002
}
1002
{
1000
MANEDIT
1070
     0
1002
}
1002
{
1000
NOSEL
1070
     0
1002
}
1002
{
1000
BEHIND
1070
     0
1002
}
1002
{
1000
OTHER
1070
     0
1002
}
1002
{
1000
REACTOR
1002
}
1001
GENIUS_GENOBJ-N-FIL_13
1002
{
1000
OWNER
1000
GEN
1002
}
  0
ARC
  5
F7E
  8
240
  6
CONTINUOUS
 10
9.5999999999998948
 20
6.2505592929475871
 30
0.0
 40
0.4
 50
300.00000000002632
 51
0.0000000000008142
1001
GENIUS_GENODEF_13
1002
{
1000
HIER
1070
     0
1002
}
1002
{
1000
MANEDIT
1070
     0
1002
}
1002
{
1000
NOSEL
1070
     0
1002
}
1002
{
1000
BEHIND
1070
     0
1002
}
1002
{
1000
OTHER
1070
     0
1002
}
1002
{
1000
REACTOR
1002
}
1001
GENIUS_GENOBJ-N-FIL_13
1002
{
1000
OWNER
1000
GEN
1002
}
  0
LINE
  5
F7F
  8
245
  6
CENTER2
 10
6.0636155466197614
 20
0.0
 30
0.0
 11
-1.0
 21
0.0
 31
0.0
  0
LINE
  5
F80
  8
240
  6
CONTINUOUS
 10
9.9999999999999005
 20
-6.2505592929475871
 30
0.0
 11
9.9999999999999005
 21
-9.7030097733591152
 31
0.0
  0
ARC
  5
F81
  8
240
  6
CONTINUOUS
 10
9.5999999999998948
 20
-9.7030097733591152
 30
0.0
 40
0.4
 50
259.99999999999972
 51
359.9999999999992
1001
GENIUS_GENOBJ-N-FIL_13
1002
{
1000
OWNER
1000
GEN
1002
}
1001
GENIUS_GENODEF_13
1002
{
1000
HIER
1070
     0
1002
}
1002
{
1000
MANEDIT
1070
     0
1002
}
1002
{
1000
NOSEL
1070
     0
1002
}
1002
{
1000
BEHIND
1070
     0
1002
}
1002
{
1000
OTHER
1070
     0
1002
}
1002
{
1000
REACTOR
1002
}
  0
LINE
  5
F82
  8
240
  6
CONTINUOUS
 10
9.7999999999999368
 20
-2.9971608935827709
 30
0.0
 11
9.7999999999999652
 21
-5.904149131433841
 31
0.0
  0
ARC
  5
F83
  8
240
  6
CONTINUOUS
 10
9.2999999999999368
 20
-2.9971608935827709
 30
0.0
 40
0.5
 50
0.0
 51
70.000000000001691
1001
ASK_MEN_XD
1005
F77
1070
     1
1005
F6F
1070
     1
  0
LINE
  5
F84
  8
240
  6
CONTINUOUS
 10
-0.0000000000000426
 20
-9.7994252683730885
 30
0.0
 11
5.5749999999967601
 21
-9.7994252683729304
 31
0.0
  0
LINE
  5
F85
  8
240
  6
CONTINUOUS
 10
5.5749999999967601
 20
-9.7994252683729304
 30
0.0
 11
5.574999999999914
 21
-9.5669947442999792
 31
0.0
  0
LINE
  5
F87
  8
240
  6
CONTINUOUS
 10
9.4710100716627448
 20
-2.527314583189824
 30
0.0
 11
6.3159597133486161
 21
-1.378970165152626
 31
0.0
  0
LINE
  5
F88
  8
241
  6
CONTINUOUS
 10
2.7607695154558911
 20
3.800000000000046
 30
0.0
 11
4.9999999999999263
 21
3.199999999999882
 31
0.0
  0
LINE
  5
F89
  8
241
  6
CONTINUOUS
 10
4.9999999999999281
 20
0.5004028493578936
 30
0.0
 11
4.9999999999999263
 21
3.199999999999882
 31
0.0
  0
LINE
  5
F8A
  8
241
  6
CONTINUOUS
 10
2.7607695154558911
 20
3.800000000000046
 30
0.0
 11
0.0000000000000142
 21
3.8000000000000149
 31
0.0
  0
LINE
  5
F8B
  8
240
  6
CONTINUOUS
 10
0.0000000000000426
 20
9.7994252683730885
 30
0.0
 11
-0.0000000000000426
 21
-9.7994252683730885
 31
0.0
  0
LINE
  5
F8C
  8
240
  6
CONTINUOUS
 10
9.5305407289331328
 20
-10.09693287456402
 30
0.0
 11
6.5251122452404324
 21
-9.5669947442990555
 31
0.0
  0
ARC
  5
F8D
  8
240
  6
CONTINUOUS
 10
9.5999999999998948
 20
-6.2505592929475871
 30
0.0
 40
0.4
 50
359.9999999999992
 51
59.99999999997366
1001
GENIUS_GENODEF_13
1002
{
1000
HIER
1070
     0
1002
}
1002
{
1000
MANEDIT
1070
     0
1002
}
1002
{
1000
NOSEL
1070
     0
1002
}
1002
{
1000
BEHIND
1070
     0
1002
}
1002
{
1000
OTHER
1070
     0
1002
}
1002
{
1000
REACTOR
1002
}
1001
GENIUS_GENOBJ-N-FIL_13
1002
{
1000
OWNER
1000
GEN
1002
}
  0
LINE
  5
F8F
  8
241
  6
CONTINUOUS
 10
9.8000000000000131
 20
-5.899635012780819
 30
0.0
 11
9.6003019529952383
 21
-6.0424500799707772
 31
0.0
  0
LINE
  5
F90
  8
241
  6
CONTINUOUS
 10
9.6003019529952383
 20
-6.0424500799707772
 30
0.0
 11
9.6003019529952081
 21
-9.6886559591207622
 31
0.0
  0
LINE
  5
F92
  8
241
  6
CONTINUOUS
 10
8.8999999999999702
 20
-9.5669947442997447
 30
0.0
 11
6.5251122452443564
 21
-9.5669947442997447
 31
0.0
  0
LINE
  5
F93
  8
240
  6
CONTINUOUS
 10
5.5750000000000011
 20
-9.5669947442997447
 30
0.0
 11
6.5251122452443564
 21
-9.5669947442997447
 31
0.0
  0
ARC
  5
F94
  8
241
  6
CONTINUOUS
 10
6.9999999999999272
 20
0.5004150764191948
 30
0.0
 40
2.0000000000000031
 50
180.0
 51
194.48979356345251
  0
ARC
  5
F95
  8
240
  6
CONTINUOUS
 10
6.9999999999999272
 20
0.5004150764191948
 30
0.0
 40
2.0000000000000031
 50
194.48979356345251
 51
233.14992536592609
  0
LINE
  5
F9C
  8
241
  6
CONTINUOUS
 10
9.6003019529952081
 20
-9.6886559591207622
 30
0.0
 11
8.8999999999999702
 21
-9.5669947442997447
 31
0.0
  0
LINE
  5
F9F
  8
250
  6
CONTINUOUS
 10
10.09999999999989
 20
-10.10300977335911
 30
0.0
 11
22.000000000000028
 21
-10.103009773359121
 31
0.0
  0
LINE
  5
FA0
  8
250
  6
CONTINUOUS
 10
10.09999999999998
 20
10.103009773359121
 30
0.0
 11
22.000000000000039
 21
10.103009773359121
 31
0.0
  0
LINE
  5
FA1
  8
250
  6
CONTINUOUS
 10
21.000000000000039
 20
-8.1030097733591191
 30
0.0
 11
21.000000000000039
 21
8.1030097733591191
 31
0.0
  0
LINE
  5
FA5
  8
250
  6
CONTINUOUS
 10
0.0000000000000415
 20
10.29942526837309
 30
0.0
 11
0.0000000000000421
 21
20.80007464640499
 31
0.0
  0
LINE
  5
FA6
  8
250
  6
CONTINUOUS
 10
10.000000000000011
 20
10.20308441640498
 30
0.0
 11
10.000000000000011
 21
20.80007464640499
 31
0.0
  0
LINE
  5
FA7
  8
250
  6
CONTINUOUS
 10
2.0000000000000422
 20
19.80007464640499
 30
0.0
 11
8.0000000000000124
 21
19.80007464640499
 31
0.0
  0
TEXT
  5
FAB
  8
250
  6
CONTINUOUS
 10
2.1333333333333591
 20
20.80007464640499
 30
0.0
 40
2.799999999999998
  1
10
1001
ACAD
1000
MTEXTBEGIN
1070
    73
1070
     1
1070
    44
1040
1.0
1070
    74
1070
     0
1000
MTEXTEND
  0
LINE
  5
FAC
  8
250
  6
CONTINUOUS
 10
8.0000000000000089
 20
20.133407979738319
 30
0.0
 11
10.000000000000011
 21
19.80007464640499
 31
0.0
  0
LINE
  5
FAD
  8
250
  6
CONTINUOUS
 10
8.0000000000000089
 20
19.466741313071651
 30
0.0
 11
10.000000000000011
 21
19.80007464640499
 31
0.0
  0
LINE
  5
FAE
  8
250
  6
CONTINUOUS
 10
10.000000000000011
 20
19.80007464640499
 30
0.0
 11
8.0000000000000089
 21
19.80007464640499
 31
0.0
  0
LINE
  5
FAF
  8
250
  6
CONTINUOUS
 10
2.0000000000000422
 20
19.466741313071651
 30
0.0
 11
0.0000000000000421
 21
19.80007464640499
 31
0.0
  0
LINE
  5
FB0
  8
250
  6
CONTINUOUS
 10
2.0000000000000422
 20
20.133407979738319
 30
0.0
 11
0.0000000000000421
 21
19.80007464640499
 31
0.0
  0
LINE
  5
FB1
  8
250
  6
CONTINUOUS
 10
0.0000000000000421
 20
19.80007464640499
 30
0.0
 11
2.0000000000000422
 21
19.80007464640499
 31
0.0
  0
TEXT
  5
FB2
  8
250
  6
CONTINUOUS
 10
19.53333333333336
 20
-13.26666666666665
 30
0.0
 40
2.799999999999998
  1
（\U+03C618～\U+03C621）
 50
90.0
1001
ACAD
1000
MTEXTBEGIN
1070
    73
1070
     1
1070
    44
1040
1.0
1070
    74
1070
     0
1000
MTEXTEND
  0
LINE
  5
FB3
  8
250
  6
CONTINUOUS
 10
20.66666666666671
 20
8.1030097733591191
 30
0.0
 11
21.000000000000039
 21
10.103009773359121
 31
0.0
  0
LINE
  5
FB4
  8
250
  6
CONTINUOUS
 10
21.333333333333371
 20
8.1030097733591191
 30
0.0
 11
21.000000000000039
 21
10.103009773359121
 31
0.0
  0
LINE
  5
FB5
  8
250
  6
CONTINUOUS
 10
21.000000000000039
 20
10.103009773359121
 30
0.0
 11
21.000000000000039
 21
8.1030097733591191
 31
0.0
  0
LINE
  5
FB6
  8
250
  6
CONTINUOUS
 10
21.333333333333361
 20
-8.1030097733591191
 30
0.0
 11
21.000000000000028
 21
-10.103009773359121
 31
0.0
  0
LINE
  5
FB7
  8
250
  6
CONTINUOUS
 10
20.6666666666667
 20
-8.1030097733591191
 30
0.0
 11
21.000000000000028
 21
-10.103009773359121
 31
0.0
  0
LINE
  5
FB8
  8
250
  6
CONTINUOUS
 10
21.000000000000028
 20
-10.103009773359121
 30
0.0
 11
21.000000000000028
 21
-8.1030097733591191
 31
0.0
  0
LINE
  5
FB9
  8
240
  6
CONTINUOUS
 10
6.3159597133486161
 20
1.378970165152626
 30
0.0
 11
5.800553634725742
 21
1.100000000000219
 31
0.0
  0
LINE
  5
FBA
  8
240
  6
CONTINUOUS
 10
6.3159597133486161
 20
-1.378970165152626
 30
0.0
 11
5.8005536347257358
 21
-1.100000000000215
 31
0.0
  0
LINE
  5
1193
  8
247
  6
CONTINUOUS
 10
3.9234071096148462
 20
-7.5494252683737848
 30
0.0
 11
3.923407109614903
 21
-2.9148098840438101
 31
0.0
  0
LINE
  5
1194
  8
247
  6
CONTINUOUS
 10
1.423407109614903
 20
-6.7543187683617267
 30
0.0
 11
3.5234071095309112
 21
-7.3564840784311398
 31
0.0
  0
LINE
  5
1195
  8
247
  6
CONTINUOUS
 10
2.4195609557289011
 20
-6.1245766718928172
 30
0.0
 11
2.4195609557289011
 21
-7.0399612872408177
 31
0.0
  0
ARC
  5
1196
  8
247
  6
CONTINUOUS
 10
1.808126176909004
 20
-5.8866886703205852
 30
0.0
 40
0.3876715809326743
 50
72.997889675292001
 51
172.92416621851231
  0
ARC
  5
1197
  8
247
  6
CONTINUOUS
 10
1.7286302406429179
 20
-6.1819028251778914
 30
0.0
 40
0.693304796535877
 50
4.742936852201395
 51
73.849226273266339
1001
GENIUS_GENOBJ-N-FIL_13
1002
{
1000
OWNER
1000
GEN
1002
}
1001
GENIUS_GENODEF_13
1002
{
1000
HIER
1070
     0
1002
}
1002
{
1000
MANEDIT
1070
     0
1002
}
1002
{
1000
NOSEL
1070
     0
1002
}
1002
{
1000
BEHIND
1070
     0
1002
}
1002
{
1000
OTHER
1070
     0
1002
}
1002
{
1000
REACTOR
1002
}
  0
LINE
  5
1198
  8
247
  6
CONTINUOUS
 10
3.5234071095309121
 20
-6.4410994630831411
 30
0.0
 11
3.5234071095309112
 21
-7.3564840784311398
 31
0.0
  0
LINE
  5
1199
  8
247
  6
CONTINUOUS
 10
1.423407109614903
 20
-6.7543187683617329
 30
0.0
 11
1.423407109614903
 21
-5.8389341530137298
 31
0.0
  0
ARC
  5
119A
  8
247
  6
CONTINUOUS
 10
2.8108240723827782
 20
-6.1777317446406146
 30
0.0
 40
0.394857301075386
 50
65.990941652528889
 51
172.26344345906949
  0
ARC
  5
119B
  8
247
  6
CONTINUOUS
 10
2.814607436947473
 20
-6.5118718788006946
 30
0.0
 40
0.7123241612361686
 50
5.701985164258037
 51
77.277338436822305
1001
GENIUS_GENOBJ-N-FIL_13
1002
{
1000
OWNER
1000
GEN
1002
}
1001
GENIUS_GENODEF_13
1002
{
1000
HIER
1070
     0
1002
}
1002
{
1000
MANEDIT
1070
     0
1002
}
1002
{
1000
NOSEL
1070
     0
1002
}
1002
{
1000
BEHIND
1070
     0
1002
}
1002
{
1000
OTHER
1070
     0
1002
}
1002
{
1000
REACTOR
1002
}
  0
LINE
  5
119C
  8
247
  6
CONTINUOUS
 10
3.5234071095309121
 20
-5.4834071554371526
 30
0.0
 11
1.423407109614903
 21
-4.8812418453677449
 31
0.0
  0
LINE
  5
119D
  8
247
  6
CONTINUOUS
 10
1.423407109614903
 20
-3.3850879992817422
 30
0.0
 11
1.423407109614903
 21
-3.7811036326773642
 31
0.0
  0
LINE
  5
119E
  8
247
  6
CONTINUOUS
 10
3.5234071095309121
 20
-4.4081649223177433
 30
0.0
 11
3.5234071095309121
 21
-3.9773956915657518
 31
0.0
  0
ARC
  5
119F
  8
247
  6
CONTINUOUS
 10
2.881706704698265
 20
-3.1812418454437399
 30
0.0
 40
1.576855057639547
 50
202.35948814152709
 51
254.993248542846
  0
ARC
  5
11A0
  8
247
  6
CONTINUOUS
 10
1.98922596815304
 20
-3.646936634507004
 30
0.0
 40
0.6234706797009447
 50
94.994589319075374
 51
155.16632895730351
1001
GENIUS_GENOBJ-N-FIL_13
1002
{
1000
OWNER
1000
GEN
1002
}
1001
GENIUS_GENODEF_13
1002
{
1000
HIER
1070
     0
1002
}
1002
{
1000
MANEDIT
1070
     0
1002
}
1002
{
1000
NOSEL
1070
     0
1002
}
1002
{
1000
BEHIND
1070
     0
1002
}
1002
{
1000
OTHER
1070
     0
1002
}
1002
{
1000
REACTOR
1002
}
  0
ARC
  5
11A1
  8
247
  6
CONTINUOUS
 10
2.5855092315843442
 20
-4.2436092194065562
 30
0.0
 40
0.9749472149106983
 50
15.84609655577998
 51
82.325137004169164
  0
ARC
  5
11A2
  8
247
  6
CONTINUOUS
 10
2.7948775115859701
 20
-3.834636907145998
 30
0.0
 40
0.9271945638692009
 50
249.7136016704971
 51
321.7887456564095
1001
GENIUS_GENOBJ-N-FIL_13
1002
{
1000
OWNER
1000
GEN
1002
}
1001
GENIUS_GENODEF_13
1002
{
1000
HIER
1070
     0
1002
}
1002
{
1000
MANEDIT
1070
     0
1002
}
1002
{
1000
NOSEL
1070
     0
1002
}
1002
{
1000
BEHIND
1070
     0
1002
}
1002
{
1000
OTHER
1070
     0
1002
}
1002
{
1000
REACTOR
1002
}
  0
LINE
  5
11A3
  8
247
  6
CONTINUOUS
 10
2.7157148018708801
 20
-3.7620110761897432
 30
0.0
 11
2.7157148018708801
 21
-3.277395691593743
 31
0.0
  0
ARC
  5
11A4
  8
247
  6
CONTINUOUS
 10
2.673407109614903
 20
-7.5494252683737848
 30
0.0
 40
1.25
 50
180.0
 51
0.0
  0
LINE
  5
11A5
  8
247
  6
CONTINUOUS
 10
1.423407109614903
 20
-7.5494252683737848
 30
0.0
 11
1.423407109614903
 21
-7.1032714222877811
 31
0.0
  0
ARC
  5
11A6
  8
247
  6
CONTINUOUS
 10
2.673407109614903
 20
-2.9148098840437959
 30
0.0
 40
1.25
 50
0.0
 51
180.0
  0
VIEWPORT
  5
22
 67
     1
  8
0
 10
261.51769911504419
 20
148.5
 30
0.0
 40
523.0353982300885
 41
297.0
 68
     1
 69
     1
1001
ACAD
1000
MVIEW
1002
{
1070
    16
1010
0.0
1020
0.0
1030
0.0
1010
0.0
1020
0.0
1030
1.0
1040
0.0
1040
297.0
1040
261.51769911504419
1040
148.5
1040
50.0
1040
0.0
1040
0.0
1070
     0
1070
   100
1070
     1
1070
     1
1070
     0
1070
     0
1070
     0
1070
     0
1040
0.0
1040
0.0
1040
0.0
1040
1.0
1040
1.0
1040
10.0
1040
10.0
1070
     0
1002
{
1002
}
1002
}
1001
GENIUS_GENODEF_13
1002
{
1000
HIER
1070
     0
1002
}
1002
{
1000
MANEDIT
1070
     0
1002
}
1002
{
1000
NOSEL
1070
     0
1002
}
1002
{
1000
BEHIND
1070
     0
1002
}
1002
{
1000
OTHER
1070
     0
1002
}
1002
{
1000
REACTOR
1002
}
1001
GENIUS_GENOBJ-N-SDF_13
1002
{
1000
OWNER
1000
GEN
1002
}
1001
GENIUS_GENSCREG_15
1000
PF
1040
1.0
1000
DF
1040
1.0
1000
MIN
1011
0.0
1021
0.0
1031
0.0
1021
0.0
1031
0.0
1000
MAX
1011
523.0353982300885
1021
0.0
1031
0.0
1021
297.0
1031
0.0
1000
FLAGS
1070
     4
  0
ENDSEC
  0
EOF
