  0
SECTION
  2
HEADER
  9
$ACADVER
  1
AC1009
  9
$INSBASE
 10
0.0
 20
0.0
 30
0.0
  9
$EXTMIN
 10
-1.004544482537767
 20
-11.96216399147562
 30
-0.0000000000112531
  9
$EXTMAX
 10
34.53336009270015
 20
36.506219279199911
 30
0.0000000000002923
  9
$LIMMIN
 10
0.0
 20
0.0
  9
$LIMMAX
 10
297.0
 20
210.0
  9
$ORTHOMODE
 70
     0
  9
$REGENMODE
 70
     1
  9
$FILLMODE
 70
     1
  9
$QTEXTMODE
 70
     0
  9
$MIRRTEXT
 70
     1
  9
$DRAGMODE
 70
     2
  9
$LTSCALE
 40
10.0
  9
$OSMODE
 70
  3071
  9
$ATTMODE
 70
     1
  9
$TEXTSIZE
 40
3.0
  9
$TRACEWID
 40
1.0
  9
$TEXTSTYLE
  7
YOKO
  9
$CLAYER
  8
240
  9
$CELTYPE
  6
BYLAYER
  9
$CECOLOR
 62
   256
  9
$DIMSCALE
 40
1.0
  9
$DIMASZ
 40
2.0
  9
$DIMEXO
 40
0.5
  9
$DIMDLI
 40
2.5
  9
$DIMRND
 40
0.0
  9
$DIMDLE
 40
0.0
  9
$DIMEXE
 40
1.0
  9
$DIMTP
 40
0.0
  9
$DIMTM
 40
0.0
  9
$DIMTXT
 40
2.799999999999998
  9
$DIMCEN
 40
0.0
  9
$DIMTSZ
 40
0.0
  9
$DIMTOL
 70
     0
  9
$DIMLIM
 70
     0
  9
$DIMTIH
 70
     0
  9
$DIMTOH
 70
     0
  9
$DIMSE1
 70
     0
  9
$DIMSE2
 70
     0
  9
$DIMTAD
 70
     3
  9
$DIMZIN
 70
     8
  9
$DIMBLK
  1

  9
$DIMASO
 70
     1
  9
$DIMSHO
 70
     1
  9
$DIMPOST
  1

  9
$DIMAPOST
  1

  9
$DIMALT
 70
     0
  9
$DIMALTD
 70
     2
  9
$DIMALTF
 40
25.399999999999999
  9
$DIMLFAC
 40
1.0
  9
$DIMTOFL
 70
     1
  9
$DIMTVP
 40
0.0
  9
$DIMTIX
 70
     1
  9
$DIMSOXD
 70
     0
  9
$DIMSAH
 70
     1
  9
$DIMBLK1
  1
OPEN
  9
$DIMBLK2
  1
OPEN
  9
$DIMSTYLE
  2
BIGT
  9
$DIMCLRD
 70
   256
  9
$DIMCLRE
 70
   256
  9
$DIMCLRT
 70
    40
  9
$DIMTFAC
 40
1.0
  9
$DIMGAP
 40
1.0
  9
$LUNITS
 70
     2
  9
$LUPREC
 70
     3
  9
$SKETCHINC
 40
1.0
  9
$FILLETRAD
 40
0.0
  9
$AUNITS
 70
     0
  9
$AUPREC
 70
     3
  9
$MENU
  1
.
  9
$ELEVATION
 40
0.0
  9
$PELEVATION
 40
0.0
  9
$THICKNESS
 40
0.0
  9
$LIMCHECK
 70
     0
  9
$BLIPMODE
 70
     0
  9
$CHAMFERA
 40
10.0
  9
$CHAMFERB
 40
10.0
  9
$SKPOLY
 70
     0
  9
$TDCREATE
 40
2456744.449162859
  9
$TDUPDATE
 40
2457371.5804812382
  9
$TDINDWG
 40
0.2797555208
  9
$TDUSRTIMER
 40
0.2797346991
  9
$USRTIMER
 70
     1
  9
$ANGBASE
 50
0.0
  9
$ANGDIR
 70
     0
  9
$PDMODE
 70
     0
  9
$PDSIZE
 40
-5.0
  9
$PLINEWID
 40
0.0
  9
$COORDS
 70
     1
  9
$SPLFRAME
 70
     0
  9
$SPLINETYPE
 70
     6
  9
$SPLINESEGS
 70
     8
  9
$ATTDIA
 70
     1
  9
$ATTREQ
 70
     1
  9
$HANDLING
 70
     1
  9
$HANDSEED
  5
1526
  9
$SURFTAB1
 70
     6
  9
$SURFTAB2
 70
     6
  9
$SURFTYPE
 70
     6
  9
$SURFU
 70
     6
  9
$SURFV
 70
     6
  9
$UCSNAME
  2

  9
$UCSORG
 10
0.0
 20
0.0
 30
0.0
  9
$UCSXDIR
 10
1.0
 20
0.0
 30
0.0
  9
$UCSYDIR
 10
0.0
 20
1.0
 30
0.0
  9
$PUCSNAME
  2

  9
$PUCSORG
 10
0.0
 20
0.0
 30
0.0
  9
$PUCSXDIR
 10
1.0
 20
0.0
 30
0.0
  9
$PUCSYDIR
 10
0.0
 20
1.0
 30
0.0
  9
$USERI1
 70
     1
  9
$USERI2
 70
     0
  9
$USERI3
 70
     0
  9
$USERI4
 70
     0
  9
$USERI5
 70
     0
  9
$USERR1
 40
0.0
  9
$USERR2
 40
0.0
  9
$USERR3
 40
0.0
  9
$USERR4
 40
0.0
  9
$USERR5
 40
0.0
  9
$WORLDVIEW
 70
     1
  9
$SHADEDGE
 70
     3
  9
$SHADEDIF
 70
    70
  9
$TILEMODE
 70
     1
  9
$MAXACTVP
 70
    16
  9
$PLIMCHECK
 70
     0
  9
$PEXTMIN
 10
1.0000000000000000E+020
 20
1.0000000000000000E+020
 30
1.0000000000000000E+020
  9
$PEXTMAX
 10
-1.0000000000000000E+020
 20
-1.0000000000000000E+020
 30
-1.0000000000000000E+020
  9
$PLIMMIN
 10
0.0
 20
0.0
  9
$PLIMMAX
 10
420.0
 20
297.0
  9
$UNITMODE
 70
     0
  9
$VISRETAIN
 70
     0
  9
$PLINEGEN
 70
     0
  9
$PSLTSCALE
 70
     1
  0
ENDSEC
  0
SECTION
  2
TABLES
  0
TABLE
  2
VPORT
 70
     1
  0
VPORT
  2
*ACTIVE
 70
     0
 10
0.0
 20
0.0
 11
1.0
 21
1.0
 12
16.764407805081191
 22
12.27202764386214
 13
0.0
 23
0.0
 14
7.0
 24
7.0
 15
7.0
 25
7.0
 16
0.0
 26
0.0
 36
1.0
 17
0.0
 27
0.0
 37
0.0
 40
48.792225475156663
 41
1.397993311036789
 42
50.0
 43
0.0
 44
0.0
 50
0.0
 51
0.0
 71
     0
 72
 20000
 73
     1
 74
     0
 75
     0
 76
     1
 77
     0
 78
     0
  0
ENDTAB
  0
TABLE
  2
LTYPE
 70
    21
  0
LTYPE
  2
CONTINUOUS
 70
     0
  3
Solid line
 72
    65
 73
     0
 40
0.0
  0
LTYPE
  2
CENTER2
 70
     0
  3
___ _ ___ _ ___ _ ___ _ ___ _ ___ _ ___ _ ___ _
 72
    65
 73
     4
 40
1.125
 49
0.75
 49
-0.125
 49
0.125
 49
-0.125
  0
LTYPE
  2
PHANTOM2
 70
     0
  3
___ _ _ ___ _ _ ___ _ _ ___ _ _ ___ _ _ ___ _ _
 72
    65
 73
     6
 40
1.25
 49
0.625
 49
-0.125
 49
0.125
 49
-0.125
 49
0.125
 49
-0.125
  0
LTYPE
  2
HIDDEN2
 70
     0
  3
_ _ _ _ _ _ _ _ _ _ _ _ _ _ _ _ _ _ _ _ _ _ _ _
 72
    65
 73
     2
 40
0.1875
 49
0.125
 49
-0.0625
  0
LTYPE
  2
AMCONSTR
 70
     0
  3
_______________________
 72
    65
 73
     2
 40
9999.0
 49
9999.0
 49
0.0
  0
LTYPE
  2
HIDDEN
 70
     0
  3
Hidden __ __ __ __ __ __ __ __ __ __ __ __ __ _
 72
    65
 73
     2
 40
0.375
 49
0.25
 49
-0.125
  0
LTYPE
  2
CENTER
 70
     0
  3
Center ____ _ ____ _ ____ _ ____ _ ____ _ ____
 72
    65
 73
     4
 40
2.0
 49
1.25
 49
-0.25
 49
0.25
 49
-0.25
  0
LTYPE
  2
AMZIGZAG2
 70
     0
  3
/\/-/\/-/\/-/\/-/\/-/\/
 72
    65
 73
     2
 40
0.4401
 49
0.0001
 49
-0.4400000000000001
  0
LTYPE
  2
ACANSTGB
 70
     0
  3
__ . . __ . .
 72
    65
 73
     6
 40
0.35433070866
 49
0.15748031496
 49
-0.03937007874
 49
0.03937007874
 49
-0.03937007874
 49
0.03937007874
 49
-0.03937007874
  0
LTYPE
  2
ACANSTGL
 70
     0
  3
_ _ _ _ _
 72
    65
 73
     2
 40
0.11811023622
 49
0.07874015748
 49
-0.03937007874
  0
ENDTAB
  0
TABLE
  2
LAYER
 70
     7
  0
LAYER
  2
0
 70
     0
 62
     7
  6
CONTINUOUS
  0
LAYER
  2
240
 70
     0
 62
     4
  6
CONTINUOUS
  0
LAYER
  2
241
 70
     0
 62
   211
  6
CONTINUOUS
  0
LAYER
  2
245
 70
     0
 62
     2
  6
CENTER2
  0
LAYER
  2
250
 70
     0
 62
     3
  6
CONTINUOUS
  0
LAYER
  2
DEFPOINTS
 70
     0
 62
     7
  6
CONTINUOUS
  0
LAYER
  2
247
 70
     0
 62
    60
  6
CONTINUOUS
  0
ENDTAB
  0
TABLE
  2
STYLE
 70
    10
  0
STYLE
  2
STANDARD
 70
     0
 40
0.0
 41
1.0
 50
0.0
 71
     0
 42
2.799999999999998
  3
romans.shx
  4
BIGFONT.SHX
  0
STYLE
  2
YOKO
 70
     0
 40
0.0
 41
1.0
 50
0.0
 71
     0
 42
3.0
  3
romans.shx
  4
extfont.shx
  0
STYLE
  2

 70
     1
 40
0.0
 41
1.0
 50
0.0
 71
     0
 42
3.0
  3
genltshp.shx
  4

  0
STYLE
  2
ACANSGDT
 70
     0
 40
0.0
 41
1.0
 50
0.0
 71
     0
 42
3.0
  3
amgdt.shx
  4

  0
ENDTAB
  0
TABLE
  2
VIEW
 70
     0
  0
ENDTAB
  0
TABLE
  2
UCS
 70
     0
  0
ENDTAB
  0
TABLE
  2
APPID
 70
    42
  0
APPID
  2
ACAD
 70
     0
  0
APPID
  2
ACADANNOTATIVE
 70
     0
  0
APPID
  2
GLOBAL
 70
     0
  0
APPID
  2
DETAIL
 70
     0
  0
APPID
  2
GRPNAME
 70
     0
  0
APPID
  2
GPARA
 70
     0
  0
APPID
  2
DCO15
 70
     0
  0
APPID
  2
ITEMNAME
 70
     0
  0
APPID
  2
GRADE_0
 70
     0
  0
APPID
  2
GENIUS_GENODEF_13
 70
     0
  0
APPID
  2
GENIUS_GENOBJ-N-FIL_13
 70
     0
  0
APPID
  2
ACAD_NAV_VCDISPLAY
 70
     0
  0
APPID
  2
ACAD_PSEXT
 70
     0
  0
APPID
  2
ASKLEADERCHILD
 70
     0
  0
APPID
  2
ASK_MEN_XD
 70
     0
  0
APPID
  2
MCAD_NO_VIS
 70
     0
  0
APPID
  2
ACAD_TEMP_GRAPHIC
 70
     0
  0
APPID
  2
ACATTRIBSERVICES
 70
     0
  0
APPID
  2
GENIUS_GENSCREG_15
 70
     0
  0
APPID
  2
GENIUS_GENOBJ-N-SDF_13
 70
     0
  0
APPID
  2
GENIUS_GENREC_14
 70
     0
  0
APPID
  2
GENIUS_GENOBJ-N-REC_13
 70
     0
  0
APPID
  2
GENIUS_GENDIMSH_14
 70
     0
  0
APPID
  2
GENIUS_GENOBJ-N-DIM_13
 70
     0
  0
APPID
  2
GENIUS_GENDIM_13
 70
     0
  0
APPID
  2
GENIUS_GENDTOL_13
 70
     0
  0
APPID
  2
GENIUS_GENOLIS_13
 70
     0
  0
APPID
  2
GENIUS_GENOENT_13
 70
     0
  0
APPID
  2
GENIUS_GENOBJ-F-FEM_13
 70
     0
  0
APPID
  2
GENIUS_GENOREF_13
 70
     0
  0
APPID
  2
GENIUS_GEFFEM_13
 70
     0
  0
APPID
  2
GENIUS_GEFFEMP_13
 70
     0
  0
APPID
  2
AD_DRAW
 70
     0
  0
APPID
  2
DESIGNERASSEMBLIES
 70
     0
  0
APPID
  2
ACADM_DIM_EDIT
 70
     0
  0
APPID
  2
AMDT_DM_ADJ
 70
     0
  0
APPID
  2
GENIUS_GENFIL_13
 70
     0
  0
APPID
  2
GENIUS_GENOBJ-N-CHA_13
 70
     0
  0
APPID
  2
ACAD_EXEMPT_FROM_CAD_STANDARDS
 70
     0
  0
APPID
  2
ACAD_MLEADERVER
 70
     0
  0
APPID
  2
ACAD_DSTYLE_DIMJAG
 70
     0
  0
APPID
  2
ACAD_DSTYLE_DIMBREAK
 70
     0
  0
ENDTAB
  0
TABLE
  2
DIMSTYLE
 70
    31
  0
DIMSTYLE
  2
STANDARD
 70
     0
  3

  4

  5

  6

  7

 40
1.0
 41
0.18
 42
0.0625
 43
0.38
 44
0.18
 45
0.0
 46
0.0
 47
0.0
 48
0.0
140
0.18
141
0.09
142
0.0
143
25.399999999999999
144
1.0
145
0.0
146
1.0
147
0.09
 71
     0
 72
     0
 73
     1
 74
     1
 75
     0
 76
     0
 77
     0
 78
     0
170
     0
171
     2
172
     0
173
     0
174
     0
175
     0
176
     0
177
     0
178
     0
  0
DIMSTYLE
  2
BIGT
 70
     0
  3

  4

  5

  6

  7

 40
1.0
 41
2.2299999999999991
 42
0.5
 43
7.0
 44
1.0
 45
0.0
 46
0.0
 47
0.0
 48
0.01
140
2.799999999999998
141
0.0
142
0.0
143
25.399999999999999
144
1.0
145
0.0
146
1.0
147
1.0
 71
     0
 72
     0
 73
     0
 74
     0
 75
     0
 76
     0
 77
     3
 78
     9
170
     0
171
     2
172
     1
173
     0
174
     1
175
     0
176
   256
177
   256
178
    40
  0
DIMSTYLE
  2
AM_ANSI
 70
     0
  3

  4
mm
  5

  6

  7

 40
1.0
 41
0.12
 42
0.05
 43
0.5
 44
0.1
 45
0.0
 46
0.0
 47
0.1
 48
0.1
140
0.12
141
0.0
142
0.0
143
25.399999999999999
144
1.0
145
0.0
146
0.71
147
0.06
 71
     0
 72
     0
 73
     1
 74
     1
 75
     0
 76
     0
 77
     0
 78
     7
170
     0
171
     2
172
     0
173
     0
174
     0
175
     0
176
   256
177
   256
178
     2
  0
DIMSTYLE
  2
AM_ANSI$3
 70
     0
  3

  4
mm
  5

  6

  7

 40
1.0
 41
0.12
 42
0.05
 43
0.5
 44
0.1
 45
0.0
 46
0.0
 47
0.1
 48
0.1
140
0.12
141
0.0
142
0.0
143
25.399999999999999
144
1.0
145
0.0
146
0.71
147
0.06
 71
     0
 72
     0
 73
     1
 74
     1
 75
     0
 76
     0
 77
     0
 78
     7
170
     0
171
     2
172
     0
173
     0
174
     0
175
     0
176
   256
177
   256
178
     2
  0
DIMSTYLE
  2
AM_ANSI$4
 70
     0
  3

  4
mm
  5

  6

  7

 40
1.0
 41
0.12
 42
0.05
 43
0.5
 44
0.1
 45
0.0
 46
0.0
 47
0.1
 48
0.1
140
0.12
141
0.0
142
0.0
143
25.399999999999999
144
1.0
145
0.0
146
0.71
147
0.06
 71
     0
 72
     0
 73
     1
 74
     1
 75
     0
 76
     0
 77
     0
 78
     7
170
     0
171
     2
172
     0
173
     0
174
     0
175
     0
176
   256
177
   256
178
     2
  0
DIMSTYLE
  2
AM_ANSI$7
 70
     0
  3

  4
mm
  5

  6

  7

 40
1.0
 41
0.12
 42
0.05
 43
0.5
 44
0.1
 45
0.0
 46
0.0
 47
0.1
 48
0.1
140
0.12
141
0.0
142
0.0
143
25.399999999999999
144
1.0
145
0.0
146
0.71
147
0.06
 71
     0
 72
     0
 73
     1
 74
     1
 75
     0
 76
     0
 77
     0
 78
     7
170
     0
171
     2
172
     0
173
     0
174
     0
175
     0
176
   256
177
   256
178
     2
  0
DIMSTYLE
  2
AM_ANSI$SF
 70
     0
  3

  4
mm
  5

  6

  7

 40
1.0
 41
0.12
 42
0.05
 43
0.5
 44
0.1
 45
0.0
 46
0.0
 47
0.1
 48
0.1
140
0.12
141
0.0
142
0.0
143
25.399999999999999
144
1.0
145
0.0
146
0.71
147
0.06
 71
     0
 72
     0
 73
     1
 74
     1
 75
     1
 76
     1
 77
     0
 78
     7
170
     0
171
     2
172
     0
173
     0
174
     0
175
     0
176
   256
177
   256
178
     2
  0
DIMSTYLE
  2
AM_ANSI$SH
 70
     0
  3

  4
mm
  5

  6
GENAXEH
  7

 40
1.0
 41
0.12
 42
0.05
 43
0.5
 44
0.1
 45
0.0
 46
0.0
 47
0.1
 48
0.1
140
0.12
141
0.0
142
0.0
143
25.399999999999999
144
1.0
145
0.0
146
0.71
147
0.06
 71
     0
 72
     0
 73
     1
 74
     1
 75
     1
 76
     1
 77
     0
 78
     7
170
     0
171
     2
172
     0
173
     1
174
     0
175
     0
176
   256
177
   256
178
     2
  0
ENDTAB
  0
ENDSEC
  0
SECTION
  2
BLOCKS
  0
BLOCK
  8
0
  2
$MODEL_SPACE
 70
     0
 10
0.0
 20
0.0
 30
0.0
  3
$MODEL_SPACE
  1

  0
ENDBLK
  5
139C
  8
0
  0
BLOCK
 67
     1
  8
0
  2
$PAPER_SPACE
 70
     0
 10
0.0
 20
0.0
 30
0.0
  3
$PAPER_SPACE
  1

  0
ENDBLK
  5
1398
 67
     1
  8
0
  0
BLOCK
  8
0
  2
_OPEN
 70
     0
 10
0.0
 20
0.0
 30
0.0
  3
_OPEN
  1

  0
LINE
  5
11A3
  8
0
  6
BYBLOCK
 62
     0
 10
-1.0
 20
0.1666666666666666
 30
0.0
 11
0.0
 21
0.0
 31
0.0
  0
LINE
  5
11A4
  8
0
  6
BYBLOCK
 62
     0
 10
-1.0
 20
-0.1666666666666666
 30
0.0
 11
0.0
 21
0.0
 31
0.0
  0
LINE
  5
11A5
  8
0
  6
BYBLOCK
 62
     0
 10
0.0
 20
0.0
 30
0.0
 11
-1.0
 21
0.0
 31
0.0
  0
ENDBLK
  5
11A6
  8
0
  0
BLOCK
  8
0
  2
矢印なし
 70
     0
 10
0.0
 20
0.0
 30
0.0
  3
矢印なし
  1

  0
ENDBLK
  5
6E5
  8
0
  0
BLOCK
  8
0
  2
GENAXEH
 70
     0
 10
0.0
 20
0.0
 30
0.0
  3
GENAXEH
  1

  0
LINE
  5
11DE
  8
0
 10
-1.0
 20
0.0
 30
0.0
 11
1.0
 21
0.0
 31
0.0
  0
ENDBLK
  5
11DF
  8
0
  0
BLOCK
  8
0
  2
_ACMFILLEDHALF
 70
     0
 10
0.0
 20
0.0
 30
0.0
  3
_ACMFILLEDHALF
  1

  0
TRACE
  5
1461
  8
240
 62
     0
 10
-0.8
 20
0.0
 30
0.0
 11
-1.0
 21
0.166666666
 31
0.0
 12
0.0
 22
0.0
 32
0.0
 13
0.0
 23
0.0
 33
0.0
  0
LINE
  5
1462
  8
240
 62
     0
 10
-1.0
 20
0.0
 30
0.0
 11
-0.8
 21
0.0
 31
0.0
  0
ENDBLK
  5
1460
  8
0
  0
ENDSEC
  0
SECTION
  2
ENTITIES
  0
INSERT
  5
6E6
  8
245
  2
矢印なし
 10
175.62382696643769
 20
90.55123571690595
 30
0.0
  0
TEXT
  5
8A8
  8
241
 10
0.0000000000012644
 20
31.499999999999581
 30
0.0
 40
5.0
  1
MW1619E
  7
YOKO
 11
0.0000000000012644
 21
31.499999999999581
 31
0.0
 73
     1
  0
LINE
  5
124B
  8
240
  6
CONTINUOUS
 10
9.9999999999998685
 20
3.950559289588023
 30
0.0
 11
9.9999999999998685
 21
7.4030097699995521
 31
0.0
  0
LINE
  5
124C
  8
241
  6
CONTINUOUS
 10
5.3799999999998631
 20
3.276990223281667
 30
0.0
 11
5.3799999999998631
 21
6.7294407036931991
 31
0.0
  0
LINE
  5
124E
  8
241
  6
CONTINUOUS
 10
5.8494592710666309
 20
2.883067122076818
 30
0.0
 11
9.6694592710666232
 21
3.5566361883831461
 31
0.0
  0
ARC
  5
124F
  8
240
  6
CONTINUOUS
 10
9.5999999999998682
 20
7.4030097699995521
 30
0.0
 40
0.4
 50
0.0
 51
100.0000000000001
1001
GENIUS_GENOBJ-N-FIL_13
1002
{
1000
OWNER
1000
GEN
1002
}
1001
GENIUS_GENODEF_13
1002
{
1000
HIER
1070
     0
1002
}
1002
{
1000
MANEDIT
1070
     0
1002
}
1002
{
1000
NOSEL
1070
     0
1002
}
1002
{
1000
BEHIND
1070
     0
1002
}
1002
{
1000
OTHER
1070
     0
1002
}
1002
{
1000
REACTOR
1002
}
  0
ARC
  5
1250
  8
241
  6
CONTINUOUS
 10
5.779999999999867
 20
6.7294407036932542
 30
0.0
 40
0.4
 50
99.999999999998565
 51
180.0
1001
GENIUS_GENOBJ-N-FIL_13
1002
{
1000
OWNER
1000
GEN
1002
}
1001
GENIUS_GENODEF_13
1002
{
1000
HIER
1070
     0
1002
}
1002
{
1000
MANEDIT
1070
     0
1002
}
1002
{
1000
NOSEL
1070
     0
1002
}
1002
{
1000
BEHIND
1070
     0
1002
}
1002
{
1000
OTHER
1070
     0
1002
}
1002
{
1000
REACTOR
1002
}
  0
ARC
  5
1251
  8
241
  6
CONTINUOUS
 10
5.779999999999867
 20
3.276990223281667
 30
0.0
 40
0.4
 50
180.0
 51
279.99999999999852
1001
GENIUS_GENOBJ-N-FIL_13
1002
{
1000
OWNER
1000
GEN
1002
}
1001
GENIUS_GENODEF_13
1002
{
1000
HIER
1070
     0
1002
}
1002
{
1000
MANEDIT
1070
     0
1002
}
1002
{
1000
NOSEL
1070
     0
1002
}
1002
{
1000
BEHIND
1070
     0
1002
}
1002
{
1000
OTHER
1070
     0
1002
}
1002
{
1000
REACTOR
1002
}
  0
LINE
  5
1253
  8
240
  6
CONTINUOUS
 10
0.0000000000011511
 20
7.499350621967662
 30
0.0
 11
5.57500000000688
 21
7.4993506219676771
 31
0.0
  0
LINE
  5
1254
  8
240
  6
CONTINUOUS
 10
9.7999999999999101
 20
1.6971608935821441
 30
0.0
 11
9.7999999999999101
 21
3.604149128073681
 31
0.0
  0
LINE
  5
1255
  8
240
  6
CONTINUOUS
 10
9.4710100716627448
 20
1.2273145831892081
 30
0.0
 11
6.3159597133485592
 21
0.0789701651518999
 31
0.0
  0
ARC
  5
1256
  8
240
  6
CONTINUOUS
 10
9.2999999999999101
 20
1.6971608935821441
 30
0.0
 40
0.5
 50
290.0
 51
0.0
1001
ASK_MEN_XD
1005
1254
1070
     0
1005
1255
1070
     0
  0
LINE
  5
1258
  8
241
  6
CONTINUOUS
 10
1.3999999999999031
 20
7.4993506219675714
 30
0.0
 11
1.3999999999999031
 21
5.30000000000061
 31
0.0
  0
LINE
  5
1259
  8
240
  6
CONTINUOUS
 10
5.57500000000688
 20
7.4993506219676771
 30
0.0
 11
5.5749999999998829
 21
7.2357245780080701
 31
0.0
  0
LINE
  5
125D
  8
240
  6
CONTINUOUS
 10
5.5749999999998829
 20
7.2357245780080701
 30
0.0
 11
6.3477703387172051
 21
7.2357245780097763
 31
0.0
  0
ARC
  5
125E
  8
240
  6
CONTINUOUS
 10
6.999999999999897
 20
-1.8004150764198501
 30
0.0
 40
2.0000000000000031
 50
110.0
 51
115.8146393691943
  0
LINE
  5
125F
  8
245
  6
CENTER2
 10
-0.9999999999999284
 20
0.0000000000000699
 30
0.0
 11
7.1290777574310571
 21
-0.0000000000004986
 31
0.0
  0
ARC
  5
1261
  8
241
  6
CONTINUOUS
 10
9.5999999999998682
 20
3.950559289588023
 30
0.0
 40
0.4
 50
279.99999999999852
 51
299.99999999980082
1001
GENIUS_GENODEF_13
1002
{
1000
HIER
1070
     0
1002
}
1002
{
1000
MANEDIT
1070
     0
1002
}
1002
{
1000
NOSEL
1070
     0
1002
}
1002
{
1000
BEHIND
1070
     0
1002
}
1002
{
1000
OTHER
1070
     0
1002
}
1002
{
1000
REACTOR
1002
}
1001
GENIUS_GENOBJ-N-FIL_13
1002
{
1000
OWNER
1000
GEN
1002
}
  0
ARC
  5
1262
  8
240
  6
CONTINUOUS
 10
9.5999999999998682
 20
3.950559289588023
 30
0.0
 40
0.4
 50
299.99999999980082
 51
0.0
1001
GENIUS_GENODEF_13
1002
{
1000
HIER
1070
     0
1002
}
1002
{
1000
MANEDIT
1070
     0
1002
}
1002
{
1000
NOSEL
1070
     0
1002
}
1002
{
1000
BEHIND
1070
     0
1002
}
1002
{
1000
OTHER
1070
     0
1002
}
1002
{
1000
REACTOR
1002
}
1001
GENIUS_GENOBJ-N-FIL_13
1002
{
1000
OWNER
1000
GEN
1002
}
  0
LINE
  5
1263
  8
240
  6
CONTINUOUS
 10
9.5305407289331026
 20
7.7969328712044543
 30
0.0
 11
6.3477703387172051
 21
7.2357245780097763
 31
0.0
  0
LINE
  5
1264
  8
241
  6
CONTINUOUS
 10
5.7105407289331049
 20
7.1233638048981023
 30
0.0
 11
6.3477703386794921
 21
7.2357245780075443
 31
0.0
  0
LINE
  5
1265
  8
240
  6
CONTINUOUS
 10
9.9999999999993197
 20
-3.950559289589421
 30
0.0
 11
9.9999999999988312
 21
-7.4030097700009474
 31
0.0
  0
ARC
  5
1268
  8
240
  6
CONTINUOUS
 10
9.599999999998829
 20
-7.4030097700008941
 30
0.0
 40
0.4
 50
259.99999999999199
 51
359.99999999999199
1001
GENIUS_GENOBJ-N-FIL_13
1002
{
1000
OWNER
1000
GEN
1002
}
1001
GENIUS_GENODEF_13
1002
{
1000
HIER
1070
     0
1002
}
1002
{
1000
MANEDIT
1070
     0
1002
}
1002
{
1000
NOSEL
1070
     0
1002
}
1002
{
1000
BEHIND
1070
     0
1002
}
1002
{
1000
OTHER
1070
     0
1002
}
1002
{
1000
REACTOR
1002
}
  0
LINE
  5
1269
  8
240
  6
CONTINUOUS
 10
-0.000000000001151
 20
-7.4993506219676611
 30
0.0
 11
5.575000000005824
 21
-7.4993506219684543
 31
0.0
  0
LINE
  5
126A
  8
240
  6
CONTINUOUS
 10
9.7999999999996774
 20
-1.6971608935835141
 30
0.0
 11
9.7999999999994056
 21
-3.6041491280750511
 31
0.0
  0
LINE
  5
126B
  8
240
  6
CONTINUOUS
 10
9.4710100716625742
 20
-1.2273145831905321
 30
0.0
 11
6.3159597133485468
 21
-0.0789701651527834
 31
0.0
  0
ARC
  5
126C
  8
240
  6
CONTINUOUS
 10
9.2999999999996774
 20
-1.697160893583445
 30
0.0
 40
0.5
 50
359.99999999999199
 51
69.999999999992141
1001
ASK_MEN_XD
1005
1254
1070
     0
1005
1255
1070
     0
  0
LINE
  5
126D
  8
240
  6
CONTINUOUS
 10
5.575000000005824
 20
-7.4993506219684543
 30
0.0
 11
5.5749999999988731
 21
-7.2357245780088464
 31
0.0
  0
LINE
  5
126E
  8
241
  6
CONTINUOUS
 10
5.0000000000001448
 20
1.7969902299997571
 30
0.0
 11
5.000000000000556
 21
4.699999999999692
 31
0.0
  0
LINE
  5
126F
  8
241
  6
CONTINUOUS
 10
2.7607695154600238
 20
5.2999999999998941
 30
0.0
 11
5.000000000000556
 21
4.699999999999692
 31
0.0
  0
LINE
  5
1270
  8
241
  6
CONTINUOUS
 10
2.7607695154600238
 20
5.2999999999998941
 30
0.0
 11
0.0000000000008101
 21
5.3000000000013454
 31
0.0
  0
LINE
  5
1272
  8
240
  6
CONTINUOUS
 10
0.0000000000011511
 20
7.499350621967662
 30
0.0
 11
-0.000000000001151
 21
-7.4993506219676611
 31
0.0
  0
LINE
  5
1273
  8
240
  6
CONTINUOUS
 10
5.5749999999988731
 20
-7.2357245780088464
 30
0.0
 11
6.3477703387161979
 21
-7.23572457801066
 31
0.0
  0
ARC
  5
1274
  8
240
  6
CONTINUOUS
 10
9.5999999999993104
 20
-3.9505592895893642
 30
0.0
 40
0.4
 50
359.99999999999199
 51
60.000000000191342
1001
GENIUS_GENODEF_13
1002
{
1000
HIER
1070
     0
1002
}
1002
{
1000
MANEDIT
1070
     0
1002
}
1002
{
1000
NOSEL
1070
     0
1002
}
1002
{
1000
BEHIND
1070
     0
1002
}
1002
{
1000
OTHER
1070
     0
1002
}
1002
{
1000
REACTOR
1002
}
1001
GENIUS_GENOBJ-N-FIL_13
1002
{
1000
OWNER
1000
GEN
1002
}
  0
LINE
  5
1275
  8
240
  6
CONTINUOUS
 10
9.5305407289320154
 20
-7.7969328712057848
 30
0.0
 11
6.3477703387039348
 21
-7.2357245780084991
 31
0.0
  0
LINE
  5
1278
  8
241
  6
CONTINUOUS
 10
9.8000000000000131
 20
-3.599635012780801
 30
0.0
 11
9.6003019529952383
 21
-3.7424500799707561
 31
0.0
  0
LINE
  5
127A
  8
241
  6
CONTINUOUS
 10
9.6003019529952383
 20
-3.7424500799707561
 30
0.0
 11
9.6003019529952383
 21
-7.3933480496402009
 31
0.0
  0
LINE
  5
127B
  8
241
  6
CONTINUOUS
 10
8.7000000000000028
 20
-7.2357245780084991
 30
0.0
 11
6.347770338703933
 21
-7.2357245780084991
 31
0.0
  0
ARC
  5
127D
  8
241
  6
CONTINUOUS
 10
7.0000000000001421
 20
1.80041507641887
 30
0.0
 40
2.0000000000000031
 50
180.09811467060041
 51
244.18536063079759
  0
ARC
  5
127E
  8
240
  6
CONTINUOUS
 10
7.0000000000001421
 20
1.80041507641887
 30
0.0
 40
2.0000000000000031
 50
244.18536063079759
 51
249.99999999999179
  0
LINE
  5
129A
  8
241
  6
CONTINUOUS
 10
9.6003019529952383
 20
-7.3933480496402009
 30
0.0
 11
8.7000000000000028
 21
-7.2357245780084991
 31
0.0
  0
LINE
  5
129E
  8
250
  6
CONTINUOUS
 10
0.0000000000011507
 20
7.9993506219676611
 30
0.0
 11
0.0000000000011514
 21
18.49999999999957
 31
0.0
  0
LINE
  5
129F
  8
250
  6
CONTINUOUS
 10
10.000000000001121
 20
7.9030097699995476
 30
0.0
 11
10.000000000001121
 21
18.49999999999957
 31
0.0
  0
LINE
  5
12A0
  8
250
  6
CONTINUOUS
 10
2.0000000000011511
 20
17.49999999999957
 30
0.0
 11
8.0000000000011209
 21
17.49999999999957
 31
0.0
  0
LINE
  5
12A4
  8
250
  6
CONTINUOUS
 10
10.099999999998831
 20
-7.80300977000089
 30
0.0
 11
22.000000000001162
 21
-7.803009770000898
 31
0.0
  0
LINE
  5
12A5
  8
250
  6
CONTINUOUS
 10
10.100000000001121
 20
7.803009769999556
 30
0.0
 11
22.000000000001162
 21
7.8030097699995533
 31
0.0
  0
LINE
  5
12A6
  8
250
  6
CONTINUOUS
 10
21.000000000001151
 20
-5.803009770000898
 30
0.0
 11
21.000000000001151
 21
5.8030097699995533
 31
0.0
  0
TEXT
  5
12AD
  8
250
  6
CONTINUOUS
 10
2.1333333333344711
 20
18.49999999999957
 30
0.0
 40
2.799999999999998
  1
10
1001
ACAD
1000
MTEXTBEGIN
1070
    73
1070
     1
1070
    44
1040
1.0
1070
    74
1070
     0
1000
MTEXTEND
  0
LINE
  5
12AE
  8
250
  6
CONTINUOUS
 10
8.0000000000011191
 20
17.833333333332899
 30
0.0
 11
10.000000000001121
 21
17.49999999999957
 31
0.0
  0
LINE
  5
12AF
  8
250
  6
CONTINUOUS
 10
8.0000000000011191
 20
17.166666666666242
 30
0.0
 11
10.000000000001121
 21
17.49999999999957
 31
0.0
  0
LINE
  5
12B0
  8
250
  6
CONTINUOUS
 10
10.000000000001121
 20
17.49999999999957
 30
0.0
 11
8.0000000000011191
 21
17.49999999999957
 31
0.0
  0
LINE
  5
12B1
  8
250
  6
CONTINUOUS
 10
2.0000000000011511
 20
17.166666666666242
 30
0.0
 11
0.0000000000011513
 21
17.49999999999957
 31
0.0
  0
LINE
  5
12B2
  8
250
  6
CONTINUOUS
 10
2.0000000000011511
 20
17.833333333332899
 30
0.0
 11
0.0000000000011513
 21
17.49999999999957
 31
0.0
  0
LINE
  5
12B3
  8
250
  6
CONTINUOUS
 10
0.0000000000011513
 20
17.49999999999957
 30
0.0
 11
2.0000000000011511
 21
17.49999999999957
 31
0.0
  0
TEXT
  5
12B4
  8
250
  6
CONTINUOUS
 10
19.533333333334479
 20
-13.26666666666733
 30
0.0
 40
2.799999999999998
  1
（\U+03C616～\U+03C619）
 50
90.0
1001
ACAD
1000
MTEXTBEGIN
1070
    73
1070
     1
1070
    44
1040
1.0
1070
    74
1070
     0
1000
MTEXTEND
  0
LINE
  5
12B5
  8
250
  6
CONTINUOUS
 10
20.666666666667808
 20
5.8030097699995533
 30
0.0
 11
21.000000000001151
 21
7.8030097699995533
 31
0.0
  0
LINE
  5
12B6
  8
250
  6
CONTINUOUS
 10
21.33333333333448
 20
5.8030097699995533
 30
0.0
 11
21.000000000001151
 21
7.8030097699995533
 31
0.0
  0
LINE
  5
12B7
  8
250
  6
CONTINUOUS
 10
21.000000000001151
 20
7.8030097699995533
 30
0.0
 11
21.000000000001151
 21
5.8030097699995533
 31
0.0
  0
LINE
  5
12B8
  8
250
  6
CONTINUOUS
 10
21.33333333333448
 20
-5.803009770000898
 30
0.0
 11
21.000000000001151
 21
-7.803009770000898
 31
0.0
  0
LINE
  5
12B9
  8
250
  6
CONTINUOUS
 10
20.666666666667808
 20
-5.803009770000898
 30
0.0
 11
21.000000000001151
 21
-7.803009770000898
 31
0.0
  0
LINE
  5
12BA
  8
250
  6
CONTINUOUS
 10
21.000000000001151
 20
-7.803009770000898
 30
0.0
 11
21.000000000001151
 21
-5.803009770000898
 31
0.0
  0
LINE
  5
14B7
  8
247
  6
CONTINUOUS
 10
3.9234071096134171
 20
-5.2493506219683592
 30
0.0
 11
3.9234071096134739
 21
-0.6147352376383833
 31
0.0
  0
LINE
  5
14B8
  8
247
  6
CONTINUOUS
 10
1.4234071096134739
 20
-4.4542441219563003
 30
0.0
 11
3.5234071095294821
 21
-5.0564094320257151
 31
0.0
  0
LINE
  5
14B9
  8
247
  6
CONTINUOUS
 10
2.4195609557274729
 20
-3.8245020254873889
 30
0.0
 11
2.4195609557274729
 21
-4.7398866408353921
 31
0.0
  0
ARC
  5
14BA
  8
247
  6
CONTINUOUS
 10
1.8081261769075749
 20
-3.5866140239151578
 30
0.0
 40
0.3876715809326743
 50
72.997889675291972
 51
172.92416621851231
  0
ARC
  5
14BB
  8
247
  6
CONTINUOUS
 10
1.72863024064149
 20
-3.8818281787724631
 30
0.0
 40
0.6933047965358768
 50
4.7429368522013959
 51
73.849226273266311
1001
GENIUS_GENOBJ-N-FIL_13
1002
{
1000
OWNER
1000
GEN
1002
}
1001
GENIUS_GENODEF_13
1002
{
1000
HIER
1070
     0
1002
}
1002
{
1000
MANEDIT
1070
     0
1002
}
1002
{
1000
NOSEL
1070
     0
1002
}
1002
{
1000
BEHIND
1070
     0
1002
}
1002
{
1000
OTHER
1070
     0
1002
}
1002
{
1000
REACTOR
1002
}
  0
LINE
  5
14BC
  8
247
  6
CONTINUOUS
 10
3.5234071095294821
 20
-4.1410248166777128
 30
0.0
 11
3.5234071095294821
 21
-5.0564094320257151
 31
0.0
  0
LINE
  5
14BD
  8
247
  6
CONTINUOUS
 10
1.4234071096134739
 20
-4.4542441219563074
 30
0.0
 11
1.4234071096134739
 21
-3.5388595066083042
 31
0.0
  0
ARC
  5
14BE
  8
247
  6
CONTINUOUS
 10
2.8108240723813491
 20
-3.8776570982351881
 30
0.0
 40
0.394857301075386
 50
65.990941652528861
 51
172.26344345906949
  0
ARC
  5
14BF
  8
247
  6
CONTINUOUS
 10
2.8146074369460452
 20
-4.2117972323952682
 30
0.0
 40
0.7123241612361686
 50
5.701985164258037
 51
77.277338436822291
1001
GENIUS_GENOBJ-N-FIL_13
1002
{
1000
OWNER
1000
GEN
1002
}
1001
GENIUS_GENODEF_13
1002
{
1000
HIER
1070
     0
1002
}
1002
{
1000
MANEDIT
1070
     0
1002
}
1002
{
1000
NOSEL
1070
     0
1002
}
1002
{
1000
BEHIND
1070
     0
1002
}
1002
{
1000
OTHER
1070
     0
1002
}
1002
{
1000
REACTOR
1002
}
  0
LINE
  5
14C0
  8
247
  6
CONTINUOUS
 10
3.5234071095294821
 20
-3.183332509031727
 30
0.0
 11
1.4234071096134739
 21
-2.5811671989623188
 31
0.0
  0
LINE
  5
14C1
  8
247
  6
CONTINUOUS
 10
1.4234071096134739
 20
-1.085013352876314
 30
0.0
 11
1.4234071096134739
 21
-1.481028986271937
 31
0.0
  0
LINE
  5
14C2
  8
247
  6
CONTINUOUS
 10
3.5234071095294821
 20
-2.108090275912315
 30
0.0
 11
3.5234071095294821
 21
-1.677321045160326
 31
0.0
  0
ARC
  5
14C3
  8
247
  6
CONTINUOUS
 10
2.8817067046968359
 20
-0.8811671990383143
 30
0.0
 40
1.576855057639547
 50
202.35948814152729
 51
254.993248542846
  0
ARC
  5
14C4
  8
247
  6
CONTINUOUS
 10
1.989225968151612
 20
-1.3468619881015771
 30
0.0
 40
0.6234706797009447
 50
94.994589319075374
 51
155.16632895730351
1001
GENIUS_GENOBJ-N-FIL_13
1002
{
1000
OWNER
1000
GEN
1002
}
1001
GENIUS_GENODEF_13
1002
{
1000
HIER
1070
     0
1002
}
1002
{
1000
MANEDIT
1070
     0
1002
}
1002
{
1000
NOSEL
1070
     0
1002
}
1002
{
1000
BEHIND
1070
     0
1002
}
1002
{
1000
OTHER
1070
     0
1002
}
1002
{
1000
REACTOR
1002
}
  0
ARC
  5
14C5
  8
247
  6
CONTINUOUS
 10
2.5855092315829151
 20
-1.943534573001128
 30
0.0
 40
0.9749472149106983
 50
15.84609655577998
 51
82.325137004169164
  0
ARC
  5
14C6
  8
247
  6
CONTINUOUS
 10
2.7948775115845419
 20
-1.5345622607405709
 30
0.0
 40
0.9271945638692009
 50
249.7136016704971
 51
321.78874565640962
1001
GENIUS_GENOBJ-N-FIL_13
1002
{
1000
OWNER
1000
GEN
1002
}
1001
GENIUS_GENODEF_13
1002
{
1000
HIER
1070
     0
1002
}
1002
{
1000
MANEDIT
1070
     0
1002
}
1002
{
1000
NOSEL
1070
     0
1002
}
1002
{
1000
BEHIND
1070
     0
1002
}
1002
{
1000
OTHER
1070
     0
1002
}
1002
{
1000
REACTOR
1002
}
  0
LINE
  5
14C7
  8
247
  6
CONTINUOUS
 10
2.715714801869451
 20
-1.461936429784316
 30
0.0
 11
2.715714801869451
 21
-0.9773210451883169
 31
0.0
  0
ARC
  5
14C8
  8
247
  6
CONTINUOUS
 10
2.6734071096134731
 20
-5.2493506219683592
 30
0.0
 40
1.25
 50
180.0
 51
0.0
  0
LINE
  5
14C9
  8
247
  6
CONTINUOUS
 10
1.4234071096134739
 20
-5.2493506219683592
 30
0.0
 11
1.4234071096134739
 21
-4.8031967758823528
 31
0.0
  0
ARC
  5
14CA
  8
247
  6
CONTINUOUS
 10
2.6734071096134739
 20
-0.6147352376383691
 30
0.0
 40
1.25
 50
0.0
 51
180.0
  0
VIEWPORT
  5
22
 67
     1
  8
0
 10
261.51769911504419
 20
148.5
 30
0.0
 40
523.0353982300885
 41
297.0
 68
     1
 69
     1
1001
ACAD
1000
MVIEW
1002
{
1070
    16
1010
0.0
1020
0.0
1030
0.0
1010
0.0
1020
0.0
1030
1.0
1040
0.0
1040
297.0
1040
261.51769911504419
1040
148.5
1040
50.0
1040
0.0
1040
0.0
1070
     0
1070
   100
1070
     1
1070
     1
1070
     0
1070
     0
1070
     0
1070
     0
1040
0.0
1040
0.0
1040
0.0
1040
1.0
1040
1.0
1040
10.0
1040
10.0
1070
     0
1002
{
1002
}
1002
}
1001
GENIUS_GENOBJ-N-SDF_13
1002
{
1000
OWNER
1000
GEN
1002
}
1001
GENIUS_GENODEF_13
1002
{
1000
HIER
1070
     0
1002
}
1002
{
1000
MANEDIT
1070
     0
1002
}
1002
{
1000
NOSEL
1070
     0
1002
}
1002
{
1000
BEHIND
1070
     0
1002
}
1002
{
1000
OTHER
1070
     0
1002
}
1002
{
1000
REACTOR
1002
}
1001
GENIUS_GENSCREG_15
1000
PF
1040
1.0
1000
DF
1040
1.0
1000
MIN
1011
0.0
1021
0.0
1031
0.0
1021
0.0
1031
0.0
1000
MAX
1011
523.0353982300885
1021
0.0
1031
0.0
1021
297.0
1031
0.0
1000
FLAGS
1070
     4
  0
ENDSEC
  0
EOF
