  0
SECTION
  2
HEADER
  9
$ACADVER
  1
AC1009
  9
$INSBASE
 10
0.0
 20
0.0
 30
0.0
  9
$EXTMIN
 10
-211.0
 20
-42.235273560000003
 30
0.0
  9
$EXTMAX
 10
77.118954369999983
 20
68.000000000000057
 30
0.0
  9
$LIMMIN
 10
0.0
 20
0.0
  9
$LIMMAX
 10
420.0
 20
297.0
  9
$ORTHOMODE
 70
     0
  9
$REGENMODE
 70
     1
  9
$FILLMODE
 70
     1
  9
$QTEXTMODE
 70
     0
  9
$MIRRTEXT
 70
     1
  9
$DRAGMODE
 70
     2
  9
$LTSCALE
 40
10.0
  9
$OSMODE
 70
    37
  9
$ATTMODE
 70
     1
  9
$TEXTSIZE
 40
3.0
  9
$TRACEWID
 40
1.0
  9
$TEXTSTYLE
  7
YOKO
  9
$CLAYER
  8
240
  9
$CELTYPE
  6
BYLAYER
  9
$CECOLOR
 62
   256
  9
$DIMSCALE
 40
1.0
  9
$DIMASZ
 40
2.2299999999999991
  9
$DIMEXO
 40
0.5
  9
$DIMDLI
 40
2.5
  9
$DIMRND
 40
0.0
  9
$DIMDLE
 40
0.0
  9
$DIMEXE
 40
1.0
  9
$DIMTP
 40
0.0
  9
$DIMTM
 40
0.0
  9
$DIMTXT
 40
2.7999999999999989
  9
$DIMCEN
 40
0.0
  9
$DIMTSZ
 40
0.0
  9
$DIMTOL
 70
     0
  9
$DIMLIM
 70
     0
  9
$DIMTIH
 70
     0
  9
$DIMTOH
 70
     0
  9
$DIMSE1
 70
     0
  9
$DIMSE2
 70
     0
  9
$DIMTAD
 70
     3
  9
$DIMZIN
 70
     8
  9
$DIMBLK
  1

  9
$DIMASO
 70
     1
  9
$DIMSHO
 70
     1
  9
$DIMPOST
  1

  9
$DIMAPOST
  1

  9
$DIMALT
 70
     0
  9
$DIMALTD
 70
     2
  9
$DIMALTF
 40
25.399999999999999
  9
$DIMLFAC
 40
1.0
  9
$DIMTOFL
 70
     1
  9
$DIMTVP
 40
0.0
  9
$DIMTIX
 70
     1
  9
$DIMSOXD
 70
     0
  9
$DIMSAH
 70
     1
  9
$DIMBLK1
  1
OPEN
  9
$DIMBLK2
  1
OPEN
  9
$DIMSTYLE
  2
BIGT
  9
$DIMCLRD
 70
   256
  9
$DIMCLRE
 70
   256
  9
$DIMCLRT
 70
    40
  9
$DIMTFAC
 40
1.0
  9
$DIMGAP
 40
1.0
  9
$LUNITS
 70
     2
  9
$LUPREC
 70
     3
  9
$SKETCHINC
 40
1.0
  9
$FILLETRAD
 40
0.0
  9
$AUNITS
 70
     0
  9
$AUPREC
 70
     3
  9
$MENU
  1
.
  9
$ELEVATION
 40
0.0
  9
$PELEVATION
 40
0.0
  9
$THICKNESS
 40
0.0
  9
$LIMCHECK
 70
     0
  9
$BLIPMODE
 70
     0
  9
$CHAMFERA
 40
10.0
  9
$CHAMFERB
 40
10.0
  9
$SKPOLY
 70
     0
  9
$TDCREATE
 40
2455061.7117366442
  9
$TDUPDATE
 40
2459839.643347546
  9
$TDINDWG
 40
0.0363547569
  9
$TDUSRTIMER
 40
0.0363547454
  9
$USRTIMER
 70
     1
  9
$ANGBASE
 50
0.0
  9
$ANGDIR
 70
     0
  9
$PDMODE
 70
     1
  9
$PDSIZE
 40
-5.0
  9
$PLINEWID
 40
0.0
  9
$COORDS
 70
     1
  9
$SPLFRAME
 70
     0
  9
$SPLINETYPE
 70
     6
  9
$SPLINESEGS
 70
     8
  9
$ATTDIA
 70
     1
  9
$ATTREQ
 70
     1
  9
$HANDLING
 70
     1
  9
$HANDSEED
  5
EBB
  9
$SURFTAB1
 70
     6
  9
$SURFTAB2
 70
     6
  9
$SURFTYPE
 70
     6
  9
$SURFU
 70
     6
  9
$SURFV
 70
     6
  9
$UCSNAME
  2

  9
$UCSORG
 10
0.0
 20
0.0
 30
0.0
  9
$UCSXDIR
 10
1.0
 20
0.0
 30
0.0
  9
$UCSYDIR
 10
0.0
 20
1.0
 30
0.0
  9
$PUCSNAME
  2

  9
$PUCSORG
 10
0.0
 20
0.0
 30
0.0
  9
$PUCSXDIR
 10
1.0
 20
0.0
 30
0.0
  9
$PUCSYDIR
 10
0.0
 20
1.0
 30
0.0
  9
$USERI1
 70
     1
  9
$USERI2
 70
     0
  9
$USERI3
 70
     0
  9
$USERI4
 70
     0
  9
$USERI5
 70
     0
  9
$USERR1
 40
0.0
  9
$USERR2
 40
0.0
  9
$USERR3
 40
0.0
  9
$USERR4
 40
0.0
  9
$USERR5
 40
0.0
  9
$WORLDVIEW
 70
     1
  9
$SHADEDGE
 70
     3
  9
$SHADEDIF
 70
    70
  9
$TILEMODE
 70
     1
  9
$MAXACTVP
 70
    16
  9
$PLIMCHECK
 70
     0
  9
$PEXTMIN
 10
1.0000000000000000E+020
 20
1.0000000000000000E+020
 30
1.0000000000000000E+020
  9
$PEXTMAX
 10
-1.0000000000000000E+020
 20
-1.0000000000000000E+020
 30
-1.0000000000000000E+020
  9
$PLIMMIN
 10
0.0
 20
0.0
  9
$PLIMMAX
 10
420.0
 20
297.0
  9
$UNITMODE
 70
     0
  9
$VISRETAIN
 70
     0
  9
$PLINEGEN
 70
     0
  9
$PSLTSCALE
 70
     1
  0
ENDSEC
  0
SECTION
  2
TABLES
  0
TABLE
  2
VPORT
 70
     1
  0
VPORT
  2
*ACTIVE
 70
     0
 10
0.0
 20
0.0
 11
1.0
 21
1.0
 12
-50.972078689627182
 22
-2.676983757504757
 13
0.0
 23
0.0
 14
7.0
 24
7.0
 15
7.0
 25
7.0
 16
0.0
 26
0.0
 36
1.0
 17
0.0
 27
0.0
 37
0.0
 40
202.9605954164777
 41
1.762778505897771
 42
50.0
 43
0.0
 44
0.0
 50
0.0
 51
0.0
 71
     0
 72
  2000
 73
     1
 74
     0
 75
     0
 76
     1
 77
     0
 78
     0
  0
ENDTAB
  0
TABLE
  2
LTYPE
 70
    18
  0
LTYPE
  2
CONTINUOUS
 70
     0
  3
Solid line
 72
    65
 73
     0
 40
0.0
  0
LTYPE
  2
CENTER2
 70
     0
  3
___ _ ___ _ ___ _ ___ _ ___ _ ___ _ ___ _ ___ _
 72
    65
 73
     4
 40
1.125
 49
0.75
 49
-0.125
 49
0.125
 49
-0.125
  0
LTYPE
  2
HIDDEN2
 70
     0
  3
_ _ _ _ _ _ _ _ _ _ _ _ _ _ _ _ _ _ _ _ _ _ _ _
 72
    65
 73
     2
 40
0.1875
 49
0.125
 49
-0.0625
  0
LTYPE
  2
HIDDEN
 70
     0
  3
Hidden __ __ __ __ __ __ __ __ __ __ __ __ __ _
 72
    65
 73
     2
 40
9.5249999999999986
 49
6.3499999999999988
 49
-3.1749999999999989
  0
LTYPE
  2
PHANTOM2
 70
     0
  3
___ _ _ ___ _ _ ___ _ _ ___ _ _ ___ _ _ ___ _ _
 72
    65
 73
     6
 40
1.25
 49
0.625
 49
-0.125
 49
0.125
 49
-0.125
 49
0.125
 49
-0.125
  0
LTYPE
  2
CENTER
 70
     0
  3
____ _ ____ _ ____ _ ____ _ ____ _ ____ _ ____ 
 72
    65
 73
     4
 40
2.0
 49
1.25
 49
-0.25
 49
0.25
 49
-0.25
  0
LTYPE
  2
AMCONSTR
 70
     0
  3
_______________________
 72
    65
 73
     2
 40
9999.0
 49
9999.0
 49
0.0
  0
LTYPE
  2
AM_ISO02W050
 70
     0
  3
__ __ __ __ __ __ __ __ __ __ __ __ __ __ __
 72
    65
 73
     2
 40
7.5
 49
6.0
 49
-1.5
  0
LTYPE
  2
ACJISTGB
 70
     0
  3
__ . . __ . .
 72
    65
 73
     6
 40
9.0
 49
4.0
 49
-1.0
 49
1.0
 49
-1.0
 49
1.0
 49
-1.0
  0
LTYPE
  2
ACJISTGL
 70
     0
  3
_ _ _ _ _
 72
    65
 73
     2
 40
3.0
 49
2.0
 49
-1.0
  0
LTYPE
  2
ACISOWELD
 70
     0
  3
_ _ _ _ _
 72
    65
 73
     2
 40
2.0
 49
2.0
 49
-1.0
  0
LTYPE
  2
ACISOTGB
 70
     0
  3
__ . . __ . .
 72
    65
 73
     6
 40
9.0
 49
4.0
 49
-1.0
 49
1.0
 49
-1.0
 49
1.0
 49
-1.0
  0
LTYPE
  2
ACISOTGL
 70
     0
  3
_ _ _ _ _
 72
    65
 73
     2
 40
3.0
 49
2.0
 49
-1.0
  0
LTYPE
  2
AMZIGZAG2
 70
     0
  3
/\/-/\/-/\/-/\/-/\/-/\/
 72
    65
 73
     2
 40
0.4401
 49
0.0001
 49
-0.4400000000000002
  0
LTYPE
  2
ACANSTGB
 70
     0
  3
__ . . __ . .
 72
    65
 73
     6
 40
0.35433070866
 49
0.15748031496
 49
-0.03937007874
 49
0.03937007874
 49
-0.03937007874
 49
0.03937007874
 49
-0.03937007874
  0
LTYPE
  2
ACANSTGL
 70
     0
  3
_ _ _ _ _
 72
    65
 73
     2
 40
0.11811023622
 49
0.07874015748
 49
-0.03937007874
  0
ENDTAB
  0
TABLE
  2
LAYER
 70
    12
  0
LAYER
  2
0
 70
     0
 62
     7
  6
CONTINUOUS
  0
LAYER
  2
240
 70
     0
 62
     4
  6
CONTINUOUS
  0
LAYER
  2
241
 70
     0
 62
   211
  6
CONTINUOUS
  0
LAYER
  2
242
 70
     0
 62
     3
  6
CONTINUOUS
  0
LAYER
  2
245
 70
     0
 62
     2
  6
CENTER2
  0
LAYER
  2
250
 70
     0
 62
     3
  6
CONTINUOUS
  0
LAYER
  2
DEFPOINTS
 70
     0
 62
     7
  6
CONTINUOUS
  0
LAYER
  2
243
 70
     0
 62
   211
  6
HIDDEN2
  0
LAYER
  2
247
 70
     0
 62
    60
  6
CONTINUOUS
  0
ENDTAB
  0
TABLE
  2
STYLE
 70
     7
  0
STYLE
  2
STANDARD
 70
     0
 40
0.0
 41
1.0
 50
0.0
 71
     0
 42
3.0
  3
romans.shx
  4
BIGFONT.SHX
  0
STYLE
  2
YOKO
 70
     0
 40
0.0
 41
1.0
 50
0.0
 71
     0
 42
3.0
  3
romans.shx
  4
extfont.shx
  0
STYLE
  2
ACJISTS
 70
     0
 40
1.0
 41
1.0
 50
0.0
 71
     0
 42
3.0
  3
amgdt.shx
  4
extfont.shx
  0
STYLE
  2
ACJISGDT
 70
     0
 40
0.0
 41
1.0
 50
0.0
 71
     0
 42
3.0
  3
amgdt.shx
  4
extfont.shx
  0
STYLE
  2
ACISOTS
 70
     0
 40
1.0
 41
1.0
 50
0.0
 71
     0
 42
3.0
  3
amgdt.shx
  4
extfont.shx
  0
STYLE
  2
ACISOGDT
 70
     0
 40
0.0
 41
1.0
 50
0.0
 71
     0
 42
3.0
  3
amgdt.shx
  4
extfont.shx
  0
STYLE
  2
ACANSGDT
 70
     0
 40
0.0
 41
1.0
 50
0.0
 71
     0
 42
3.0
  3
amgdt.shx
  4

  0
ENDTAB
  0
TABLE
  2
VIEW
 70
     1
  0
VIEW
  2
OLE1
 70
     0
 40
202.33391682999999
 10
-66.931807199999994
 20
12.882176940000001
 41
289.71123886999999
 11
0.0
 21
0.0
 31
1.0
 12
0.0
 22
0.0
 32
0.0
 42
50.0
 43
0.0
 44
0.0
 50
0.0
 71
     0
  0
ENDTAB
  0
TABLE
  2
UCS
 70
     0
  0
ENDTAB
  0
TABLE
  2
APPID
 70
    39
  0
APPID
  2
ACAD
 70
     0
  0
APPID
  2
GLOBAL
 70
     0
  0
APPID
  2
DETAIL
 70
     0
  0
APPID
  2
GRPNAME
 70
     0
  0
APPID
  2
GPARA
 70
     0
  0
APPID
  2
DCO15
 70
     0
  0
APPID
  2
ITEMNAME
 70
     0
  0
APPID
  2
GRADE_0
 70
     0
  0
APPID
  2
LAYER_SCALE
 70
     0
  0
APPID
  2
CONTENTBLOCKICON
 70
     0
  0
APPID
  2
ACAD_PSEXT
 70
     0
  0
APPID
  2
MCAD_NO_VIS
 70
     0
  0
APPID
  2
ACAD_TEMP_GRAPHIC
 70
     0
  0
APPID
  2
ACATTRIBSERVICES
 70
     0
  0
APPID
  2
GENIUS_GENSCREG_15
 70
     0
  0
APPID
  2
GENIUS_GENODEF_13
 70
     0
  0
APPID
  2
GENIUS_GENOBJ-N-SDF_13
 70
     0
  0
APPID
  2
GENIUS_GENREC_14
 70
     0
  0
APPID
  2
GENIUS_GENOBJ-N-REC_13
 70
     0
  0
APPID
  2
GENIUS_GENDIMSH_14
 70
     0
  0
APPID
  2
GENIUS_GENOBJ-N-DIM_13
 70
     0
  0
APPID
  2
GENIUS_GENDIM_13
 70
     0
  0
APPID
  2
GENIUS_GENDTOL_13
 70
     0
  0
APPID
  2
GENIUS_GENOLIS_13
 70
     0
  0
APPID
  2
GENIUS_GENOENT_13
 70
     0
  0
APPID
  2
GENIUS_GENOBJ-F-FEM_13
 70
     0
  0
APPID
  2
GENIUS_GENOREF_13
 70
     0
  0
APPID
  2
GENIUS_GEFFEM_13
 70
     0
  0
APPID
  2
GENIUS_GEFFEMP_13
 70
     0
  0
APPID
  2
AD_DRAW
 70
     0
  0
APPID
  2
DESIGNERASSEMBLIES
 70
     0
  0
APPID
  2
ACADM_DIM_EDIT
 70
     0
  0
APPID
  2
AMDT_DM_ADJ
 70
     0
  0
APPID
  2
GENIUS_GENOBJ-N-FIL_13
 70
     0
  0
APPID
  2
GENIUS_GENFIL_13
 70
     0
  0
APPID
  2
GENIUS_GENOBJ-N-CHA_13
 70
     0
  0
APPID
  2
ACAD_NAV_VCDISPLAY
 70
     0
  0
APPID
  2
ACAD_EXEMPT_FROM_CAD_STANDARDS
 70
     0
  0
APPID
  2
ACAD_MLEADERVER
 70
     0
  0
ENDTAB
  0
TABLE
  2
DIMSTYLE
 70
    33
  0
DIMSTYLE
  2
BIGT
 70
     0
  3

  4

  5
OPEN
  6

  7

 40
1.0
 41
2.2299999999999991
 42
0.5
 43
7.0
 44
1.0
 45
0.0
 46
0.0
 47
0.0
 48
0.01
140
2.7999999999999989
141
0.0
142
0.0
143
25.399999999999999
144
1.0
145
0.0
146
1.0
147
1.0
 71
     0
 72
     0
 73
     0
 74
     0
 75
     0
 76
     0
 77
     3
 78
     9
170
     0
171
     2
172
     1
173
     0
174
     1
175
     0
176
   256
177
   256
178
    40
  0
DIMSTYLE
  2
BIGT$0
 70
     0
  3

  4

  5
OPEN
  6

  7

 40
1.0
 41
2.2299999999999991
 42
0.5
 43
7.0
 44
1.0
 45
0.0
 46
0.0
 47
0.0
 48
0.01
140
2.7999999999999989
141
0.0
142
0.0
143
25.399999999999999
144
1.0
145
0.0
146
1.0
147
1.0
 71
     0
 72
     0
 73
     0
 74
     0
 75
     0
 76
     0
 77
     3
 78
     9
170
     0
171
     2
172
     1
173
     0
174
     1
175
     0
176
   256
177
   256
178
    40
  0
DIMSTYLE
  2
BIGT$2
 70
     0
  3

  4

  5
OPEN
  6

  7

 40
1.0
 41
2.2299999999999991
 42
0.5
 43
7.0
 44
1.0
 45
0.0
 46
0.0
 47
0.0
 48
0.01
140
2.7999999999999989
141
0.0
142
0.0
143
25.399999999999999
144
1.0
145
0.0
146
1.0
147
1.0
 71
     0
 72
     0
 73
     0
 74
     0
 75
     0
 76
     0
 77
     3
 78
     9
170
     0
171
     2
172
     1
173
     0
174
     0
175
     0
176
   256
177
   256
178
    40
  0
DIMSTYLE
  2
BIGT$3
 70
     0
  3

  4

  5
OPEN
  6

  7

 40
1.0
 41
2.2299999999999991
 42
0.5
 43
2.5
 44
1.0
 45
0.0
 46
0.0
 47
0.0
 48
0.01
140
2.7999999999999989
141
0.0
142
0.0
143
25.399999999999999
144
1.0
145
0.0
146
1.0
147
1.0
 71
     0
 72
     0
 73
     0
 74
     0
 75
     0
 76
     0
 77
     3
 78
     9
170
     0
171
     2
172
     1
173
     0
174
     0
175
     0
176
   256
177
   256
178
    40
  0
DIMSTYLE
  2
BIGT$4
 70
     0
  3

  4

  5
OPEN
  6

  7

 40
1.0
 41
2.2299999999999991
 42
0.5
 43
2.5
 44
1.0
 45
0.0
 46
0.0
 47
0.0
 48
0.01
140
2.7999999999999989
141
0.0
142
0.0
143
25.399999999999999
144
1.0
145
0.0
146
1.0
147
1.0
 71
     0
 72
     0
 73
     0
 74
     0
 75
     0
 76
     0
 77
     3
 78
     9
170
     0
171
     2
172
     1
173
     0
174
     0
175
     0
176
   256
177
   256
178
    40
  0
DIMSTYLE
  2
BIGT$6
 70
     0
  3

  4

  5
OPEN
  6

  7

 40
1.0
 41
2.2299999999999991
 42
0.5
 43
2.5
 44
1.0
 45
0.0
 46
0.0
 47
0.0
 48
0.01
140
2.7999999999999989
141
0.0
142
0.0
143
25.399999999999999
144
1.0
145
0.0
146
1.0
147
1.0
 71
     0
 72
     0
 73
     0
 74
     0
 75
     0
 76
     0
 77
     3
 78
     9
170
     0
171
     2
172
     1
173
     0
174
     0
175
     0
176
   256
177
   256
178
    40
  0
DIMSTYLE
  2
BIGT$7
 70
     0
  3

  4

  5
OPEN
  6

  7

 40
0.0
 41
2.2299999999999991
 42
0.5
 43
7.0
 44
1.0
 45
0.0
 46
0.0
 47
0.0
 48
0.01
140
2.7999999999999989
141
0.0
142
0.0
143
25.399999999999999
144
1.0
145
0.0
146
1.0
147
1.0
 71
     0
 72
     0
 73
     0
 74
     0
 75
     0
 76
     0
 77
     3
 78
     9
170
     0
171
     2
172
     0
173
     0
174
     0
175
     0
176
   256
177
   256
178
    40
  0
DIMSTYLE
  2
BIGT$SF
 70
     0
  3

  4

  5
OPEN
  6

  7

 40
1.0
 41
2.2299999999999991
 42
0.5
 43
7.0
 44
1.0
 45
0.0
 46
0.0
 47
0.0
 48
0.0
140
2.7999999999999989
141
0.0
142
0.0
143
25.399999999999999
144
1.0
145
0.0
146
1.0
147
1.0
 71
     0
 72
     0
 73
     0
 74
     0
 75
     0
 76
     0
 77
     3
 78
     9
170
     0
171
     2
172
     1
173
     0
174
     0
175
     0
176
   256
177
   256
178
    40
  0
DIMSTYLE
  2
BIGT$SH
 70
     0
  3

  4

  5
OPEN
  6

  7

 40
1.0
 41
2.2299999999999991
 42
0.5
 43
7.0
 44
1.0
 45
0.0
 46
0.0
 47
0.0
 48
0.0
140
2.7999999999999989
141
0.0
142
0.0
143
25.399999999999999
144
1.0
145
0.0
146
1.0
147
1.0
 71
     0
 72
     0
 73
     0
 74
     0
 75
     0
 76
     0
 77
     3
 78
     9
170
     0
171
     2
172
     1
173
     0
174
     0
175
     0
176
   256
177
   256
178
    40
  0
DIMSTYLE
  2
AM_ISO
 70
     0
  3

  4
"
  5

  6

  7

 40
1.0
 41
2.5
 42
1.0
 43
10.0
 44
1.0
 45
0.0
 46
0.0
 47
0.1
 48
0.1
140
3.5
141
0.0
142
0.0
143
0.0393701
144
1.0
145
0.0
146
0.71
147
1.5
 71
     0
 72
     0
 73
     0
 74
     0
 75
     0
 76
     0
 77
     1
 78
     8
170
     0
171
     2
172
     1
173
     0
174
     0
175
     0
176
   256
177
   256
178
     2
  0
DIMSTYLE
  2
AM_ISO$3
 70
     0
  3

  4
"
  5

  6

  7

 40
1.0
 41
2.5
 42
1.0
 43
10.0
 44
1.0
 45
0.0
 46
0.0
 47
0.1
 48
0.1
140
3.5
141
0.0
142
0.0
143
0.0393701
144
1.0
145
0.0
146
0.71
147
1.5
 71
     0
 72
     0
 73
     0
 74
     1
 75
     0
 76
     0
 77
     1
 78
     8
170
     0
171
     2
172
     0
173
     0
174
     0
175
     0
176
   256
177
   256
178
     2
  0
DIMSTYLE
  2
AM_ISO$4
 70
     0
  3

  4
"
  5

  6

  7

 40
1.0
 41
2.5
 42
1.0
 43
10.0
 44
1.0
 45
0.0
 46
0.0
 47
0.1
 48
0.1
140
3.5
141
0.0
142
0.0
143
0.0393701
144
1.0
145
0.0
146
0.71
147
1.5
 71
     0
 72
     0
 73
     0
 74
     1
 75
     0
 76
     0
 77
     1
 78
     8
170
     0
171
     2
172
     0
173
     0
174
     0
175
     0
176
   256
177
   256
178
     2
  0
DIMSTYLE
  2
AM_ISO$6
 70
     0
  3

  4
"
  5

  6

  7

 40
1.0
 41
2.5
 42
1.0
 43
10.0
 44
1.0
 45
0.0
 46
0.0
 47
0.1
 48
0.1
140
3.5
141
0.0
142
0.0
143
0.0393701
144
1.0
145
0.0
146
0.71
147
1.5
 71
     0
 72
     0
 73
     0
 74
     0
 75
     0
 76
     0
 77
     0
 78
     8
170
     0
171
     2
172
     1
173
     0
174
     0
175
     0
176
   256
177
   256
178
     2
  0
DIMSTYLE
  2
AM_ISO$7
 70
     0
  3

  4
"
  5

  6

  7

 40
1.0
 41
2.5
 42
1.0
 43
10.0
 44
1.0
 45
0.0
 46
0.0
 47
0.1
 48
0.1
140
5.0
141
0.0
142
0.0
143
0.0393701
144
1.0
145
0.0
146
0.71
147
1.5
 71
     0
 72
     0
 73
     0
 74
     0
 75
     0
 76
     0
 77
     1
 78
     8
170
     0
171
     2
172
     1
173
     0
174
     0
175
     0
176
   256
177
   256
178
     2
  0
DIMSTYLE
  2
AM_ISO$SF
 70
     0
  3

  4
"
  5

  6

  7

 40
1.0
 41
2.5
 42
1.0
 43
10.0
 44
1.0
 45
0.0
 46
0.0
 47
0.1
 48
0.1
140
3.5
141
0.0
142
0.0
143
0.0393701
144
1.0
145
0.0
146
0.71
147
1.5
 71
     0
 72
     0
 73
     0
 74
     0
 75
     1
 76
     1
 77
     1
 78
     8
170
     0
171
     2
172
     1
173
     0
174
     0
175
     0
176
   256
177
   256
178
     2
  0
DIMSTYLE
  2
AM_ISO$SH
 70
     0
  3

  4
"
  5

  6
GENAXEH
  7

 40
1.0
 41
2.5
 42
1.0
 43
10.0
 44
1.0
 45
0.0
 46
0.0
 47
0.1
 48
0.1
140
3.5
141
0.0
142
0.0
143
0.0393701
144
2.0
145
0.0
146
0.71
147
1.5
 71
     0
 72
     0
 73
     0
 74
     0
 75
     1
 76
     1
 77
     1
 78
     8
170
     0
171
     2
172
     1
173
     1
174
     0
175
     0
176
   256
177
   256
178
     2
  0
DIMSTYLE
  2
TECHNICAL_OSAKA
 70
     0
  3

  4
"
  5
OPEN30
  6

  7

 40
1.0
 41
2.5
 42
1.0
 43
10.0
 44
1.0
 45
0.0
 46
0.0
 47
0.1
 48
0.1
140
2.7999999999999989
141
0.0
142
0.0
143
0.0393701
144
1.0
145
0.0
146
0.71
147
1.5
 71
     0
 72
     0
 73
     0
 74
     0
 75
     0
 76
     0
 77
     3
 78
     8
170
     0
171
     2
172
     1
173
     0
174
     0
175
     0
176
   256
177
   256
178
    40
  0
DIMSTYLE
  2
TECHNICAL_OSAKA$3
 70
     0
  3

  4
"
  5
OPEN30
  6

  7

 40
1.0
 41
2.5
 42
1.0
 43
10.0
 44
1.0
 45
0.0
 46
0.0
 47
0.1
 48
0.1
140
2.7999999999999989
141
0.0
142
0.0
143
0.0393701
144
1.0
145
0.0
146
0.71
147
1.5
 71
     0
 72
     0
 73
     0
 74
     1
 75
     0
 76
     0
 77
     3
 78
     8
170
     0
171
     2
172
     0
173
     0
174
     0
175
     0
176
   256
177
   256
178
    40
  0
DIMSTYLE
  2
TECHNICAL_OSAKA$4
 70
     0
  3

  4
"
  5
OPEN30
  6

  7

 40
1.0
 41
2.5
 42
1.0
 43
10.0
 44
1.0
 45
0.0
 46
0.0
 47
0.1
 48
0.1
140
2.7999999999999989
141
0.0
142
0.0
143
0.0393701
144
1.0
145
0.0
146
0.71
147
1.5
 71
     0
 72
     0
 73
     0
 74
     1
 75
     0
 76
     0
 77
     3
 78
     8
170
     0
171
     2
172
     0
173
     0
174
     0
175
     0
176
   256
177
   256
178
    40
  0
DIMSTYLE
  2
TECHNICAL_OSAKA$6
 70
     0
  3

  4
"
  5
OPEN30
  6

  7

 40
1.0
 41
2.5
 42
1.0
 43
10.0
 44
1.0
 45
0.0
 46
0.0
 47
0.1
 48
0.1
140
2.7999999999999989
141
0.0
142
0.0
143
0.0393701
144
1.0
145
0.0
146
0.71
147
1.5
 71
     0
 72
     0
 73
     0
 74
     0
 75
     0
 76
     0
 77
     0
 78
     8
170
     0
171
     2
172
     1
173
     0
174
     0
175
     0
176
   256
177
   256
178
    40
  0
DIMSTYLE
  2
TECHNICAL_OSAKA$7
 70
     0
  3

  4
"
  5
OPEN30
  6

  7

 40
1.0
 41
2.5
 42
1.0
 43
10.0
 44
1.0
 45
0.0
 46
0.0
 47
0.1
 48
0.1
140
2.7999999999999989
141
0.0
142
0.0
143
0.0393701
144
1.0
145
0.0
146
0.71
147
1.5
 71
     0
 72
     0
 73
     0
 74
     0
 75
     0
 76
     0
 77
     3
 78
     8
170
     0
171
     2
172
     1
173
     0
174
     0
175
     0
176
   256
177
   256
178
    40
  0
DIMSTYLE
  2
TECHNICAL_OSAKA$SF
 70
     0
  3

  4
"
  5
OPEN30
  6
OPEN30
  7
OPEN30
 40
1.0
 41
2.5
 42
1.0
 43
10.0
 44
1.0
 45
0.0
 46
0.0
 47
0.1
 48
0.1
140
3.5
141
0.0
142
0.0
143
0.0393701
144
1.0
145
0.0
146
0.71
147
1.5
 71
     0
 72
     0
 73
     0
 74
     0
 75
     1
 76
     1
 77
     3
 78
     8
170
     0
171
     2
172
     1
173
     0
174
     0
175
     0
176
   256
177
   256
178
    40
  0
DIMSTYLE
  2
TECHNICAL_OSAKA$SH
 70
     0
  3

  4
"
  5
OPEN30
  6
GENAXEH
  7
OPEN30
 40
1.0
 41
2.5
 42
1.0
 43
10.0
 44
1.0
 45
0.0
 46
0.0
 47
0.1
 48
0.1
140
3.5
141
0.0
142
0.0
143
0.0393701
144
2.0
145
0.0
146
0.71
147
1.5
 71
     0
 72
     0
 73
     0
 74
     0
 75
     1
 76
     1
 77
     3
 78
     8
170
     0
171
     2
172
     1
173
     1
174
     0
175
     0
176
   256
177
   256
178
    40
  0
DIMSTYLE
  2
AM_ANSI
 70
     0
  3

  4
mm
  5

  6

  7

 40
1.0
 41
0.12
 42
0.05
 43
0.5
 44
0.1
 45
0.0
 46
0.0
 47
0.1
 48
0.1
140
0.12
141
0.0
142
0.0
143
25.399999999999999
144
1.0
145
0.0
146
0.71
147
0.06
 71
     0
 72
     0
 73
     1
 74
     1
 75
     0
 76
     0
 77
     0
 78
     7
170
     0
171
     2
172
     0
173
     0
174
     0
175
     0
176
   256
177
   256
178
     2
  0
DIMSTYLE
  2
AM_ANSI$3
 70
     0
  3

  4
mm
  5

  6

  7

 40
1.0
 41
0.12
 42
0.05
 43
0.5
 44
0.1
 45
0.0
 46
0.0
 47
0.1
 48
0.1
140
0.12
141
0.0
142
0.0
143
25.399999999999999
144
1.0
145
0.0
146
0.71
147
0.06
 71
     0
 72
     0
 73
     1
 74
     1
 75
     0
 76
     0
 77
     0
 78
     7
170
     0
171
     2
172
     0
173
     0
174
     0
175
     0
176
   256
177
   256
178
     2
  0
DIMSTYLE
  2
AM_ANSI$4
 70
     0
  3

  4
mm
  5

  6

  7

 40
1.0
 41
0.12
 42
0.05
 43
0.5
 44
0.1
 45
0.0
 46
0.0
 47
0.1
 48
0.1
140
0.12
141
0.0
142
0.0
143
25.399999999999999
144
1.0
145
0.0
146
0.71
147
0.06
 71
     0
 72
     0
 73
     1
 74
     1
 75
     0
 76
     0
 77
     0
 78
     7
170
     0
171
     2
172
     0
173
     0
174
     0
175
     0
176
   256
177
   256
178
     2
  0
DIMSTYLE
  2
AM_ANSI$7
 70
     0
  3

  4
mm
  5

  6

  7

 40
1.0
 41
0.12
 42
0.05
 43
0.5
 44
0.1
 45
0.0
 46
0.0
 47
0.1
 48
0.1
140
0.12
141
0.0
142
0.0
143
25.399999999999999
144
1.0
145
0.0
146
0.71
147
0.06
 71
     0
 72
     0
 73
     1
 74
     1
 75
     0
 76
     0
 77
     0
 78
     7
170
     0
171
     2
172
     0
173
     0
174
     0
175
     0
176
   256
177
   256
178
     2
  0
DIMSTYLE
  2
AM_ANSI$SF
 70
     0
  3

  4
mm
  5

  6

  7

 40
1.0
 41
0.12
 42
0.05
 43
0.5
 44
0.1
 45
0.0
 46
0.0
 47
0.1
 48
0.1
140
0.12
141
0.0
142
0.0
143
25.399999999999999
144
1.0
145
0.0
146
0.71
147
0.06
 71
     0
 72
     0
 73
     1
 74
     1
 75
     1
 76
     1
 77
     0
 78
     7
170
     0
171
     2
172
     0
173
     0
174
     0
175
     0
176
   256
177
   256
178
     2
  0
DIMSTYLE
  2
AM_ANSI$SH
 70
     0
  3

  4
mm
  5

  6

  7

 40
1.0
 41
0.12
 42
0.05
 43
0.5
 44
0.1
 45
0.0
 46
0.0
 47
0.1
 48
0.1
140
0.12
141
0.0
142
0.0
143
25.399999999999999
144
1.0
145
0.0
146
0.71
147
0.06
 71
     0
 72
     0
 73
     1
 74
     1
 75
     1
 76
     1
 77
     0
 78
     7
170
     0
171
     2
172
     0
173
     1
174
     0
175
     0
176
   256
177
   256
178
     2
  0
ENDTAB
  0
ENDSEC
  0
SECTION
  2
BLOCKS
  0
BLOCK
  8
0
  2
$MODEL_SPACE
 70
     0
 10
0.0
 20
0.0
 30
0.0
  3
$MODEL_SPACE
  1

  0
ENDBLK
  5
1C
  8
0
  0
BLOCK
 67
     1
  8
0
  2
$PAPER_SPACE
 70
     0
 10
0.0
 20
0.0
 30
0.0
  3
$PAPER_SPACE
  1

  0
ENDBLK
  5
19
 67
     1
  8
0
  0
BLOCK
  8
0
  2
_OPEN
 70
     0
 10
0.0
 20
0.0
 30
0.0
  3
_OPEN
  1

  0
LINE
  5
C00
  8
0
  6
BYBLOCK
 62
     0
 10
-1.0
 20
0.1666666666666666
 30
0.0
 11
0.0
 21
0.0
 31
0.0
  0
LINE
  5
C01
  8
0
  6
BYBLOCK
 62
     0
 10
-1.0
 20
-0.1666666666666666
 30
0.0
 11
0.0
 21
0.0
 31
0.0
  0
LINE
  5
C02
  8
0
  6
BYBLOCK
 62
     0
 10
0.0
 20
0.0
 30
0.0
 11
-1.0
 21
0.0
 31
0.0
  0
ENDBLK
  5
C03
  8
0
  0
BLOCK
  8
0
  2
矢印なし
 70
     0
 10
0.0
 20
0.0
 30
0.0
  3
矢印なし
  1

  0
ENDBLK
  5
6E5
  8
0
  0
BLOCK
  8
0
  2
GENAXEH
 70
     0
 10
0.0
 20
0.0
 30
0.0
  3
GENAXEH
  1

  0
LINE
  5
C3B
  8
0
 10
-1.0
 20
0.0
 30
0.0
 11
1.0
 21
0.0
 31
0.0
  0
ENDBLK
  5
C3C
  8
0
  0
BLOCK
  8
0
  2
_OPEN30
 70
     0
 10
0.0
 20
0.0
 30
0.0
  3
_OPEN30
  1

  0
LINE
  5
C77
  8
0
  6
BYBLOCK
 62
     0
 10
-1.0
 20
0.26794919
 30
0.0
 11
0.0
 21
0.0
 31
0.0
  0
LINE
  5
C78
  8
0
  6
BYBLOCK
 62
     0
 10
0.0
 20
0.0
 30
0.0
 11
-1.0
 21
-0.26794919
 31
0.0
  0
LINE
  5
C79
  8
0
  6
BYBLOCK
 62
     0
 10
0.0
 20
0.0
 30
0.0
 11
-1.0
 21
0.0
 31
0.0
  0
ENDBLK
  5
C7A
  8
0
  0
ENDSEC
  0
SECTION
  2
ENTITIES
  0
INSERT
  5
6E6
  8
245
  2
矢印なし
 10
175.62382697000001
 20
90.551235719999994
 30
0.0
  0
TEXT
  5
89F
  8
241
  6
CONTINUOUS
 10
-210.0
 20
63.0
 30
0.0
 40
5.0
  1
MT6-CKB6-61
  7
YOKO
 11
-210.0
 21
63.0
 31
0.0
 73
     1
  0
LINE
  5
8B7
  8
250
  6
CONTINUOUS
 10
-148.83001543
 20
-42.235273560000003
 30
0.0
 11
-161.49668209000001
 21
-42.235273560000003
 31
0.0
1001
ITEMNAME
1000
LNSP2
  0
LINE
  5
CDF
  8
240
  6
CONTINUOUS
 10
-183.0
 20
26.5
 30
0.0
 11
4.9999999936480597
 21
31.81536612388458
 31
0.0
  0
LINE
  5
CE0
  8
240
  6
CONTINUOUS
 10
-183.0
 20
-26.5
 30
0.0
 11
4.9999999936483732
 21
-31.815366123884591
 31
0.0
  0
LINE
  5
CE1
  8
245
  6
CENTER2
 10
-211.0
 20
0.0
 30
0.0
 11
62.686818411894471
 21
0.0
 31
0.0
1001
GRPNAME
1000
PASTMD02
  0
ARC
  5
CE2
  8
241
  6
CONTINUOUS
 10
-183.0
 20
11.664319130000001
 30
0.0
 40
13.0
 50
0.0
 51
90.0
  0
ARC
  5
CE3
  8
241
  6
CONTINUOUS
 10
-204.20585242999999
 20
20.204319129999998
 30
0.0
 40
3.460000000003844
 50
90.00000009
 51
173.47316934
1001
GRPNAME
1000
PASTMD02
  0
LINE
  5
CE4
  8
240
  6
CONTINUOUS
 10
-208.16515215000001
 20
22.077424799999999
 30
0.0
 11
-210.0
 21
9.5
 31
0.0
1001
GRPNAME
1000
PASTMD02
  0
LINE
  5
CE5
  8
240
  6
CONTINUOUS
 10
-204.20704900000001
 20
-25.5
 30
0.0
 11
-184.0
 21
-25.5
 31
0.0
  0
LINE
  5
CE6
  8
241
  6
CONTINUOUS
 10
-204.20585242999999
 20
-23.664319129999999
 30
0.0
 11
-184.0
 21
-23.664319129999999
 31
0.0
1001
GRPNAME
1000
PASTMD02
  0
LINE
  5
CE7
  8
241
  6
CONTINUOUS
 10
-204.20585242999999
 20
-23.664319129999999
 30
0.0
 11
-184.0
 21
-23.664319129999999
 31
0.0
1001
GRPNAME
1000
PASTMD02
  0
LINE
  5
CE8
  8
240
  6
CONTINUOUS
 10
-210.0
 20
9.5
 30
0.0
 11
-210.0
 21
-9.5
 31
0.0
  0
LINE
  5
CE9
  8
241
  6
CONTINUOUS
 10
-207.64342725
 20
-20.597612059999999
 30
0.0
 11
-210.0
 21
0.0
 31
0.0
1001
GRPNAME
1000
PASTMD02
  0
LINE
  5
CEA
  8
241
  6
CONTINUOUS
 10
-207.64342725
 20
-20.597612059999999
 30
0.0
 11
-210.0
 21
0.0
 31
0.0
1001
GRPNAME
1000
PASTMD02
  0
LINE
  5
CEB
  8
240
  6
CONTINUOUS
 10
-208.16515215000001
 20
-22.077424799999999
 30
0.0
 11
-210.0
 21
-9.5
 31
0.0
1001
GRPNAME
1000
PASTMD02
  0
ARC
  5
CEC
  8
240
  6
CONTINUOUS
 10
-204.20704900000001
 20
-21.5
 30
0.0
 40
4.0
 50
188.29999989999999
 51
269.99999989999998
1001
GRPNAME
1000
PASTMD02
  0
ARC
  5
CED
  8
241
  6
CONTINUOUS
 10
-204.20585242999999
 20
-20.204319129999998
 30
0.0
 40
3.460000000003876
 50
186.52683064999991
 51
269.99999989999998
1001
GRPNAME
1000
PASTMD02
  0
ARC
  5
CEE
  8
241
  6
CONTINUOUS
 10
-204.20585242999999
 20
-20.204319129999998
 30
0.0
 40
3.460000000003876
 50
186.52683064999991
 51
269.99999989999998
1001
GRPNAME
1000
PASTMD02
  0
LINE
  5
CEF
  8
241
  6
CONTINUOUS
 10
-207.64342725
 20
20.597612059999999
 30
0.0
 11
-210.0
 21
0.0
 31
0.0
1001
GRPNAME
1000
PASTMD02
  0
LINE
  5
CF0
  8
241
  6
CONTINUOUS
 10
-170.0
 20
11.664319130000001
 30
0.0
 11
-170.0
 21
-11.664319130000001
 31
0.0
  0
ARC
  5
CF1
  8
241
  6
CONTINUOUS
 10
-183.0
 20
-11.664319130000001
 30
0.0
 40
13.0
 50
270.0
 51
0.0
  0
LINE
  5
CF2
  8
241
  6
CONTINUOUS
 10
-184.0
 20
-23.664319129999999
 30
0.0
 11
-184.0
 21
-25.5
 31
0.0
  0
LINE
  5
CF3
  8
240
  6
CONTINUOUS
 10
-184.0
 20
-25.5
 30
0.0
 11
-183.0
 21
-26.5
 31
0.0
  0
LINE
  5
CF4
  8
241
  6
CONTINUOUS
 10
-184.0
 20
-23.664319129999999
 30
0.0
 11
-183.0
 21
-24.664319129999999
 31
0.0
1001
GRPNAME
1000
PASTMD02
  0
LINE
  5
CF5
  8
240
  6
CONTINUOUS
 10
-204.20704900000001
 20
25.5
 30
0.0
 11
-184.0
 21
25.5
 31
0.0
  0
LINE
  5
CF6
  8
241
  6
CONTINUOUS
 10
-204.20585242999999
 20
23.664319129999999
 30
0.0
 11
-184.0
 21
23.664319129999999
 31
0.0
1001
GRPNAME
1000
PASTMD02
  0
ARC
  5
CF7
  8
240
  6
CONTINUOUS
 10
-204.20704900000001
 20
21.5
 30
0.0
 40
4.0
 50
90.00000009
 51
171.70000009
1001
GRPNAME
1000
PASTMD02
  0
LINE
  5
CF8
  8
241
  6
CONTINUOUS
 10
-184.0
 20
23.664319129999999
 30
0.0
 11
-183.0
 21
24.664319129999999
 31
0.0
1001
GRPNAME
1000
PASTMD02
  0
LINE
  5
CF9
  8
240
  6
CONTINUOUS
 10
-184.0
 20
25.5
 30
0.0
 11
-183.0
 21
26.5
 31
0.0
  0
LINE
  5
CFA
  8
241
  6
CONTINUOUS
 10
-184.0
 20
23.664319129999999
 30
0.0
 11
-184.0
 21
25.5
 31
0.0
  0
LINE
  5
D11
  8
240
  6
CONTINUOUS
 10
8.000000000021771
 20
31.99999999999989
 30
0.0
 11
60.50000000000022
 21
31.99999999999994
 31
0.0
  0
LINE
  5
D12
  8
240
  6
CONTINUOUS
 10
8.0000000000004547
 20
-31.999999999999829
 30
0.0
 11
60.50000000000022
 21
-32.0
 31
0.0
  0
LINE
  5
D13
  8
241
  6
CONTINUOUS
 10
8.0000000000004547
 20
-31.999999999999829
 30
0.0
 11
7.9999999999998863
 21
31.99999999999989
 31
0.0
  0
LINE
  5
D14
  8
245
  6
CENTER2
 10
0.0
 20
-31.673999999999719
 30
0.0
 11
0.0
 21
31.674000000000149
 31
0.0
1001
GRPNAME
1000
PASTMD02
  0
LINE
  5
D15
  8
240
  6
CONTINUOUS
 10
5.5462301432252721
 20
-31.500000000001371
 30
0.0
 11
7.5000000000011928
 21
-31.500000000001389
 31
0.0
  0
LINE
  5
D16
  8
240
  6
CONTINUOUS
 10
5.5462301432252721
 20
-31.500000000001371
 30
0.0
 11
4.9999999936483732
 21
-31.815366123884591
 31
0.0
  0
LINE
  5
D17
  8
240
  6
CONTINUOUS
 10
8.0000000000002842
 20
-32.000000000000689
 30
0.0
 11
7.5000000000011928
 21
-31.500000000001389
 31
0.0
  0
LINE
  5
D18
  8
240
  6
CONTINUOUS
 10
60.50000000000022
 20
31.99999999999994
 30
0.0
 11
60.50000000000022
 21
-32.0
 31
0.0
  0
LINE
  5
D2D
  8
241
  6
CONTINUOUS
 10
4.9999999999994884
 20
-31.81536612021819
 30
0.0
 11
5.0000000000055138
 21
31.815366120214129
 31
0.0
  0
LINE
  5
D2E
  8
240
  6
CONTINUOUS
 10
5.5462301432454524
 20
31.499999999998519
 30
0.0
 11
7.5000000000284777
 21
31.50000000000222
 31
0.0
  0
LINE
  5
D2F
  8
240
  6
CONTINUOUS
 10
5.5462301432454524
 20
31.499999999998519
 30
0.0
 11
4.9999999936480597
 21
31.81536612388458
 31
0.0
  0
LINE
  5
D30
  8
240
  6
CONTINUOUS
 10
8.000000000021771
 20
31.99999999999989
 30
0.0
 11
7.5000000000284777
 21
31.50000000000222
 31
0.0
  0
LINE
  5
DC2
  8
243
  6
HIDDEN2
 10
60.50000000000022
 20
18.000000000000021
 30
0.0
 11
18.500000000000171
 21
18.000000000000021
 31
0.0
1001
GRPNAME
1000
PASTMD01
  0
LINE
  5
DC3
  8
243
  6
HIDDEN2
 10
60.50000000000022
 20
-18.000000000000021
 30
0.0
 11
18.500000000000181
 21
-18.000000000000021
 31
0.0
1001
GRPNAME
1000
PASTMD01
  0
CIRCLE
  5
DC4
  8
241
  6
CONTINUOUS
 10
44.499999999999339
 20
0.0
 30
0.0
 40
6.0
  0
CIRCLE
  5
DC5
  8
242
  6
CONTINUOUS
 10
44.499999999999339
 20
0.0
 30
0.0
 40
5.5
  0
LINE
  5
DC6
  8
245
  6
CENTER2
 10
44.499999999999339
 20
7.0
 30
0.0
 11
44.499999999999339
 21
-7.0
 31
0.0
1001
GRPNAME
1000
PASTMD01
  0
POLYLINE
  5
DC7
  8
241
  6
CONTINUOUS
 66
     1
 10
0.0
 20
0.0
 30
0.0
 70
     1
  0
VERTEX
  5
DC8
  8
241
  6
CONTINUOUS
 10
41.499999999999339
 20
-1.7320508100000001
 30
0.0
  0
VERTEX
  5
DC9
  8
241
  6
CONTINUOUS
 10
44.499999999999339
 20
-3.4641016200000001
 30
0.0
  0
VERTEX
  5
DCA
  8
241
  6
CONTINUOUS
 10
47.499999999999353
 20
-1.7320508100000001
 30
0.0
  0
VERTEX
  5
DCB
  8
241
  6
CONTINUOUS
 10
47.499999999999353
 20
1.7320508100000001
 30
0.0
  0
VERTEX
  5
DCC
  8
241
  6
CONTINUOUS
 10
44.499999999999339
 20
3.4641016200000001
 30
0.0
  0
VERTEX
  5
DCD
  8
241
  6
CONTINUOUS
 10
41.499999999999339
 20
1.7320508100000001
 30
0.0
  0
SEQEND
  5
DCE
  8
241
  6
CONTINUOUS
  0
TEXT
  5
DD4
  8
250
  6
CONTINUOUS
 10
65.571255419460059
 20
46.520408469999857
 30
0.0
 40
2.799999999999998
  1
CK6
  7
YOKO
1001
ITEMNAME
1000
LNSP3
1001
ACAD
1000
MTEXTBEGIN
1070
    73
1070
     1
1070
    44
1040
1.0
1070
    74
1070
     0
1000
MTEXTEND
1000
MTEXTBEGIN
1070
    73
1070
     1
1070
    44
1040
1.0
1070
    74
1070
     0
1000
MTEXTEND
  0
LINE
  5
DD5
  8
250
  6
CONTINUOUS
 10
60.999999999999339
 20
-32.0
 30
0.0
 11
74.499999999999346
 21
-32.0
 31
0.0
  0
LINE
  5
DD6
  8
250
  6
CONTINUOUS
 10
60.999999999999339
 20
32.0
 30
0.0
 11
74.499999999999346
 21
32.0
 31
0.0
  0
LINE
  5
DD7
  8
250
  6
CONTINUOUS
 10
73.499999999999346
 20
-29.77
 30
0.0
 11
73.499999999999346
 21
29.77
 31
0.0
  0
TEXT
  5
DD8
  8
250
  6
CONTINUOUS
 10
72.499999999999332
 20
-3.9999999999999991
 30
0.0
 40
2.799999999999998
  1
\U+220564
 50
90.0
1001
ACAD
1000
MTEXTBEGIN
1070
    73
1070
     1
1070
    44
1040
1.0
1070
    74
1070
     0
1000
MTEXTEND
1000
MTEXTBEGIN
1070
    73
1070
     1
1070
    44
1040
1.0
1070
    74
1070
     0
1000
MTEXTEND
  0
LINE
  5
DD9
  8
250
  6
CONTINUOUS
 10
73.128333333332677
 20
29.77
 30
0.0
 11
73.499999999999346
 21
32.0
 31
0.0
  0
LINE
  5
DDA
  8
250
  6
CONTINUOUS
 10
73.871666666666002
 20
29.77
 30
0.0
 11
73.499999999999346
 21
32.0
 31
0.0
  0
LINE
  5
DDB
  8
250
  6
CONTINUOUS
 10
73.499999999999346
 20
32.0
 30
0.0
 11
73.499999999999346
 21
29.77
 31
0.0
  0
LINE
  5
DDC
  8
250
  6
CONTINUOUS
 10
73.871666666666002
 20
-29.77
 30
0.0
 11
73.499999999999346
 21
-32.0
 31
0.0
  0
LINE
  5
DDD
  8
250
  6
CONTINUOUS
 10
73.128333333332677
 20
-29.77
 30
0.0
 11
73.499999999999346
 21
-32.0
 31
0.0
  0
LINE
  5
DDE
  8
250
  6
CONTINUOUS
 10
73.499999999999346
 20
-32.0
 30
0.0
 11
73.499999999999346
 21
-29.77
 31
0.0
  0
LINE
  5
DDF
  8
250
  6
CONTINUOUS
 10
58.397270614815113
 20
33.745403317317752
 30
0.0
 11
56.960397839999352
 21
31.999999999999861
 31
0.0
  0
LINE
  5
DE0
  8
250
  6
CONTINUOUS
 10
57.753525064613861
 20
34.117069983889472
 30
0.0
 11
56.960397839999352
 21
31.999999999999861
 31
0.0
  0
LINE
  5
DE1
  8
250
  6
CONTINUOUS
 10
56.960397839999352
 20
31.999999999999861
 30
0.0
 11
58.075397839714491
 21
33.931236650603623
 31
0.0
  0
LINE
  5
DFC
  8
247
  6
CONTINUOUS
 10
13.334498037258349
 20
-16.514774959853639
 30
0.0
 11
13.33449803725841
 21
-11.88015957552363
 31
0.0
  0
LINE
  5
DFD
  8
247
  6
CONTINUOUS
 10
10.83449803725841
 20
-15.719668459841561
 30
0.0
 11
12.93449803717442
 21
-16.321833769910992
 31
0.0
  0
LINE
  5
DFE
  8
247
  6
CONTINUOUS
 10
11.830651883372409
 20
-15.08992636337268
 30
0.0
 11
11.830651883372409
 21
-16.005310978720662
 31
0.0
  0
ARC
  5
DFF
  8
247
  6
CONTINUOUS
 10
11.219217104552509
 20
-14.852038361800391
 30
0.0
 40
0.3876715809326743
 50
72.997889675293067
 51
172.92416621851331
  0
ARC
  5
E00
  8
247
  6
CONTINUOUS
 10
11.13972116828643
 20
-15.14725251665771
 30
0.0
 40
0.6933047965358772
 50
4.7429368522022122
 51
73.84922627326678
1001
GENIUS_GENOBJ-N-FIL_13
1002
{
1000
OWNER
1000
GEN
1002
}
1001
GENIUS_GENODEF_13
1002
{
1000
HIER
1070
     0
1002
}
1002
{
1000
MANEDIT
1070
     0
1002
}
1002
{
1000
NOSEL
1070
     0
1002
}
1002
{
1000
BEHIND
1070
     0
1002
}
1002
{
1000
OTHER
1070
     0
1002
}
1002
{
1000
REACTOR
1002
}
  0
LINE
  5
E01
  8
247
  6
CONTINUOUS
 10
12.93449803717442
 20
-15.406449154562999
 30
0.0
 11
12.93449803717442
 21
-16.321833769910992
 31
0.0
  0
LINE
  5
E02
  8
247
  6
CONTINUOUS
 10
10.83449803725841
 20
-15.719668459841561
 30
0.0
 11
10.83449803725841
 21
-14.80428384449357
 31
0.0
  0
ARC
  5
E03
  8
247
  6
CONTINUOUS
 10
12.22191500002628
 20
-15.14308143612044
 30
0.0
 40
0.394857301075386
 50
65.990941652528917
 51
172.26344345906909
  0
ARC
  5
E04
  8
247
  6
CONTINUOUS
 10
12.225698364590979
 20
-15.477221570280561
 30
0.0
 40
0.7123241612361686
 50
5.701985164256504
 51
77.277338436822006
1001
GENIUS_GENOBJ-N-FIL_13
1002
{
1000
OWNER
1000
GEN
1002
}
1001
GENIUS_GENODEF_13
1002
{
1000
HIER
1070
     0
1002
}
1002
{
1000
MANEDIT
1070
     0
1002
}
1002
{
1000
NOSEL
1070
     0
1002
}
1002
{
1000
BEHIND
1070
     0
1002
}
1002
{
1000
OTHER
1070
     0
1002
}
1002
{
1000
REACTOR
1002
}
  0
LINE
  5
E05
  8
247
  6
CONTINUOUS
 10
12.93449803717442
 20
-14.44875684691698
 30
0.0
 11
10.83449803725841
 21
-13.846591536847599
 31
0.0
  0
LINE
  5
E06
  8
247
  6
CONTINUOUS
 10
10.83449803725841
 20
-12.350437690761559
 30
0.0
 11
10.83449803725841
 21
-12.746453324157191
 31
0.0
  0
LINE
  5
E07
  8
247
  6
CONTINUOUS
 10
12.93449803717442
 20
-13.373514613797569
 30
0.0
 11
12.93449803717442
 21
-12.942745383045571
 31
0.0
  0
ARC
  5
E08
  8
247
  6
CONTINUOUS
 10
12.29279763234177
 20
-12.14659153692355
 30
0.0
 40
1.576855057639547
 50
202.35948814152931
 51
254.99324854284691
  0
ARC
  5
E09
  8
247
  6
CONTINUOUS
 10
11.40031689579655
 20
-12.61228632598681
 30
0.0
 40
0.6234706797009447
 50
94.994589319075274
 51
155.16632895730399
1001
GENIUS_GENOBJ-N-FIL_13
1002
{
1000
OWNER
1000
GEN
1002
}
1001
GENIUS_GENODEF_13
1002
{
1000
HIER
1070
     0
1002
}
1002
{
1000
MANEDIT
1070
     0
1002
}
1002
{
1000
NOSEL
1070
     0
1002
}
1002
{
1000
BEHIND
1070
     0
1002
}
1002
{
1000
OTHER
1070
     0
1002
}
1002
{
1000
REACTOR
1002
}
  0
ARC
  5
E0A
  8
247
  6
CONTINUOUS
 10
11.99660015922785
 20
-13.208958910886389
 30
0.0
 40
0.9749472149106981
 50
15.84609655578071
 51
82.325137004169207
  0
ARC
  5
E0B
  8
247
  6
CONTINUOUS
 10
12.20596843922948
 20
-12.79998659862582
 30
0.0
 40
0.9271945638692009
 50
249.7136016704967
 51
321.78874565641081
1001
GENIUS_GENOBJ-N-FIL_13
1002
{
1000
OWNER
1000
GEN
1002
}
1001
GENIUS_GENODEF_13
1002
{
1000
HIER
1070
     0
1002
}
1002
{
1000
MANEDIT
1070
     0
1002
}
1002
{
1000
NOSEL
1070
     0
1002
}
1002
{
1000
BEHIND
1070
     0
1002
}
1002
{
1000
OTHER
1070
     0
1002
}
1002
{
1000
REACTOR
1002
}
  0
LINE
  5
E0C
  8
247
  6
CONTINUOUS
 10
12.126805729514389
 20
-12.72736076766955
 30
0.0
 11
12.126805729514389
 21
-12.242745383073609
 31
0.0
  0
ARC
  5
E0D
  8
247
  6
CONTINUOUS
 10
12.08449803725841
 20
-16.514774959853639
 30
0.0
 40
1.25
 50
180.0
 51
0.0
  0
LINE
  5
E0E
  8
247
  6
CONTINUOUS
 10
10.83449803725841
 20
-16.514774959853639
 30
0.0
 11
10.83449803725841
 21
-16.06862111376762
 31
0.0
  0
ARC
  5
E0F
  8
247
  6
CONTINUOUS
 10
12.08449803725841
 20
-11.88015957552363
 30
0.0
 40
1.25
 50
0.0
 51
180.0
  0
LINE
  5
E11
  8
250
  6
CONTINUOUS
 10
58.075397839714491
 20
33.931236650603623
 30
0.0
 11
64.766409307048576
 21
45.520408469999843
 31
0.0
1001
ACAD
1000
DSTYLE
1002
{
1070
     6
1000
OPEN
1070
   343
1005
0
1002
}
  0
LINE
  5
E12
  8
250
  6
CONTINUOUS
 10
64.766409307048576
 20
45.520408469999843
 30
0.0
 11
74.684331394977008
 21
45.520408469999843
 31
0.0
1001
ACAD
1000
DSTYLE
1002
{
1070
     6
1000
OPEN
1070
   343
1005
0
1002
}
  0
LINE
  5
E13
  8
250
  6
CONTINUOUS
 10
0.0
 20
32.174000003743323
 30
0.0
 11
0.0000000000000011
 21
50.0
 31
0.0
  0
LINE
  5
E14
  8
250
  6
CONTINUOUS
 10
60.50000000000022
 20
32.49999999999995
 30
0.0
 11
60.50000000000022
 21
50.0
 31
0.0
  0
LINE
  5
E15
  8
250
  6
CONTINUOUS
 10
2.23
 20
49.0
 30
0.0
 11
58.270000000000231
 21
49.0
 31
0.0
  0
TEXT
  5
E19
  8
250
  6
CONTINUOUS
 10
25.51666666666679
 20
50.0
 30
0.0
 40
2.7999999999999989
  1
60.5
  0
LINE
  5
E1A
  8
250
  6
CONTINUOUS
 10
58.270000000000231
 20
49.37166666666667
 30
0.0
 11
60.50000000000022
 21
49.0
 31
0.0
  0
LINE
  5
E1B
  8
250
  6
CONTINUOUS
 10
58.270000000000231
 20
48.62833333333333
 30
0.0
 11
60.50000000000022
 21
49.0
 31
0.0
  0
LINE
  5
E1C
  8
250
  6
CONTINUOUS
 10
60.50000000000022
 20
49.0
 30
0.0
 11
58.270000000000231
 21
49.0
 31
0.0
  0
LINE
  5
E1D
  8
250
  6
CONTINUOUS
 10
2.23
 20
48.62833333333333
 30
0.0
 11
0.0000000000000011
 21
49.0
 31
0.0
  0
LINE
  5
E1E
  8
250
  6
CONTINUOUS
 10
2.23
 20
49.37166666666667
 30
0.0
 11
0.0000000000000011
 21
49.0
 31
0.0
  0
LINE
  5
E1F
  8
250
  6
CONTINUOUS
 10
0.0000000000000011
 20
49.0
 30
0.0
 11
2.23
 21
49.0
 31
0.0
  0
TEXT
  5
E20
  8
250
  6
CONTINUOUS
 10
-159.2300154233333
 20
-41.235273560000003
 30
0.0
 40
2.7999999999999989
  1
MT6
  7
YOKO
1001
ITEMNAME
1000
LNSP3
1001
ACAD
1000
MTEXTBEGIN
1070
    73
1070
     1
1070
    44
1040
1.0
1070
    74
1070
     0
1000
MTEXTEND
1000
MTEXTBEGIN
1070
    73
1070
     1
1070
    44
1040
1.0
1070
    74
1070
     0
1000
MTEXTEND
1000
MTEXTBEGIN
1070
    73
1070
     1
1070
    44
1040
1.0
1070
    74
1070
     0
1000
MTEXTEND
  0
LINE
  5
E23
  8
250
  6
CONTINUOUS
 10
-141.55498173089859
 20
-29.634545579920498
 30
0.0
 11
-148.83001543
 21
-42.235273560000003
 31
0.0
1001
ACAD
1000
DSTYLE
1002
{
1070
     6
1000
OPEN
1070
   343
1005
594
1002
}
  0
LINE
  5
E24
  8
250
  6
CONTINUOUS
 10
-141.87685450588529
 20
-29.44871224643741
 30
0.0
 11
-140.43998173
 21
-27.703308929999999
 31
0.0
  0
LINE
  5
E25
  8
250
  6
CONTINUOUS
 10
-141.2331089559118
 20
-29.820378913403601
 30
0.0
 11
-140.43998173
 21
-27.703308929999999
 31
0.0
  0
LINE
  5
E26
  8
250
  6
CONTINUOUS
 10
-140.43998173
 20
-27.703308929999999
 30
0.0
 11
-141.55498173089859
 21
-29.634545579920498
 31
0.0
  0
VIEWPORT
  5
22
 67
     1
  8
0
 10
261.51769911999997
 20
148.5
 30
0.0
 40
523.03539823000006
 41
297.0
 68
     1
 69
     1
1001
ACAD
1000
MVIEW
1002
{
1070
    16
1010
0.0
1020
0.0
1030
0.0
1010
0.0
1020
0.0
1030
1.0
1040
0.0
1040
297.0
1040
261.51769911999997
1040
148.5
1040
50.0
1040
0.0
1040
0.0
1070
     0
1070
   100
1070
     1
1070
     1
1070
     0
1070
     0
1070
     0
1070
     0
1040
0.0
1040
0.0
1040
0.0
1040
1.0
1040
1.0
1040
10.0
1040
10.0
1070
     0
1002
{
1002
}
1002
}
1001
GENIUS_GENOBJ-N-SDF_13
1002
{
1000
OWNER
1000
GEN
1002
}
1001
GENIUS_GENODEF_13
1002
{
1000
HIER
1070
     0
1002
}
1002
{
1000
MANEDIT
1070
     0
1002
}
1002
{
1000
NOSEL
1070
     0
1002
}
1002
{
1000
BEHIND
1070
     0
1002
}
1002
{
1000
OTHER
1070
     0
1002
}
1002
{
1000
REACTOR
1002
}
1001
GENIUS_GENSCREG_15
1000
PF
1040
1.0
1000
DF
1040
1.0
1000
MIN
1011
0.0000000049999471
1021
0.0
1031
0.0
1021
0.0
1031
0.0
1000
MAX
1011
523.035398235
1021
0.0
1031
0.0
1021
297.0
1031
0.0
1000
FLAGS
1070
     4
  0
ENDSEC
  0
EOF
