  0
SECTION
  2
HEADER
  9
$ACADVER
  1
AC1009
  9
$INSBASE
 10
0.0
 20
0.0
 30
0.0
  9
$EXTMIN
 10
-150.0
 20
-34.959422459999999
 30
0.0
  9
$EXTMAX
 10
83.618954369999983
 20
68.000000000000043
 30
0.0
  9
$LIMMIN
 10
0.0
 20
0.0
  9
$LIMMAX
 10
420.0
 20
297.0
  9
$ORTHOMODE
 70
     1
  9
$REGENMODE
 70
     1
  9
$FILLMODE
 70
     1
  9
$QTEXTMODE
 70
     0
  9
$MIRRTEXT
 70
     1
  9
$DRAGMODE
 70
     2
  9
$LTSCALE
 40
10.0
  9
$OSMODE
 70
    37
  9
$ATTMODE
 70
     1
  9
$TEXTSIZE
 40
3.0
  9
$TRACEWID
 40
1.0
  9
$TEXTSTYLE
  7
YOKO
  9
$CLAYER
  8
245
  9
$CELTYPE
  6
BYLAYER
  9
$CECOLOR
 62
   256
  9
$DIMSCALE
 40
1.0
  9
$DIMASZ
 40
2.0
  9
$DIMEXO
 40
2.0
  9
$DIMDLI
 40
2.5
  9
$DIMRND
 40
0.0
  9
$DIMDLE
 40
0.0
  9
$DIMEXE
 40
2.0
  9
$DIMTP
 40
0.0
  9
$DIMTM
 40
0.0
  9
$DIMTXT
 40
4.0
  9
$DIMCEN
 40
0.0
  9
$DIMTSZ
 40
0.0
  9
$DIMTOL
 70
     0
  9
$DIMLIM
 70
     0
  9
$DIMTIH
 70
     0
  9
$DIMTOH
 70
     0
  9
$DIMSE1
 70
     0
  9
$DIMSE2
 70
     0
  9
$DIMTAD
 70
     3
  9
$DIMZIN
 70
     8
  9
$DIMBLK
  1

  9
$DIMASO
 70
     1
  9
$DIMSHO
 70
     1
  9
$DIMPOST
  1

  9
$DIMAPOST
  1

  9
$DIMALT
 70
     0
  9
$DIMALTD
 70
     2
  9
$DIMALTF
 40
25.399999999999999
  9
$DIMLFAC
 40
1.0
  9
$DIMTOFL
 70
     1
  9
$DIMTVP
 40
0.0
  9
$DIMTIX
 70
     1
  9
$DIMSOXD
 70
     0
  9
$DIMSAH
 70
     1
  9
$DIMBLK1
  1
OPEN
  9
$DIMBLK2
  1
OPEN
  9
$DIMSTYLE
  2
BIGT
  9
$DIMCLRD
 70
   256
  9
$DIMCLRE
 70
   256
  9
$DIMCLRT
 70
    40
  9
$DIMTFAC
 40
1.0
  9
$DIMGAP
 40
1.0
  9
$LUNITS
 70
     2
  9
$LUPREC
 70
     3
  9
$SKETCHINC
 40
1.0
  9
$FILLETRAD
 40
1.0
  9
$AUNITS
 70
     0
  9
$AUPREC
 70
     3
  9
$MENU
  1
.
  9
$ELEVATION
 40
0.0
  9
$PELEVATION
 40
0.0
  9
$THICKNESS
 40
0.0
  9
$LIMCHECK
 70
     0
  9
$BLIPMODE
 70
     0
  9
$CHAMFERA
 40
10.0
  9
$CHAMFERB
 40
10.0
  9
$SKPOLY
 70
     0
  9
$TDCREATE
 40
2455061.7079023728
  9
$TDUPDATE
 40
2459839.5878790971
  9
$TDINDWG
 40
0.0182668056
  9
$TDUSRTIMER
 40
0.018266794
  9
$USRTIMER
 70
     1
  9
$ANGBASE
 50
0.0
  9
$ANGDIR
 70
     0
  9
$PDMODE
 70
     1
  9
$PDSIZE
 40
-5.0
  9
$PLINEWID
 40
0.0
  9
$COORDS
 70
     1
  9
$SPLFRAME
 70
     0
  9
$SPLINETYPE
 70
     6
  9
$SPLINESEGS
 70
     8
  9
$ATTDIA
 70
     1
  9
$ATTREQ
 70
     1
  9
$HANDLING
 70
     1
  9
$HANDSEED
  5
D85
  9
$SURFTAB1
 70
     6
  9
$SURFTAB2
 70
     6
  9
$SURFTYPE
 70
     6
  9
$SURFU
 70
     6
  9
$SURFV
 70
     6
  9
$UCSNAME
  2

  9
$UCSORG
 10
0.0
 20
0.0
 30
0.0
  9
$UCSXDIR
 10
1.0
 20
0.0
 30
0.0
  9
$UCSYDIR
 10
0.0
 20
1.0
 30
0.0
  9
$PUCSNAME
  2

  9
$PUCSORG
 10
0.0
 20
0.0
 30
0.0
  9
$PUCSXDIR
 10
1.0
 20
0.0
 30
0.0
  9
$PUCSYDIR
 10
0.0
 20
1.0
 30
0.0
  9
$USERI1
 70
     1
  9
$USERI2
 70
     0
  9
$USERI3
 70
     0
  9
$USERI4
 70
     0
  9
$USERI5
 70
     0
  9
$USERR1
 40
0.0
  9
$USERR2
 40
0.0
  9
$USERR3
 40
0.0
  9
$USERR4
 40
0.0
  9
$USERR5
 40
0.0
  9
$WORLDVIEW
 70
     1
  9
$SHADEDGE
 70
     3
  9
$SHADEDIF
 70
    70
  9
$TILEMODE
 70
     1
  9
$MAXACTVP
 70
    16
  9
$PLIMCHECK
 70
     0
  9
$PEXTMIN
 10
1.0000000000000000E+020
 20
1.0000000000000000E+020
 30
1.0000000000000000E+020
  9
$PEXTMAX
 10
-1.0000000000000000E+020
 20
-1.0000000000000000E+020
 30
-1.0000000000000000E+020
  9
$PLIMMIN
 10
0.0
 20
0.0
  9
$PLIMMAX
 10
420.0
 20
297.0
  9
$UNITMODE
 70
     0
  9
$VISRETAIN
 70
     0
  9
$PLINEGEN
 70
     0
  9
$PSLTSCALE
 70
     1
  0
ENDSEC
  0
SECTION
  2
TABLES
  0
TABLE
  2
VPORT
 70
     1
  0
VPORT
  2
*ACTIVE
 70
     0
 10
0.0
 20
0.0
 11
1.0
 21
1.0
 12
-37.854129107094138
 22
20.897129165011361
 13
0.0
 23
0.0
 14
7.0
 24
7.0
 15
7.0
 25
7.0
 16
0.0
 26
0.0
 36
1.0
 17
0.0
 27
0.0
 37
0.0
 40
164.14528569210731
 41
1.762778505897771
 42
50.0
 43
0.0
 44
0.0
 50
0.0
 51
0.0
 71
     0
 72
  2000
 73
     1
 74
     0
 75
     0
 76
     1
 77
     0
 78
     0
  0
ENDTAB
  0
TABLE
  2
LTYPE
 70
    17
  0
LTYPE
  2
CONTINUOUS
 70
     0
  3
Solid line
 72
    65
 73
     0
 40
0.0
  0
LTYPE
  2
CENTER2
 70
     0
  3
___ _ ___ _ ___ _ ___ _ ___ _ ___ _ ___ _ ___ _
 72
    65
 73
     4
 40
1.125
 49
0.75
 49
-0.125
 49
0.125
 49
-0.125
  0
LTYPE
  2
HIDDEN2
 70
     0
  3
_ _ _ _ _ _ _ _ _ _ _ _ _ _ _ _ _ _ _ _ _ _ _ _
 72
    65
 73
     2
 40
0.1875
 49
0.125
 49
-0.0625
  0
LTYPE
  2
HIDDEN
 70
     0
  3
Hidden __ __ __ __ __ __ __ __ __ __ __ __ __ _
 72
    65
 73
     2
 40
9.5249999999999986
 49
6.3499999999999988
 49
-3.1749999999999989
  0
LTYPE
  2
PHANTOM2
 70
     0
  3
___ _ _ ___ _ _ ___ _ _ ___ _ _ ___ _ _ ___ _ _
 72
    65
 73
     6
 40
1.25
 49
0.625
 49
-0.125
 49
0.125
 49
-0.125
 49
0.125
 49
-0.125
  0
LTYPE
  2
CENTER
 70
     0
  3
____ _ ____ _ ____ _ ____ _ ____ _ ____ _ ____ 
 72
    65
 73
     4
 40
2.0
 49
1.25
 49
-0.25
 49
0.25
 49
-0.25
  0
LTYPE
  2
AMCONSTR
 70
     0
  3
_______________________
 72
    65
 73
     2
 40
9999.0
 49
9999.0
 49
0.0
  0
LTYPE
  2
AM_ISO02W050
 70
     0
  3
__ __ __ __ __ __ __ __ __ __ __ __ __ __ __
 72
    65
 73
     2
 40
7.5
 49
6.0
 49
-1.5
  0
LTYPE
  2
ACJISTGB
 70
     0
  3
__ . . __ . .
 72
    65
 73
     6
 40
9.0
 49
4.0
 49
-1.0
 49
1.0
 49
-1.0
 49
1.0
 49
-1.0
  0
LTYPE
  2
ACJISTGL
 70
     0
  3
_ _ _ _ _
 72
    65
 73
     2
 40
3.0
 49
2.0
 49
-1.0
  0
LTYPE
  2
ACISOWELD
 70
     0
  3
_ _ _ _ _
 72
    65
 73
     2
 40
2.0
 49
2.0
 49
-1.0
  0
LTYPE
  2
ACISOTGB
 70
     0
  3
__ . . __ . .
 72
    65
 73
     6
 40
9.0
 49
4.0
 49
-1.0
 49
1.0
 49
-1.0
 49
1.0
 49
-1.0
  0
LTYPE
  2
ACISOTGL
 70
     0
  3
_ _ _ _ _
 72
    65
 73
     2
 40
3.0
 49
2.0
 49
-1.0
  0
LTYPE
  2
AMZIGZAG2
 70
     0
  3
/\/-/\/-/\/-/\/-/\/-/\/
 72
    65
 73
     2
 40
0.4401
 49
0.0001
 49
-0.4400000000000002
  0
LTYPE
  2
ACANSTGB
 70
     0
  3
__ . . __ . .
 72
    65
 73
     6
 40
0.35433070866
 49
0.15748031496
 49
-0.03937007874
 49
0.03937007874
 49
-0.03937007874
 49
0.03937007874
 49
-0.03937007874
  0
LTYPE
  2
ACANSTGL
 70
     0
  3
_ _ _ _ _
 72
    65
 73
     2
 40
0.11811023622
 49
0.07874015748
 49
-0.03937007874
  0
ENDTAB
  0
TABLE
  2
LAYER
 70
    11
  0
LAYER
  2
0
 70
     0
 62
     7
  6
CONTINUOUS
  0
LAYER
  2
240
 70
     0
 62
     4
  6
CONTINUOUS
  0
LAYER
  2
241
 70
     0
 62
   211
  6
CONTINUOUS
  0
LAYER
  2
242
 70
     0
 62
     3
  6
CONTINUOUS
  0
LAYER
  2
245
 70
     0
 62
     2
  6
CENTER2
  0
LAYER
  2
250
 70
     0
 62
     3
  6
CONTINUOUS
  0
LAYER
  2
DEFPOINTS
 70
     0
 62
     7
  6
CONTINUOUS
  0
LAYER
  2
5
 70
     0
 62
     2
  6
CONTINUOUS
  0
LAYER
  2
243
 70
     0
 62
   211
  6
HIDDEN2
  0
LAYER
  2
247
 70
     0
 62
    60
  6
CONTINUOUS
  0
ENDTAB
  0
TABLE
  2
STYLE
 70
     7
  0
STYLE
  2
STANDARD
 70
     0
 40
0.0
 41
1.0
 50
0.0
 71
     0
 42
3.0
  3
romans.shx
  4
BIGFONT.SHX
  0
STYLE
  2
YOKO
 70
     0
 40
0.0
 41
1.0
 50
0.0
 71
     0
 42
3.0
  3
romans.shx
  4
extfont.shx
  0
STYLE
  2
ACJISTS
 70
     0
 40
1.0
 41
1.0
 50
0.0
 71
     0
 42
3.0
  3
amgdt.shx
  4
extfont.shx
  0
STYLE
  2
ACJISGDT
 70
     0
 40
0.0
 41
1.0
 50
0.0
 71
     0
 42
3.0
  3
amgdt.shx
  4
extfont.shx
  0
STYLE
  2
ACISOTS
 70
     0
 40
1.0
 41
1.0
 50
0.0
 71
     0
 42
3.0
  3
amgdt.shx
  4
extfont.shx
  0
STYLE
  2
ACISOGDT
 70
     0
 40
0.0
 41
1.0
 50
0.0
 71
     0
 42
3.0
  3
amgdt.shx
  4
extfont.shx
  0
STYLE
  2
ACANSGDT
 70
     0
 40
0.0
 41
1.0
 50
0.0
 71
     0
 42
3.0
  3
amgdt.shx
  4

  0
ENDTAB
  0
TABLE
  2
VIEW
 70
     0
  0
ENDTAB
  0
TABLE
  2
UCS
 70
     0
  0
ENDTAB
  0
TABLE
  2
APPID
 70
    38
  0
APPID
  2
ACAD
 70
     0
  0
APPID
  2
GLOBAL
 70
     0
  0
APPID
  2
DETAIL
 70
     0
  0
APPID
  2
GRPNAME
 70
     0
  0
APPID
  2
GPARA
 70
     0
  0
APPID
  2
DCO15
 70
     0
  0
APPID
  2
ITEMNAME
 70
     0
  0
APPID
  2
GRADE_0
 70
     0
  0
APPID
  2
CONTENTBLOCKICON
 70
     0
  0
APPID
  2
ACAD_PSEXT
 70
     0
  0
APPID
  2
MCAD_NO_VIS
 70
     0
  0
APPID
  2
ACAD_TEMP_GRAPHIC
 70
     0
  0
APPID
  2
ACATTRIBSERVICES
 70
     0
  0
APPID
  2
GENIUS_GENSCREG_15
 70
     0
  0
APPID
  2
GENIUS_GENODEF_13
 70
     0
  0
APPID
  2
GENIUS_GENOBJ-N-SDF_13
 70
     0
  0
APPID
  2
GENIUS_GENREC_14
 70
     0
  0
APPID
  2
GENIUS_GENOBJ-N-REC_13
 70
     0
  0
APPID
  2
GENIUS_GENDIMSH_14
 70
     0
  0
APPID
  2
GENIUS_GENOBJ-N-DIM_13
 70
     0
  0
APPID
  2
GENIUS_GENDIM_13
 70
     0
  0
APPID
  2
GENIUS_GENDTOL_13
 70
     0
  0
APPID
  2
GENIUS_GENOLIS_13
 70
     0
  0
APPID
  2
GENIUS_GENOENT_13
 70
     0
  0
APPID
  2
GENIUS_GENOBJ-F-FEM_13
 70
     0
  0
APPID
  2
GENIUS_GENOREF_13
 70
     0
  0
APPID
  2
GENIUS_GEFFEM_13
 70
     0
  0
APPID
  2
GENIUS_GEFFEMP_13
 70
     0
  0
APPID
  2
AD_DRAW
 70
     0
  0
APPID
  2
DESIGNERASSEMBLIES
 70
     0
  0
APPID
  2
ACADM_DIM_EDIT
 70
     0
  0
APPID
  2
AMDT_DM_ADJ
 70
     0
  0
APPID
  2
GENIUS_GENOBJ-N-FIL_13
 70
     0
  0
APPID
  2
GENIUS_GENFIL_13
 70
     0
  0
APPID
  2
GENIUS_GENOBJ-N-CHA_13
 70
     0
  0
APPID
  2
ACAD_NAV_VCDISPLAY
 70
     0
  0
APPID
  2
ACAD_EXEMPT_FROM_CAD_STANDARDS
 70
     0
  0
APPID
  2
ACAD_MLEADERVER
 70
     0
  0
ENDTAB
  0
TABLE
  2
DIMSTYLE
 70
    29
  0
DIMSTYLE
  2
BIGT
 70
     0
  3

  4

  5
OPEN
  6

  7

 40
1.0
 41
2.2299999999999991
 42
0.5
 43
7.0
 44
1.0
 45
0.0
 46
0.0
 47
0.0
 48
0.01
140
2.7999999999999989
141
0.0
142
0.0
143
25.399999999999999
144
1.0
145
0.0
146
1.0
147
1.0
 71
     0
 72
     0
 73
     0
 74
     0
 75
     0
 76
     0
 77
     3
 78
     9
170
     0
171
     2
172
     1
173
     0
174
     1
175
     0
176
   256
177
   256
178
    40
  0
DIMSTYLE
  2
BIGT$0
 70
     0
  3

  4

  5
OPEN
  6

  7

 40
1.0
 41
2.2299999999999991
 42
0.5
 43
7.0
 44
1.0
 45
0.0
 46
0.0
 47
0.0
 48
0.01
140
2.7999999999999989
141
0.0
142
0.0
143
25.399999999999999
144
1.0
145
0.0
146
1.0
147
1.0
 71
     0
 72
     0
 73
     0
 74
     0
 75
     0
 76
     0
 77
     3
 78
     9
170
     0
171
     2
172
     1
173
     0
174
     1
175
     0
176
   256
177
   256
178
    40
  0
DIMSTYLE
  2
BIGT$2
 70
     0
  3

  4

  5
OPEN
  6

  7

 40
1.0
 41
2.2299999999999991
 42
0.5
 43
7.0
 44
1.0
 45
0.0
 46
0.0
 47
0.0
 48
0.01
140
2.7999999999999989
141
0.0
142
0.0
143
25.399999999999999
144
1.0
145
0.0
146
1.0
147
1.0
 71
     0
 72
     0
 73
     0
 74
     0
 75
     0
 76
     0
 77
     3
 78
     9
170
     0
171
     2
172
     1
173
     0
174
     0
175
     0
176
   256
177
   256
178
    40
  0
DIMSTYLE
  2
BIGT$3
 70
     0
  3

  4

  5
OPEN
  6

  7

 40
1.0
 41
2.2299999999999991
 42
0.5
 43
2.5
 44
1.0
 45
0.0
 46
0.0
 47
0.0
 48
0.01
140
2.7999999999999989
141
0.0
142
0.0
143
25.399999999999999
144
1.0
145
0.0
146
1.0
147
1.0
 71
     0
 72
     0
 73
     0
 74
     0
 75
     0
 76
     0
 77
     3
 78
     9
170
     0
171
     2
172
     1
173
     0
174
     0
175
     0
176
   256
177
   256
178
    40
  0
DIMSTYLE
  2
BIGT$4
 70
     0
  3

  4

  5
OPEN
  6

  7

 40
1.0
 41
2.2299999999999991
 42
0.5
 43
2.5
 44
1.0
 45
0.0
 46
0.0
 47
0.0
 48
0.01
140
2.7999999999999989
141
0.0
142
0.0
143
25.399999999999999
144
1.0
145
0.0
146
1.0
147
1.0
 71
     0
 72
     0
 73
     0
 74
     0
 75
     0
 76
     0
 77
     3
 78
     9
170
     0
171
     2
172
     1
173
     0
174
     0
175
     0
176
   256
177
   256
178
    40
  0
DIMSTYLE
  2
BIGT$6
 70
     0
  3

  4

  5
OPEN
  6

  7

 40
1.0
 41
2.2299999999999991
 42
0.5
 43
2.5
 44
1.0
 45
0.0
 46
0.0
 47
0.0
 48
0.01
140
2.7999999999999989
141
0.0
142
0.0
143
25.399999999999999
144
1.0
145
0.0
146
1.0
147
1.0
 71
     0
 72
     0
 73
     0
 74
     0
 75
     0
 76
     0
 77
     3
 78
     9
170
     0
171
     2
172
     1
173
     0
174
     0
175
     0
176
   256
177
   256
178
    40
  0
DIMSTYLE
  2
BIGT$7
 70
     0
  3

  4

  5
OPEN
  6

  7

 40
0.0
 41
2.2299999999999991
 42
0.5
 43
7.0
 44
1.0
 45
0.0
 46
0.0
 47
0.0
 48
0.01
140
2.7999999999999989
141
0.0
142
0.0
143
25.399999999999999
144
1.0
145
0.0
146
1.0
147
1.0
 71
     0
 72
     0
 73
     0
 74
     0
 75
     0
 76
     0
 77
     3
 78
     9
170
     0
171
     2
172
     0
173
     0
174
     0
175
     0
176
   256
177
   256
178
    40
  0
DIMSTYLE
  2
BIGT$SF
 70
     0
  3

  4

  5
OPEN
  6

  7

 40
1.0
 41
2.2299999999999991
 42
0.5
 43
7.0
 44
1.0
 45
0.0
 46
0.0
 47
0.0
 48
0.0
140
2.7999999999999989
141
0.0
142
0.0
143
25.399999999999999
144
1.0
145
0.0
146
1.0
147
1.0
 71
     0
 72
     0
 73
     0
 74
     0
 75
     0
 76
     0
 77
     3
 78
     9
170
     0
171
     2
172
     1
173
     0
174
     0
175
     0
176
   256
177
   256
178
    40
  0
DIMSTYLE
  2
BIGT$SH
 70
     0
  3

  4

  5
OPEN
  6

  7

 40
1.0
 41
2.2299999999999991
 42
0.5
 43
7.0
 44
1.0
 45
0.0
 46
0.0
 47
0.0
 48
0.0
140
2.7999999999999989
141
0.0
142
0.0
143
25.399999999999999
144
1.0
145
0.0
146
1.0
147
1.0
 71
     0
 72
     0
 73
     0
 74
     0
 75
     0
 76
     0
 77
     3
 78
     9
170
     0
171
     2
172
     1
173
     0
174
     0
175
     0
176
   256
177
   256
178
    40
  0
DIMSTYLE
  2
AM_ISO
 70
     0
  3

  4
"
  5

  6

  7

 40
1.0
 41
2.5
 42
1.0
 43
10.0
 44
1.0
 45
0.0
 46
0.0
 47
0.1
 48
0.1
140
3.5
141
0.0
142
0.0
143
0.0393701
144
1.0
145
0.0
146
0.71
147
1.5
 71
     0
 72
     0
 73
     0
 74
     0
 75
     0
 76
     0
 77
     1
 78
     8
170
     0
171
     2
172
     1
173
     0
174
     0
175
     0
176
   256
177
   256
178
     2
  0
DIMSTYLE
  2
AM_ISO$3
 70
     0
  3

  4
"
  5

  6

  7

 40
1.0
 41
2.5
 42
1.0
 43
10.0
 44
1.0
 45
0.0
 46
0.0
 47
0.1
 48
0.1
140
3.5
141
0.0
142
0.0
143
0.0393701
144
1.0
145
0.0
146
0.71
147
1.5
 71
     0
 72
     0
 73
     0
 74
     1
 75
     0
 76
     0
 77
     1
 78
     8
170
     0
171
     2
172
     0
173
     0
174
     0
175
     0
176
   256
177
   256
178
     2
  0
DIMSTYLE
  2
AM_ISO$4
 70
     0
  3

  4
"
  5

  6

  7

 40
1.0
 41
2.5
 42
1.0
 43
10.0
 44
1.0
 45
0.0
 46
0.0
 47
0.1
 48
0.1
140
3.5
141
0.0
142
0.0
143
0.0393701
144
1.0
145
0.0
146
0.71
147
1.5
 71
     0
 72
     0
 73
     0
 74
     1
 75
     0
 76
     0
 77
     1
 78
     8
170
     0
171
     2
172
     0
173
     0
174
     0
175
     0
176
   256
177
   256
178
     2
  0
DIMSTYLE
  2
AM_ISO$6
 70
     0
  3

  4
"
  5

  6

  7

 40
1.0
 41
2.5
 42
1.0
 43
10.0
 44
1.0
 45
0.0
 46
0.0
 47
0.1
 48
0.1
140
3.5
141
0.0
142
0.0
143
0.0393701
144
1.0
145
0.0
146
0.71
147
1.5
 71
     0
 72
     0
 73
     0
 74
     0
 75
     0
 76
     0
 77
     0
 78
     8
170
     0
171
     2
172
     1
173
     0
174
     0
175
     0
176
   256
177
   256
178
     2
  0
DIMSTYLE
  2
AM_ISO$7
 70
     0
  3

  4
"
  5

  6

  7

 40
1.0
 41
2.5
 42
1.0
 43
10.0
 44
1.0
 45
0.0
 46
0.0
 47
0.1
 48
0.1
140
5.0
141
0.0
142
0.0
143
0.0393701
144
1.0
145
0.0
146
0.71
147
1.5
 71
     0
 72
     0
 73
     0
 74
     0
 75
     0
 76
     0
 77
     1
 78
     8
170
     0
171
     2
172
     1
173
     0
174
     0
175
     0
176
   256
177
   256
178
     2
  0
DIMSTYLE
  2
AM_ISO$SF
 70
     0
  3

  4
"
  5

  6

  7

 40
1.0
 41
2.5
 42
1.0
 43
10.0
 44
1.0
 45
0.0
 46
0.0
 47
0.1
 48
0.1
140
3.5
141
0.0
142
0.0
143
0.0393701
144
1.0
145
0.0
146
0.71
147
1.5
 71
     0
 72
     0
 73
     0
 74
     0
 75
     1
 76
     1
 77
     1
 78
     8
170
     0
171
     2
172
     1
173
     0
174
     0
175
     0
176
   256
177
   256
178
     2
  0
DIMSTYLE
  2
AM_ISO$SH
 70
     0
  3

  4
"
  5

  6
GENAXEH
  7

 40
1.0
 41
2.5
 42
1.0
 43
10.0
 44
1.0
 45
0.0
 46
0.0
 47
0.1
 48
0.1
140
3.5
141
0.0
142
0.0
143
0.0393701
144
2.0
145
0.0
146
0.71
147
1.5
 71
     0
 72
     0
 73
     0
 74
     0
 75
     1
 76
     1
 77
     1
 78
     8
170
     0
171
     2
172
     1
173
     1
174
     0
175
     0
176
   256
177
   256
178
     2
  0
DIMSTYLE
  2
TECHNICAL_OSAKA
 70
     0
  3

  4
"
  5
OPEN30
  6

  7

 40
1.0
 41
2.5
 42
1.0
 43
10.0
 44
1.0
 45
0.0
 46
0.0
 47
0.1
 48
0.1
140
2.7999999999999989
141
0.0
142
0.0
143
0.0393701
144
1.0
145
0.0
146
0.71
147
1.5
 71
     0
 72
     0
 73
     0
 74
     0
 75
     0
 76
     0
 77
     3
 78
     8
170
     0
171
     2
172
     1
173
     0
174
     0
175
     0
176
   256
177
   256
178
    40
  0
DIMSTYLE
  2
TECHNICAL_OSAKA$3
 70
     0
  3

  4
"
  5
OPEN30
  6

  7

 40
1.0
 41
2.5
 42
1.0
 43
10.0
 44
1.0
 45
0.0
 46
0.0
 47
0.1
 48
0.1
140
2.7999999999999989
141
0.0
142
0.0
143
0.0393701
144
1.0
145
0.0
146
0.71
147
1.5
 71
     0
 72
     0
 73
     0
 74
     1
 75
     0
 76
     0
 77
     3
 78
     8
170
     0
171
     2
172
     0
173
     0
174
     0
175
     0
176
   256
177
   256
178
    40
  0
DIMSTYLE
  2
TECHNICAL_OSAKA$4
 70
     0
  3

  4
"
  5
OPEN30
  6

  7

 40
1.0
 41
2.5
 42
1.0
 43
10.0
 44
1.0
 45
0.0
 46
0.0
 47
0.1
 48
0.1
140
2.7999999999999989
141
0.0
142
0.0
143
0.0393701
144
1.0
145
0.0
146
0.71
147
1.5
 71
     0
 72
     0
 73
     0
 74
     1
 75
     0
 76
     0
 77
     3
 78
     8
170
     0
171
     2
172
     0
173
     0
174
     0
175
     0
176
   256
177
   256
178
    40
  0
DIMSTYLE
  2
TECHNICAL_OSAKA$6
 70
     0
  3

  4
"
  5
OPEN30
  6

  7

 40
1.0
 41
2.5
 42
1.0
 43
10.0
 44
1.0
 45
0.0
 46
0.0
 47
0.1
 48
0.1
140
2.7999999999999989
141
0.0
142
0.0
143
0.0393701
144
1.0
145
0.0
146
0.71
147
1.5
 71
     0
 72
     0
 73
     0
 74
     0
 75
     0
 76
     0
 77
     0
 78
     8
170
     0
171
     2
172
     1
173
     0
174
     0
175
     0
176
   256
177
   256
178
    40
  0
DIMSTYLE
  2
TECHNICAL_OSAKA$7
 70
     0
  3

  4
"
  5
OPEN30
  6

  7

 40
1.0
 41
2.5
 42
1.0
 43
10.0
 44
1.0
 45
0.0
 46
0.0
 47
0.1
 48
0.1
140
2.7999999999999989
141
0.0
142
0.0
143
0.0393701
144
1.0
145
0.0
146
0.71
147
1.5
 71
     0
 72
     0
 73
     0
 74
     0
 75
     0
 76
     0
 77
     3
 78
     8
170
     0
171
     2
172
     1
173
     0
174
     0
175
     0
176
   256
177
   256
178
    40
  0
DIMSTYLE
  2
TECHNICAL_OSAKA$SF
 70
     0
  3

  4
"
  5
OPEN30
  6
OPEN30
  7
OPEN30
 40
1.0
 41
2.5
 42
1.0
 43
10.0
 44
1.0
 45
0.0
 46
0.0
 47
0.1
 48
0.1
140
3.5
141
0.0
142
0.0
143
0.0393701
144
1.0
145
0.0
146
0.71
147
1.5
 71
     0
 72
     0
 73
     0
 74
     0
 75
     1
 76
     1
 77
     3
 78
     8
170
     0
171
     2
172
     1
173
     0
174
     0
175
     0
176
   256
177
   256
178
    40
  0
DIMSTYLE
  2
TECHNICAL_OSAKA$SH
 70
     0
  3

  4
"
  5
OPEN30
  6
GENAXEH
  7
OPEN30
 40
1.0
 41
2.5
 42
1.0
 43
10.0
 44
1.0
 45
0.0
 46
0.0
 47
0.1
 48
0.1
140
3.5
141
0.0
142
0.0
143
0.0393701
144
2.0
145
0.0
146
0.71
147
1.5
 71
     0
 72
     0
 73
     0
 74
     0
 75
     1
 76
     1
 77
     3
 78
     8
170
     0
171
     2
172
     1
173
     1
174
     0
175
     0
176
   256
177
   256
178
    40
  0
DIMSTYLE
  2
AM_ANSI
 70
     0
  3

  4
mm
  5

  6

  7

 40
1.0
 41
0.12
 42
0.05
 43
0.5
 44
0.1
 45
0.0
 46
0.0
 47
0.1
 48
0.1
140
0.12
141
0.0
142
0.0
143
25.399999999999999
144
1.0
145
0.0
146
0.71
147
0.06
 71
     0
 72
     0
 73
     1
 74
     1
 75
     0
 76
     0
 77
     0
 78
     7
170
     0
171
     2
172
     0
173
     0
174
     0
175
     0
176
   256
177
   256
178
     2
  0
DIMSTYLE
  2
AM_ANSI$3
 70
     0
  3

  4
mm
  5

  6

  7

 40
1.0
 41
0.12
 42
0.05
 43
0.5
 44
0.1
 45
0.0
 46
0.0
 47
0.1
 48
0.1
140
0.12
141
0.0
142
0.0
143
25.399999999999999
144
1.0
145
0.0
146
0.71
147
0.06
 71
     0
 72
     0
 73
     1
 74
     1
 75
     0
 76
     0
 77
     0
 78
     7
170
     0
171
     2
172
     0
173
     0
174
     0
175
     0
176
   256
177
   256
178
     2
  0
DIMSTYLE
  2
AM_ANSI$4
 70
     0
  3

  4
mm
  5

  6

  7

 40
1.0
 41
0.12
 42
0.05
 43
0.5
 44
0.1
 45
0.0
 46
0.0
 47
0.1
 48
0.1
140
0.12
141
0.0
142
0.0
143
25.399999999999999
144
1.0
145
0.0
146
0.71
147
0.06
 71
     0
 72
     0
 73
     1
 74
     1
 75
     0
 76
     0
 77
     0
 78
     7
170
     0
171
     2
172
     0
173
     0
174
     0
175
     0
176
   256
177
   256
178
     2
  0
DIMSTYLE
  2
AM_ANSI$7
 70
     0
  3

  4
mm
  5

  6

  7

 40
1.0
 41
0.12
 42
0.05
 43
0.5
 44
0.1
 45
0.0
 46
0.0
 47
0.1
 48
0.1
140
0.12
141
0.0
142
0.0
143
25.399999999999999
144
1.0
145
0.0
146
0.71
147
0.06
 71
     0
 72
     0
 73
     1
 74
     1
 75
     0
 76
     0
 77
     0
 78
     7
170
     0
171
     2
172
     0
173
     0
174
     0
175
     0
176
   256
177
   256
178
     2
  0
DIMSTYLE
  2
AM_ANSI$SF
 70
     0
  3

  4
mm
  5

  6

  7

 40
1.0
 41
0.12
 42
0.05
 43
0.5
 44
0.1
 45
0.0
 46
0.0
 47
0.1
 48
0.1
140
0.12
141
0.0
142
0.0
143
25.399999999999999
144
1.0
145
0.0
146
0.71
147
0.06
 71
     0
 72
     0
 73
     1
 74
     1
 75
     1
 76
     1
 77
     0
 78
     7
170
     0
171
     2
172
     0
173
     0
174
     0
175
     0
176
   256
177
   256
178
     2
  0
DIMSTYLE
  2
AM_ANSI$SH
 70
     0
  3

  4
mm
  5

  6

  7

 40
1.0
 41
0.12
 42
0.05
 43
0.5
 44
0.1
 45
0.0
 46
0.0
 47
0.1
 48
0.1
140
0.12
141
0.0
142
0.0
143
25.399999999999999
144
1.0
145
0.0
146
0.71
147
0.06
 71
     0
 72
     0
 73
     1
 74
     1
 75
     1
 76
     1
 77
     0
 78
     7
170
     0
171
     2
172
     0
173
     1
174
     0
175
     0
176
   256
177
   256
178
     2
  0
ENDTAB
  0
ENDSEC
  0
SECTION
  2
BLOCKS
  0
BLOCK
  8
0
  2
$MODEL_SPACE
 70
     0
 10
0.0
 20
0.0
 30
0.0
  3
$MODEL_SPACE
  1

  0
ENDBLK
  5
1C
  8
0
  0
BLOCK
 67
     1
  8
0
  2
$PAPER_SPACE
 70
     0
 10
0.0
 20
0.0
 30
0.0
  3
$PAPER_SPACE
  1

  0
ENDBLK
  5
19
 67
     1
  8
0
  0
BLOCK
  8
0
  2
_OPEN
 70
     0
 10
0.0
 20
0.0
 30
0.0
  3
_OPEN
  1

  0
LINE
  5
B42
  8
0
  6
BYBLOCK
 62
     0
 10
-1.0
 20
0.1666666666666666
 30
0.0
 11
0.0
 21
0.0
 31
0.0
  0
LINE
  5
B43
  8
0
  6
BYBLOCK
 62
     0
 10
-1.0
 20
-0.1666666666666666
 30
0.0
 11
0.0
 21
0.0
 31
0.0
  0
LINE
  5
B44
  8
0
  6
BYBLOCK
 62
     0
 10
0.0
 20
0.0
 30
0.0
 11
-1.0
 21
0.0
 31
0.0
  0
ENDBLK
  5
B45
  8
0
  0
BLOCK
  8
0
  2
矢印なし
 70
     0
 10
0.0
 20
0.0
 30
0.0
  3
矢印なし
  1

  0
ENDBLK
  5
6E5
  8
0
  0
BLOCK
  8
0
  2
GENAXEH
 70
     0
 10
0.0
 20
0.0
 30
0.0
  3
GENAXEH
  1

  0
LINE
  5
B7D
  8
0
 10
-1.0
 20
0.0
 30
0.0
 11
1.0
 21
0.0
 31
0.0
  0
ENDBLK
  5
B7E
  8
0
  0
BLOCK
  8
0
  2
_OPEN30
 70
     0
 10
0.0
 20
0.0
 30
0.0
  3
_OPEN30
  1

  0
LINE
  5
BB9
  8
0
  6
BYBLOCK
 62
     0
 10
-1.0
 20
0.26794919
 30
0.0
 11
0.0
 21
0.0
 31
0.0
  0
LINE
  5
BBA
  8
0
  6
BYBLOCK
 62
     0
 10
0.0
 20
0.0
 30
0.0
 11
-1.0
 21
-0.26794919
 31
0.0
  0
LINE
  5
BBB
  8
0
  6
BYBLOCK
 62
     0
 10
0.0
 20
0.0
 30
0.0
 11
-1.0
 21
0.0
 31
0.0
  0
ENDBLK
  5
BBC
  8
0
  0
ENDSEC
  0
SECTION
  2
ENTITIES
  0
INSERT
  5
6E6
  8
245
  2
矢印なし
 10
175.62382697000001
 20
90.551235719999994
 30
0.0
  0
LINE
  5
7FF
  8
250
  6
CONTINUOUS
 10
-103.52242751
 20
-34.959422459999999
 30
0.0
 11
-116.34187261
 21
-34.959422459999999
 31
0.0
1001
ITEMNAME
1000
LNSP2
  0
TEXT
  5
801
  8
241
 10
-149.0
 20
63.0
 30
0.0
 40
5.0
  1
MT5-CKB6-61
  7
YOKO
 11
-149.0
 21
63.0
 31
0.0
 73
     1
  0
LINE
  5
BEB
  8
245
  6
CENTER2
 10
-150.0
 20
0.0
 30
0.0
 11
61.5
 21
0.0
 31
0.0
1001
GRPNAME
1000
PASTMD01
  0
LINE
  5
BEC
  8
240
  6
CONTINUOUS
 10
-130.0
 20
18.850000000000001
 30
0.0
 11
5.5256582200000004
 21
22.328491889999999
 31
0.0
  0
LINE
  5
BED
  8
240
  6
CONTINUOUS
 10
-130.0
 20
-18.850000000000001
 30
0.0
 11
5.5256582200000004
 21
-22.328491889999999
 31
0.0
  0
LINE
  5
BEE
  8
241
  6
CONTINUOUS
 10
-144.96574619
 20
15.981864720000001
 30
0.0
 11
-131.0
 21
15.981864720000001
 31
0.0
  0
LINE
  5
BEF
  8
241
  6
CONTINUOUS
 10
-144.96574619
 20
-15.981864720000001
 30
0.0
 11
-131.0
 21
-15.981864720000001
 31
0.0
  0
LINE
  5
BF0
  8
240
  6
CONTINUOUS
 10
-131.0
 20
17.850000000000001
 30
0.0
 11
-144.96164361999999
 21
17.850000000000001
 31
0.0
  0
LINE
  5
BF1
  8
240
  6
CONTINUOUS
 10
-131.0
 20
-17.850000000000001
 30
0.0
 11
-144.96164361999999
 21
-17.850000000000001
 31
0.0
  0
LINE
  5
BF2
  8
241
  6
CONTINUOUS
 10
-147.54111474000001
 20
13.66677717
 30
0.0
 11
-149.0
 21
0.0
 31
0.0
  0
LINE
  5
BF3
  8
240
  6
CONTINUOUS
 10
-149.0
 20
-7.9500000000000002
 30
0.0
 11
-149.0
 21
7.9500000000000002
 31
0.0
  0
LINE
  5
BF4
  8
241
  6
CONTINUOUS
 10
-147.54111474000001
 20
-13.66677717
 30
0.0
 11
-149.0
 21
0.0
 31
0.0
  0
LINE
  5
BF5
  8
240
  6
CONTINUOUS
 10
-149.0
 20
-7.9500000000000002
 30
0.0
 11
-147.93022098
 21
-15.2830686
 31
0.0
  0
ARC
  5
BF6
  8
240
  6
CONTINUOUS
 10
-144.96164361999999
 20
-14.85
 30
0.0
 40
2.9999999999999911
 50
188.30000000000001
 51
270.0
  0
ARC
  5
BF7
  8
241
  6
CONTINUOUS
 10
-144.96574619
 20
-13.391864719999999
 30
0.0
 40
2.590000000002556
 50
186.09306997999991
 51
270.0
  0
ARC
  5
BF8
  8
241
  6
CONTINUOUS
 10
-144.96574619
 20
13.391864719999999
 30
0.0
 40
2.5899999999999741
 50
90.0
 51
173.90693002
  0
LINE
  5
BF9
  8
240
  6
CONTINUOUS
 10
-147.93022098
 20
15.2830686
 30
0.0
 11
-149.0
 21
7.9500000000000002
 31
0.0
  0
ARC
  5
BFA
  8
240
  6
CONTINUOUS
 10
-144.96164361999999
 20
14.85
 30
0.0
 40
3.0
 50
90.0
 51
171.69999999999999
  0
LINE
  5
BFB
  8
241
  6
CONTINUOUS
 10
-120.0
 20
-6.981864719999999
 30
0.0
 11
-120.0
 21
6.981864719999999
 31
0.0
  0
ARC
  5
BFC
  8
241
  6
CONTINUOUS
 10
-130.0
 20
-6.981864719999999
 30
0.0
 40
10.0
 50
270.0
 51
0.0
  0
LINE
  5
BFD
  8
240
  6
CONTINUOUS
 10
-131.0
 20
-17.850000000000001
 30
0.0
 11
-130.0
 21
-18.850000000000001
 31
0.0
  0
LINE
  5
BFE
  8
241
  6
CONTINUOUS
 10
-131.0
 20
-15.981864720000001
 30
0.0
 11
-130.0
 21
-16.981864720000001
 31
0.0
  0
LINE
  5
BFF
  8
241
  6
CONTINUOUS
 10
-131.0
 20
-17.850000000000001
 30
0.0
 11
-131.0
 21
-15.981864720000001
 31
0.0
  0
ARC
  5
C00
  8
241
  6
CONTINUOUS
 10
-130.0
 20
6.981864719999999
 30
0.0
 40
10.0
 50
0.0
 51
90.0
  0
LINE
  5
C01
  8
241
  6
CONTINUOUS
 10
-131.0
 20
15.981864720000001
 30
0.0
 11
-130.0
 21
16.981864720000001
 31
0.0
  0
LINE
  5
C02
  8
241
  6
CONTINUOUS
 10
-131.0
 20
17.850000000000001
 30
0.0
 11
-131.0
 21
15.981864720000001
 31
0.0
  0
LINE
  5
C03
  8
240
  6
CONTINUOUS
 10
-131.0
 20
17.850000000000001
 30
0.0
 11
-130.0
 21
18.850000000000001
 31
0.0
  0
LINE
  5
C04
  8
240
  6
CONTINUOUS
 10
6.5
 20
31.0
 30
0.0
 11
6.5
 21
23.32816266
 31
0.0
  0
LINE
  5
C05
  8
240
  6
CONTINUOUS
 10
60.5
 20
32.0
 30
0.0
 11
60.5
 21
0.0
 31
0.0
  0
LINE
  5
C06
  8
240
  6
CONTINUOUS
 10
60.5
 20
-32.0
 30
0.0
 11
7.5
 21
-32.0
 31
0.0
  0
LINE
  5
C12
  8
240
  6
CONTINUOUS
 10
6.5
 20
-31.0
 30
0.0
 11
6.5
 21
-23.32816266
 31
0.0
  0
ARC
  5
C13
  8
240
  6
CONTINUOUS
 10
7.5
 20
-31.0
 30
0.0
 40
1.0
 50
180.0
 51
270.0
  0
LINE
  5
C14
  8
5
  6
CENTER2
 10
0.0
 20
23.186666670000001
 30
0.0
 11
0.0
 21
-23.186666670000001
 31
0.0
  0
LINE
  5
C16
  8
241
 10
6.5
 20
23.32816266
 30
0.0
 11
6.5
 21
0.0
 31
0.0
  0
LINE
  5
C19
  8
241
 10
6.5
 20
-23.32816266
 30
0.0
 11
6.5
 21
0.0
 31
0.0
  0
ARC
  5
C1A
  8
240
  6
CONTINUOUS
 10
5.5
 20
-23.32816266
 30
0.0
 40
1.0
 50
0.0
 51
88.529731130000002
  0
ARC
  5
C1B
  8
240
  6
CONTINUOUS
 10
5.5
 20
23.32816266
 30
0.0
 40
1.0
 50
271.47026886999998
 51
0.0
  0
LINE
  5
C1C
  8
240
  6
CONTINUOUS
 10
60.5
 20
-32.0
 30
0.0
 11
60.5
 21
0.0
 31
0.0
  0
LINE
  5
C1D
  8
240
  6
CONTINUOUS
 10
60.5
 20
32.0
 30
0.0
 11
7.5
 21
32.0
 31
0.0
  0
ARC
  5
C1E
  8
240
  6
CONTINUOUS
 10
7.5
 20
31.0
 30
0.0
 40
1.0
 50
90.0
 51
180.0
  0
LINE
  5
C20
  8
250
  6
CONTINUOUS
 10
0.0
 20
23.686666670000001
 30
0.0
 11
0.0
 21
50.0
 31
0.0
  0
LINE
  5
C21
  8
250
  6
CONTINUOUS
 10
60.5
 20
32.5
 30
0.0
 11
60.5
 21
50.0
 31
0.0
  0
LINE
  5
C22
  8
250
  6
CONTINUOUS
 10
2.2299999999999991
 20
49.0
 30
0.0
 11
58.270000000000003
 21
49.0
 31
0.0
  0
TEXT
  5
C26
  8
250
  6
CONTINUOUS
 10
25.516666666666669
 20
50.0
 30
0.0
 40
2.7999999999999989
  1
60.5
1001
ACAD
1000
MTEXTBEGIN
1070
    73
1070
     1
1070
    44
1040
1.0
1070
    74
1070
     0
1000
MTEXTEND
  0
LINE
  5
C27
  8
250
  6
CONTINUOUS
 10
58.270000000000003
 20
49.37166666666667
 30
0.0
 11
60.5
 21
49.0
 31
0.0
  0
LINE
  5
C28
  8
250
  6
CONTINUOUS
 10
58.270000000000003
 20
48.62833333333333
 30
0.0
 11
60.5
 21
49.0
 31
0.0
  0
LINE
  5
C29
  8
250
  6
CONTINUOUS
 10
60.5
 20
49.0
 30
0.0
 11
58.270000000000003
 21
49.0
 31
0.0
  0
LINE
  5
C2A
  8
250
  6
CONTINUOUS
 10
2.2299999999999991
 20
48.62833333333333
 30
0.0
 11
0.0
 21
49.0
 31
0.0
  0
LINE
  5
C2B
  8
250
  6
CONTINUOUS
 10
2.2299999999999991
 20
49.37166666666667
 30
0.0
 11
0.0
 21
49.0
 31
0.0
  0
LINE
  5
C2C
  8
250
  6
CONTINUOUS
 10
0.0
 20
49.0
 30
0.0
 11
2.2299999999999991
 21
49.0
 31
0.0
  0
TEXT
  5
C2D
  8
250
  6
CONTINUOUS
 10
-114.0752059433333
 20
-33.959422459999999
 30
0.0
 40
2.7999999999999989
  1
MT5
  7
YOKO
1001
ITEMNAME
1000
LNSP3
1001
ACAD
1000
MTEXTBEGIN
1070
    73
1070
     1
1070
    44
1040
1.0
1070
    74
1070
     0
1000
MTEXTEND
1000
MTEXTBEGIN
1070
    73
1070
     1
1070
    44
1040
1.0
1070
    74
1070
     0
1000
MTEXTEND
1000
MTEXTBEGIN
1070
    73
1070
     1
1070
    44
1040
1.0
1070
    74
1070
     0
1000
MTEXTEND
1000
MTEXTBEGIN
1070
    73
1070
     1
1070
    44
1040
1.0
1070
    74
1070
     0
1000
MTEXTEND
  0
LINE
  5
C30
  8
250
  6
CONTINUOUS
 10
-95.859093309462054
 20
-21.686138260749871
 30
0.0
 11
-103.52242751
 21
-34.959422459999999
 31
0.0
1001
ACAD
1000
DSTYLE
1002
{
1070
     6
1000
OPEN
1070
   343
1005
594
1002
}
  0
LINE
  5
C31
  8
250
  6
CONTINUOUS
 10
-96.180966084587055
 20
-21.500304927506189
 30
0.0
 11
-94.744093309999997
 21
-19.754901610000001
 31
0.0
  0
LINE
  5
C32
  8
250
  6
CONTINUOUS
 10
-95.537220534337095
 20
-21.87197159399355
 30
0.0
 11
-94.744093309999997
 21
-19.754901610000001
 31
0.0
  0
LINE
  5
C33
  8
250
  6
CONTINUOUS
 10
-94.744093309999997
 20
-19.754901610000001
 30
0.0
 11
-95.859093309462054
 21
-21.686138260749871
 31
0.0
  0
LINE
  5
CA1
  8
243
  6
HIDDEN2
 10
60.499999999999979
 20
18.000000000000021
 30
0.0
 11
18.49999999999994
 21
18.000000000000021
 31
0.0
1001
GRPNAME
1000
PASTMD01
  0
LINE
  5
CA2
  8
243
  6
HIDDEN2
 10
60.499999999999979
 20
-18.000000000000021
 30
0.0
 11
18.49999999999995
 21
-18.000000000000021
 31
0.0
1001
GRPNAME
1000
PASTMD01
  0
CIRCLE
  5
CA3
  8
241
  6
CONTINUOUS
 10
44.499999999999119
 20
0.0
 30
0.0
 40
6.0
  0
CIRCLE
  5
CA4
  8
242
  6
CONTINUOUS
 10
44.499999999999119
 20
0.0
 30
0.0
 40
5.5
  0
LINE
  5
CA5
  8
245
  6
CENTER2
 10
44.499999999999119
 20
7.0
 30
0.0
 11
44.499999999999119
 21
-7.0
 31
0.0
1001
GRPNAME
1000
PASTMD01
  0
POLYLINE
  5
CA6
  8
241
  6
CONTINUOUS
 66
     1
 10
0.0
 20
0.0
 30
0.0
 70
     1
  0
VERTEX
  5
CA7
  8
241
  6
CONTINUOUS
 10
41.499999999999119
 20
-1.7320508100000001
 30
0.0
  0
VERTEX
  5
CA8
  8
241
  6
CONTINUOUS
 10
44.499999999999119
 20
-3.4641016200000001
 30
0.0
  0
VERTEX
  5
CA9
  8
241
  6
CONTINUOUS
 10
47.499999999999119
 20
-1.7320508100000001
 30
0.0
  0
VERTEX
  5
CAA
  8
241
  6
CONTINUOUS
 10
47.499999999999119
 20
1.7320508100000001
 30
0.0
  0
VERTEX
  5
CAB
  8
241
  6
CONTINUOUS
 10
44.499999999999119
 20
3.4641016200000001
 30
0.0
  0
VERTEX
  5
CAC
  8
241
  6
CONTINUOUS
 10
41.499999999999119
 20
1.7320508100000001
 30
0.0
  0
SEQEND
  5
CAD
  8
241
  6
CONTINUOUS
  0
POLYLINE
  5
CAE
  8
250
  6
CONTINUOUS
 66
     1
 10
0.0
 20
0.0
 30
0.0
1001
ACAD
1000
DSTYLE
1002
{
1070
     6
1000
OPEN
1070
   343
1005
0
1002
}
  0
VERTEX
  5
CAF
  8
250
  6
CONTINUOUS
 10
58.07539783971427
 20
33.931236650603623
 30
0.0
  0
VERTEX
  5
CB0
  8
250
  6
CONTINUOUS
 10
64.766409307048349
 20
45.520408469999843
 30
0.0
  0
VERTEX
  5
CB1
  8
250
  6
CONTINUOUS
 10
74.68433139497678
 20
45.520408469999843
 30
0.0
  0
SEQEND
  5
CB2
  8
250
  6
CONTINUOUS
  0
TEXT
  5
CB3
  8
250
  6
CONTINUOUS
 10
65.571255419459831
 20
46.520408469999857
 30
0.0
 40
2.799999999999998
  1
CK6
  7
YOKO
1001
ITEMNAME
1000
LNSP3
1001
ACAD
1000
MTEXTBEGIN
1070
    73
1070
     1
1070
    44
1040
1.0
1070
    74
1070
     0
1000
MTEXTEND
1000
MTEXTBEGIN
1070
    73
1070
     1
1070
    44
1040
1.0
1070
    74
1070
     0
1000
MTEXTEND
  0
LINE
  5
CB4
  8
250
  6
CONTINUOUS
 10
60.999999999999119
 20
-32.0
 30
0.0
 11
74.499999999999119
 21
-32.0
 31
0.0
  0
LINE
  5
CB5
  8
250
  6
CONTINUOUS
 10
60.999999999999119
 20
32.0
 30
0.0
 11
74.499999999999119
 21
32.0
 31
0.0
  0
LINE
  5
CB6
  8
250
  6
CONTINUOUS
 10
73.499999999999119
 20
-29.77
 30
0.0
 11
73.499999999999119
 21
29.77
 31
0.0
  0
TEXT
  5
CB7
  8
250
  6
CONTINUOUS
 10
72.499999999999105
 20
-3.9999999999999991
 30
0.0
 40
2.799999999999998
  1
\U+220564
 50
90.0
1001
ACAD
1000
MTEXTBEGIN
1070
    73
1070
     1
1070
    44
1040
1.0
1070
    74
1070
     0
1000
MTEXTEND
1000
MTEXTBEGIN
1070
    73
1070
     1
1070
    44
1040
1.0
1070
    74
1070
     0
1000
MTEXTEND
  0
LINE
  5
CB8
  8
250
  6
CONTINUOUS
 10
73.128333333332435
 20
29.77
 30
0.0
 11
73.499999999999119
 21
32.0
 31
0.0
  0
LINE
  5
CB9
  8
250
  6
CONTINUOUS
 10
73.871666666665774
 20
29.77
 30
0.0
 11
73.499999999999119
 21
32.0
 31
0.0
  0
LINE
  5
CBA
  8
250
  6
CONTINUOUS
 10
73.499999999999119
 20
32.0
 30
0.0
 11
73.499999999999119
 21
29.77
 31
0.0
  0
LINE
  5
CBB
  8
250
  6
CONTINUOUS
 10
73.871666666665774
 20
-29.77
 30
0.0
 11
73.499999999999119
 21
-32.0
 31
0.0
  0
LINE
  5
CBC
  8
250
  6
CONTINUOUS
 10
73.128333333332435
 20
-29.77
 30
0.0
 11
73.499999999999119
 21
-32.0
 31
0.0
  0
LINE
  5
CBD
  8
250
  6
CONTINUOUS
 10
73.499999999999119
 20
-32.0
 30
0.0
 11
73.499999999999119
 21
-29.77
 31
0.0
  0
LINE
  5
CBE
  8
250
  6
CONTINUOUS
 10
58.397270614814879
 20
33.745403317317752
 30
0.0
 11
56.960397839999111
 21
31.999999999999861
 31
0.0
  0
LINE
  5
CBF
  8
250
  6
CONTINUOUS
 10
57.753525064613633
 20
34.117069983889472
 30
0.0
 11
56.960397839999111
 21
31.999999999999861
 31
0.0
  0
LINE
  5
CC0
  8
250
  6
CONTINUOUS
 10
56.960397839999111
 20
31.999999999999861
 30
0.0
 11
58.07539783971427
 21
33.931236650603623
 31
0.0
  0
LINE
  5
CE1
  8
247
  6
CONTINUOUS
 10
12.05516140195385
 20
-12.11604948097027
 30
0.0
 11
12.05516140195391
 21
-7.481434096640271
 31
0.0
  0
LINE
  5
CE2
  8
247
  6
CONTINUOUS
 10
9.5551614019539102
 20
-11.32094298095819
 30
0.0
 11
11.65516140186992
 21
-11.92310829102763
 31
0.0
  0
LINE
  5
CE3
  8
247
  6
CONTINUOUS
 10
10.55131524806791
 20
-10.691200884489319
 30
0.0
 11
10.55131524806791
 21
-11.60658549983731
 31
0.0
  0
ARC
  5
CE4
  8
247
  6
CONTINUOUS
 10
9.9398804692480098
 20
-10.453312882917031
 30
0.0
 40
0.3876715809326743
 50
72.997889675293067
 51
172.92416621851351
  0
ARC
  5
CE5
  8
247
  6
CONTINUOUS
 10
9.8603845329819251
 20
-10.74852703777435
 30
0.0
 40
0.6933047965358766
 50
4.7429368522022122
 51
73.849226273266353
1001
GENIUS_GENOBJ-N-FIL_13
1002
{
1000
OWNER
1000
GEN
1002
}
1001
GENIUS_GENODEF_13
1002
{
1000
HIER
1070
     0
1002
}
1002
{
1000
MANEDIT
1070
     0
1002
}
1002
{
1000
NOSEL
1070
     0
1002
}
1002
{
1000
BEHIND
1070
     0
1002
}
1002
{
1000
OTHER
1070
     0
1002
}
1002
{
1000
REACTOR
1002
}
  0
LINE
  5
CE6
  8
247
  6
CONTINUOUS
 10
11.65516140186992
 20
-11.007723675679641
 30
0.0
 11
11.65516140186992
 21
-11.92310829102763
 31
0.0
  0
LINE
  5
CE7
  8
247
  6
CONTINUOUS
 10
9.5551614019539102
 20
-11.32094298095819
 30
0.0
 11
9.5551614019539102
 21
-10.405558365610201
 31
0.0
  0
ARC
  5
CE8
  8
247
  6
CONTINUOUS
 10
10.942578364721779
 20
-10.744355957237071
 30
0.0
 40
0.394857301075386
 50
65.990941652528917
 51
172.26344345906909
  0
ARC
  5
CE9
  8
247
  6
CONTINUOUS
 10
10.94636172928648
 20
-11.0784960913972
 30
0.0
 40
0.7123241612361686
 50
5.701985164256504
 51
77.277338436822333
1001
GENIUS_GENOBJ-N-FIL_13
1002
{
1000
OWNER
1000
GEN
1002
}
1001
GENIUS_GENODEF_13
1002
{
1000
HIER
1070
     0
1002
}
1002
{
1000
MANEDIT
1070
     0
1002
}
1002
{
1000
NOSEL
1070
     0
1002
}
1002
{
1000
BEHIND
1070
     0
1002
}
1002
{
1000
OTHER
1070
     0
1002
}
1002
{
1000
REACTOR
1002
}
  0
LINE
  5
CEA
  8
247
  6
CONTINUOUS
 10
11.65516140186992
 20
-10.05003136803361
 30
0.0
 11
9.5551614019539102
 21
-9.4478660579642337
 31
0.0
  0
LINE
  5
CEB
  8
247
  6
CONTINUOUS
 10
9.5551614019539102
 20
-7.9517122118782018
 30
0.0
 11
9.5551614019539102
 21
-8.3477278452738233
 31
0.0
  0
LINE
  5
CEC
  8
247
  6
CONTINUOUS
 10
11.65516140186992
 20
-8.9747891349142037
 30
0.0
 11
11.65516140186992
 21
-8.5440199041622122
 31
0.0
  0
ARC
  5
CED
  8
247
  6
CONTINUOUS
 10
11.013460997037271
 20
-7.747866058040187
 30
0.0
 40
1.5768550576395479
 50
202.3594881415294
 51
254.9932485428464
  0
ARC
  5
CEE
  8
247
  6
CONTINUOUS
 10
10.12098026049204
 20
-8.2135608471034516
 30
0.0
 40
0.6234706797009447
 50
94.994589319075274
 51
155.16632895730399
1001
GENIUS_GENOBJ-N-FIL_13
1002
{
1000
OWNER
1000
GEN
1002
}
1001
GENIUS_GENODEF_13
1002
{
1000
HIER
1070
     0
1002
}
1002
{
1000
MANEDIT
1070
     0
1002
}
1002
{
1000
NOSEL
1070
     0
1002
}
1002
{
1000
BEHIND
1070
     0
1002
}
1002
{
1000
OTHER
1070
     0
1002
}
1002
{
1000
REACTOR
1002
}
  0
ARC
  5
CEF
  8
247
  6
CONTINUOUS
 10
10.71726352392335
 20
-8.8102334320030309
 30
0.0
 40
0.9749472149106983
 50
15.84609655578071
 51
82.325137004169108
  0
ARC
  5
CF0
  8
247
  6
CONTINUOUS
 10
10.92663180392497
 20
-8.4012611197424576
 30
0.0
 40
0.9271945638692009
 50
249.7136016704969
 51
321.78874565641092
1001
GENIUS_GENOBJ-N-FIL_13
1002
{
1000
OWNER
1000
GEN
1002
}
1001
GENIUS_GENODEF_13
1002
{
1000
HIER
1070
     0
1002
}
1002
{
1000
MANEDIT
1070
     0
1002
}
1002
{
1000
NOSEL
1070
     0
1002
}
1002
{
1000
BEHIND
1070
     0
1002
}
1002
{
1000
OTHER
1070
     0
1002
}
1002
{
1000
REACTOR
1002
}
  0
LINE
  5
CF1
  8
247
  6
CONTINUOUS
 10
10.847469094209879
 20
-8.3286352887861881
 30
0.0
 11
10.847469094209879
 21
-7.8440199041902474
 31
0.0
  0
ARC
  5
CF2
  8
247
  6
CONTINUOUS
 10
10.80516140195391
 20
-12.11604948097027
 30
0.0
 40
1.25
 50
180.0
 51
0.0
  0
LINE
  5
CF3
  8
247
  6
CONTINUOUS
 10
9.5551614019539102
 20
-12.11604948097027
 30
0.0
 11
9.5551614019539102
 21
-11.66989563488425
 31
0.0
  0
ARC
  5
CF4
  8
247
  6
CONTINUOUS
 10
10.80516140195391
 20
-7.481434096640271
 30
0.0
 40
1.25
 50
0.0
 51
180.0
  0
VIEWPORT
  5
22
 67
     1
  8
0
 10
261.51769911999997
 20
148.5
 30
0.0
 40
523.03539823000006
 41
297.0
 68
     1
 69
     1
1001
ACAD
1000
MVIEW
1002
{
1070
    16
1010
0.0
1020
0.0
1030
0.0
1010
0.0
1020
0.0
1030
1.0
1040
0.0
1040
297.0
1040
261.51769911999997
1040
148.5
1040
50.0
1040
0.0
1040
0.0
1070
     0
1070
   100
1070
     1
1070
     1
1070
     0
1070
     0
1070
     0
1070
     0
1040
0.0
1040
0.0
1040
0.0
1040
1.0
1040
1.0
1040
10.0
1040
10.0
1070
     0
1002
{
1002
}
1002
}
1001
GENIUS_GENOBJ-N-SDF_13
1002
{
1000
OWNER
1000
GEN
1002
}
1001
GENIUS_GENODEF_13
1002
{
1000
HIER
1070
     0
1002
}
1002
{
1000
MANEDIT
1070
     0
1002
}
1002
{
1000
NOSEL
1070
     0
1002
}
1002
{
1000
BEHIND
1070
     0
1002
}
1002
{
1000
OTHER
1070
     0
1002
}
1002
{
1000
REACTOR
1002
}
1001
GENIUS_GENSCREG_15
1000
PF
1040
1.0
1000
DF
1040
1.0
1000
MIN
1011
0.0000000049999471
1021
0.0
1031
0.0
1021
0.0
1031
0.0
1000
MAX
1011
523.035398235
1021
0.0
1031
0.0
1021
297.0
1031
0.0
1000
FLAGS
1070
     4
  0
ENDSEC
  0
EOF
