  0
SECTION
  2
HEADER
  9
$ACADVER
  1
AC1009
  9
$INSBASE
 10
0.0
 20
0.0
 30
0.0
  9
$EXTMIN
 10
-150.0
 20
-34.959422459999999
 30
0.0
  9
$EXTMAX
 10
105.74962296
 20
54.000000000000021
 30
0.0
  9
$LIMMIN
 10
0.0
 20
0.0
  9
$LIMMAX
 10
420.0
 20
297.0
  9
$ORTHOMODE
 70
     0
  9
$REGENMODE
 70
     1
  9
$FILLMODE
 70
     1
  9
$QTEXTMODE
 70
     0
  9
$MIRRTEXT
 70
     1
  9
$DRAGMODE
 70
     2
  9
$LTSCALE
 40
10.0
  9
$OSMODE
 70
    37
  9
$ATTMODE
 70
     1
  9
$TEXTSIZE
 40
3.0
  9
$TRACEWID
 40
1.0
  9
$TEXTSTYLE
  7
YOKO
  9
$CLAYER
  8
240
  9
$CELTYPE
  6
BYLAYER
  9
$CECOLOR
 62
   256
  9
$DIMSCALE
 40
1.0
  9
$DIMASZ
 40
2.0
  9
$DIMEXO
 40
2.0
  9
$DIMDLI
 40
2.5
  9
$DIMRND
 40
0.0
  9
$DIMDLE
 40
0.0
  9
$DIMEXE
 40
2.0
  9
$DIMTP
 40
0.0
  9
$DIMTM
 40
0.0
  9
$DIMTXT
 40
4.0
  9
$DIMCEN
 40
0.0
  9
$DIMTSZ
 40
0.0
  9
$DIMTOL
 70
     0
  9
$DIMLIM
 70
     0
  9
$DIMTIH
 70
     0
  9
$DIMTOH
 70
     0
  9
$DIMSE1
 70
     0
  9
$DIMSE2
 70
     0
  9
$DIMTAD
 70
     3
  9
$DIMZIN
 70
     8
  9
$DIMBLK
  1

  9
$DIMASO
 70
     1
  9
$DIMSHO
 70
     1
  9
$DIMPOST
  1

  9
$DIMAPOST
  1

  9
$DIMALT
 70
     0
  9
$DIMALTD
 70
     2
  9
$DIMALTF
 40
25.399999999999999
  9
$DIMLFAC
 40
1.0
  9
$DIMTOFL
 70
     1
  9
$DIMTVP
 40
0.0
  9
$DIMTIX
 70
     1
  9
$DIMSOXD
 70
     0
  9
$DIMSAH
 70
     1
  9
$DIMBLK1
  1
OPEN
  9
$DIMBLK2
  1
OPEN
  9
$DIMSTYLE
  2
BIGT
  9
$DIMCLRD
 70
   256
  9
$DIMCLRE
 70
   256
  9
$DIMCLRT
 70
    40
  9
$DIMTFAC
 40
1.0
  9
$DIMGAP
 40
1.0
  9
$LUNITS
 70
     2
  9
$LUPREC
 70
     3
  9
$SKETCHINC
 40
1.0
  9
$FILLETRAD
 40
1.0
  9
$AUNITS
 70
     0
  9
$AUPREC
 70
     3
  9
$MENU
  1
.
  9
$ELEVATION
 40
0.0
  9
$PELEVATION
 40
0.0
  9
$THICKNESS
 40
0.0
  9
$LIMCHECK
 70
     0
  9
$BLIPMODE
 70
     0
  9
$CHAMFERA
 40
10.0
  9
$CHAMFERB
 40
10.0
  9
$SKPOLY
 70
     0
  9
$TDCREATE
 40
2455061.699467408
  9
$TDUPDATE
 40
2459839.579350058
  9
$TDINDWG
 40
0.0127793171
  9
$TDUSRTIMER
 40
0.0127793171
  9
$USRTIMER
 70
     1
  9
$ANGBASE
 50
0.0
  9
$ANGDIR
 70
     0
  9
$PDMODE
 70
     1
  9
$PDSIZE
 40
-5.0
  9
$PLINEWID
 40
0.0
  9
$COORDS
 70
     1
  9
$SPLFRAME
 70
     0
  9
$SPLINETYPE
 70
     6
  9
$SPLINESEGS
 70
     8
  9
$ATTDIA
 70
     1
  9
$ATTREQ
 70
     1
  9
$HANDLING
 70
     1
  9
$HANDSEED
  5
D5B
  9
$SURFTAB1
 70
     6
  9
$SURFTAB2
 70
     6
  9
$SURFTYPE
 70
     6
  9
$SURFU
 70
     6
  9
$SURFV
 70
     6
  9
$UCSNAME
  2

  9
$UCSORG
 10
0.0
 20
0.0
 30
0.0
  9
$UCSXDIR
 10
1.0
 20
0.0
 30
0.0
  9
$UCSYDIR
 10
0.0
 20
1.0
 30
0.0
  9
$PUCSNAME
  2

  9
$PUCSORG
 10
0.0
 20
0.0
 30
0.0
  9
$PUCSXDIR
 10
1.0
 20
0.0
 30
0.0
  9
$PUCSYDIR
 10
0.0
 20
1.0
 30
0.0
  9
$USERI1
 70
     1
  9
$USERI2
 70
     0
  9
$USERI3
 70
     0
  9
$USERI4
 70
     0
  9
$USERI5
 70
     0
  9
$USERR1
 40
0.0
  9
$USERR2
 40
0.0
  9
$USERR3
 40
0.0
  9
$USERR4
 40
0.0
  9
$USERR5
 40
0.0
  9
$WORLDVIEW
 70
     1
  9
$SHADEDGE
 70
     3
  9
$SHADEDIF
 70
    70
  9
$TILEMODE
 70
     1
  9
$MAXACTVP
 70
    16
  9
$PLIMCHECK
 70
     0
  9
$PEXTMIN
 10
1.0000000000000000E+020
 20
1.0000000000000000E+020
 30
1.0000000000000000E+020
  9
$PEXTMAX
 10
-1.0000000000000000E+020
 20
-1.0000000000000000E+020
 30
-1.0000000000000000E+020
  9
$PLIMMIN
 10
0.0
 20
0.0
  9
$PLIMMAX
 10
420.0
 20
297.0
  9
$UNITMODE
 70
     0
  9
$VISRETAIN
 70
     0
  9
$PLINEGEN
 70
     0
  9
$PSLTSCALE
 70
     1
  0
ENDSEC
  0
SECTION
  2
TABLES
  0
TABLE
  2
VPORT
 70
     1
  0
VPORT
  2
*ACTIVE
 70
     0
 10
0.0
 20
0.0
 11
1.0
 21
1.0
 12
-16.872684688814442
 22
3.679368722144658
 13
0.0
 23
0.0
 14
7.0
 24
7.0
 15
7.0
 25
7.0
 16
0.0
 26
0.0
 36
1.0
 17
0.0
 27
0.0
 37
0.0
 40
180.00376068556631
 41
1.762778505897771
 42
50.0
 43
0.0
 44
0.0
 50
0.0
 51
0.0
 71
     0
 72
  2000
 73
     1
 74
     0
 75
     0
 76
     1
 77
     0
 78
     0
  0
ENDTAB
  0
TABLE
  2
LTYPE
 70
    17
  0
LTYPE
  2
CONTINUOUS
 70
     0
  3
Solid line
 72
    65
 73
     0
 40
0.0
  0
LTYPE
  2
CENTER2
 70
     0
  3
___ _ ___ _ ___ _ ___ _ ___ _ ___ _ ___ _ ___ _
 72
    65
 73
     4
 40
1.125
 49
0.75
 49
-0.125
 49
0.125
 49
-0.125
  0
LTYPE
  2
HIDDEN2
 70
     0
  3
_ _ _ _ _ _ _ _ _ _ _ _ _ _ _ _ _ _ _ _ _ _ _ _
 72
    65
 73
     2
 40
0.1875
 49
0.125
 49
-0.0625
  0
LTYPE
  2
HIDDEN
 70
     0
  3
Hidden __ __ __ __ __ __ __ __ __ __ __ __ __ _
 72
    65
 73
     2
 40
9.5249999999999986
 49
6.3499999999999988
 49
-3.1749999999999989
  0
LTYPE
  2
PHANTOM2
 70
     0
  3
___ _ _ ___ _ _ ___ _ _ ___ _ _ ___ _ _ ___ _ _
 72
    65
 73
     6
 40
1.25
 49
0.625
 49
-0.125
 49
0.125
 49
-0.125
 49
0.125
 49
-0.125
  0
LTYPE
  2
CENTER
 70
     0
  3
____ _ ____ _ ____ _ ____ _ ____ _ ____ _ ____ 
 72
    65
 73
     4
 40
2.0
 49
1.25
 49
-0.25
 49
0.25
 49
-0.25
  0
LTYPE
  2
AMCONSTR
 70
     0
  3
_______________________
 72
    65
 73
     2
 40
9999.0
 49
9999.0
 49
0.0
  0
LTYPE
  2
AM_ISO02W050
 70
     0
  3
__ __ __ __ __ __ __ __ __ __ __ __ __ __ __
 72
    65
 73
     2
 40
7.5
 49
6.0
 49
-1.5
  0
LTYPE
  2
ACJISTGB
 70
     0
  3
__ . . __ . .
 72
    65
 73
     6
 40
9.0
 49
4.0
 49
-1.0
 49
1.0
 49
-1.0
 49
1.0
 49
-1.0
  0
LTYPE
  2
ACJISTGL
 70
     0
  3
_ _ _ _ _
 72
    65
 73
     2
 40
3.0
 49
2.0
 49
-1.0
  0
LTYPE
  2
ACISOWELD
 70
     0
  3
_ _ _ _ _
 72
    65
 73
     2
 40
2.0
 49
2.0
 49
-1.0
  0
LTYPE
  2
ACISOTGB
 70
     0
  3
__ . . __ . .
 72
    65
 73
     6
 40
9.0
 49
4.0
 49
-1.0
 49
1.0
 49
-1.0
 49
1.0
 49
-1.0
  0
LTYPE
  2
ACISOTGL
 70
     0
  3
_ _ _ _ _
 72
    65
 73
     2
 40
3.0
 49
2.0
 49
-1.0
  0
LTYPE
  2
AMZIGZAG2
 70
     0
  3
/\/-/\/-/\/-/\/-/\/-/\/
 72
    65
 73
     2
 40
0.4401
 49
0.0001
 49
-0.4400000000000002
  0
LTYPE
  2
ACANSTGB
 70
     0
  3
__ . . __ . .
 72
    65
 73
     6
 40
0.35433070866
 49
0.15748031496
 49
-0.03937007874
 49
0.03937007874
 49
-0.03937007874
 49
0.03937007874
 49
-0.03937007874
  0
LTYPE
  2
ACANSTGL
 70
     0
  3
_ _ _ _ _
 72
    65
 73
     2
 40
0.11811023622
 49
0.07874015748
 49
-0.03937007874
  0
ENDTAB
  0
TABLE
  2
LAYER
 70
    11
  0
LAYER
  2
0
 70
     0
 62
     7
  6
CONTINUOUS
  0
LAYER
  2
240
 70
     0
 62
     4
  6
CONTINUOUS
  0
LAYER
  2
241
 70
     0
 62
   211
  6
CONTINUOUS
  0
LAYER
  2
242
 70
     0
 62
     3
  6
CONTINUOUS
  0
LAYER
  2
245
 70
     0
 62
     2
  6
CENTER2
  0
LAYER
  2
250
 70
     0
 62
     3
  6
CONTINUOUS
  0
LAYER
  2
DEFPOINTS
 70
     0
 62
     7
  6
CONTINUOUS
  0
LAYER
  2
243
 70
     0
 62
   211
  6
HIDDEN2
  0
LAYER
  2
247
 70
     0
 62
    60
  6
CONTINUOUS
  0
ENDTAB
  0
TABLE
  2
STYLE
 70
     7
  0
STYLE
  2
STANDARD
 70
     0
 40
0.0
 41
1.0
 50
0.0
 71
     0
 42
3.0
  3
romans.shx
  4
BIGFONT.SHX
  0
STYLE
  2
YOKO
 70
     0
 40
0.0
 41
1.0
 50
0.0
 71
     0
 42
3.0
  3
romans.shx
  4
extfont.shx
  0
STYLE
  2
ACJISTS
 70
     0
 40
1.0
 41
1.0
 50
0.0
 71
     0
 42
3.0
  3
amgdt.shx
  4
extfont.shx
  0
STYLE
  2
ACJISGDT
 70
     0
 40
0.0
 41
1.0
 50
0.0
 71
     0
 42
3.0
  3
amgdt.shx
  4
extfont.shx
  0
STYLE
  2
ACISOTS
 70
     0
 40
1.0
 41
1.0
 50
0.0
 71
     0
 42
3.0
  3
amgdt.shx
  4
extfont.shx
  0
STYLE
  2
ACISOGDT
 70
     0
 40
0.0
 41
1.0
 50
0.0
 71
     0
 42
3.0
  3
amgdt.shx
  4
extfont.shx
  0
STYLE
  2
ACANSGDT
 70
     0
 40
0.0
 41
1.0
 50
0.0
 71
     0
 42
3.0
  3
amgdt.shx
  4

  0
ENDTAB
  0
TABLE
  2
VIEW
 70
     0
  0
ENDTAB
  0
TABLE
  2
UCS
 70
     0
  0
ENDTAB
  0
TABLE
  2
APPID
 70
    37
  0
APPID
  2
ACAD
 70
     0
  0
APPID
  2
GLOBAL
 70
     0
  0
APPID
  2
DETAIL
 70
     0
  0
APPID
  2
GRPNAME
 70
     0
  0
APPID
  2
GPARA
 70
     0
  0
APPID
  2
DCO15
 70
     0
  0
APPID
  2
ITEMNAME
 70
     0
  0
APPID
  2
GRADE_0
 70
     0
  0
APPID
  2
CONTENTBLOCKICON
 70
     0
  0
APPID
  2
MCAD_NO_VIS
 70
     0
  0
APPID
  2
ACAD_TEMP_GRAPHIC
 70
     0
  0
APPID
  2
ACATTRIBSERVICES
 70
     0
  0
APPID
  2
GENIUS_GENSCREG_15
 70
     0
  0
APPID
  2
GENIUS_GENODEF_13
 70
     0
  0
APPID
  2
GENIUS_GENOBJ-N-SDF_13
 70
     0
  0
APPID
  2
GENIUS_GENREC_14
 70
     0
  0
APPID
  2
GENIUS_GENOBJ-N-REC_13
 70
     0
  0
APPID
  2
GENIUS_GENDIMSH_14
 70
     0
  0
APPID
  2
GENIUS_GENOBJ-N-DIM_13
 70
     0
  0
APPID
  2
GENIUS_GENDIM_13
 70
     0
  0
APPID
  2
GENIUS_GENDTOL_13
 70
     0
  0
APPID
  2
GENIUS_GENOLIS_13
 70
     0
  0
APPID
  2
GENIUS_GENOENT_13
 70
     0
  0
APPID
  2
GENIUS_GENOBJ-F-FEM_13
 70
     0
  0
APPID
  2
GENIUS_GENOREF_13
 70
     0
  0
APPID
  2
GENIUS_GEFFEM_13
 70
     0
  0
APPID
  2
GENIUS_GEFFEMP_13
 70
     0
  0
APPID
  2
AD_DRAW
 70
     0
  0
APPID
  2
DESIGNERASSEMBLIES
 70
     0
  0
APPID
  2
ACADM_DIM_EDIT
 70
     0
  0
APPID
  2
AMDT_DM_ADJ
 70
     0
  0
APPID
  2
GENIUS_GENOBJ-N-FIL_13
 70
     0
  0
APPID
  2
GENIUS_GENFIL_13
 70
     0
  0
APPID
  2
GENIUS_GENOBJ-N-CHA_13
 70
     0
  0
APPID
  2
ACAD_NAV_VCDISPLAY
 70
     0
  0
APPID
  2
ACAD_EXEMPT_FROM_CAD_STANDARDS
 70
     0
  0
APPID
  2
ACAD_MLEADERVER
 70
     0
  0
ENDTAB
  0
TABLE
  2
DIMSTYLE
 70
    29
  0
DIMSTYLE
  2
BIGT
 70
     0
  3

  4

  5
OPEN
  6

  7

 40
1.0
 41
2.2299999999999991
 42
0.5
 43
7.0
 44
1.0
 45
0.0
 46
0.0
 47
0.0
 48
0.01
140
2.7999999999999989
141
0.0
142
0.0
143
25.399999999999999
144
1.0
145
0.0
146
1.0
147
1.0
 71
     0
 72
     0
 73
     0
 74
     0
 75
     0
 76
     0
 77
     3
 78
     9
170
     0
171
     2
172
     1
173
     0
174
     1
175
     0
176
   256
177
   256
178
    40
  0
DIMSTYLE
  2
BIGT$0
 70
     0
  3

  4

  5
OPEN
  6

  7

 40
1.0
 41
2.2299999999999991
 42
0.5
 43
7.0
 44
1.0
 45
0.0
 46
0.0
 47
0.0
 48
0.01
140
2.7999999999999989
141
0.0
142
0.0
143
25.399999999999999
144
1.0
145
0.0
146
1.0
147
1.0
 71
     0
 72
     0
 73
     0
 74
     0
 75
     0
 76
     0
 77
     3
 78
     9
170
     0
171
     2
172
     1
173
     0
174
     1
175
     0
176
   256
177
   256
178
    40
  0
DIMSTYLE
  2
BIGT$2
 70
     0
  3

  4

  5
OPEN
  6

  7

 40
1.0
 41
2.2299999999999991
 42
0.5
 43
7.0
 44
1.0
 45
0.0
 46
0.0
 47
0.0
 48
0.01
140
2.7999999999999989
141
0.0
142
0.0
143
25.399999999999999
144
1.0
145
0.0
146
1.0
147
1.0
 71
     0
 72
     0
 73
     0
 74
     0
 75
     0
 76
     0
 77
     3
 78
     9
170
     0
171
     2
172
     1
173
     0
174
     0
175
     0
176
   256
177
   256
178
    40
  0
DIMSTYLE
  2
BIGT$3
 70
     0
  3

  4

  5
OPEN
  6

  7

 40
1.0
 41
2.2299999999999991
 42
0.5
 43
2.5
 44
1.0
 45
0.0
 46
0.0
 47
0.0
 48
0.01
140
2.7999999999999989
141
0.0
142
0.0
143
25.399999999999999
144
1.0
145
0.0
146
1.0
147
1.0
 71
     0
 72
     0
 73
     0
 74
     0
 75
     0
 76
     0
 77
     3
 78
     9
170
     0
171
     2
172
     1
173
     0
174
     0
175
     0
176
   256
177
   256
178
    40
  0
DIMSTYLE
  2
BIGT$4
 70
     0
  3

  4

  5
OPEN
  6

  7

 40
1.0
 41
2.2299999999999991
 42
0.5
 43
2.5
 44
1.0
 45
0.0
 46
0.0
 47
0.0
 48
0.01
140
2.7999999999999989
141
0.0
142
0.0
143
25.399999999999999
144
1.0
145
0.0
146
1.0
147
1.0
 71
     0
 72
     0
 73
     0
 74
     0
 75
     0
 76
     0
 77
     3
 78
     9
170
     0
171
     2
172
     1
173
     0
174
     0
175
     0
176
   256
177
   256
178
    40
  0
DIMSTYLE
  2
BIGT$6
 70
     0
  3

  4

  5
OPEN
  6

  7

 40
1.0
 41
2.2299999999999991
 42
0.5
 43
2.5
 44
1.0
 45
0.0
 46
0.0
 47
0.0
 48
0.01
140
2.7999999999999989
141
0.0
142
0.0
143
25.399999999999999
144
1.0
145
0.0
146
1.0
147
1.0
 71
     0
 72
     0
 73
     0
 74
     0
 75
     0
 76
     0
 77
     3
 78
     9
170
     0
171
     2
172
     1
173
     0
174
     0
175
     0
176
   256
177
   256
178
    40
  0
DIMSTYLE
  2
BIGT$7
 70
     0
  3

  4

  5
OPEN
  6

  7

 40
0.0
 41
2.2299999999999991
 42
0.5
 43
7.0
 44
1.0
 45
0.0
 46
0.0
 47
0.0
 48
0.01
140
2.7999999999999989
141
0.0
142
0.0
143
25.399999999999999
144
1.0
145
0.0
146
1.0
147
1.0
 71
     0
 72
     0
 73
     0
 74
     0
 75
     0
 76
     0
 77
     3
 78
     9
170
     0
171
     2
172
     0
173
     0
174
     0
175
     0
176
   256
177
   256
178
    40
  0
DIMSTYLE
  2
BIGT$SF
 70
     0
  3

  4

  5
OPEN
  6

  7

 40
1.0
 41
2.2299999999999991
 42
0.5
 43
7.0
 44
1.0
 45
0.0
 46
0.0
 47
0.0
 48
0.0
140
2.7999999999999989
141
0.0
142
0.0
143
25.399999999999999
144
1.0
145
0.0
146
1.0
147
1.0
 71
     0
 72
     0
 73
     0
 74
     0
 75
     0
 76
     0
 77
     3
 78
     9
170
     0
171
     2
172
     1
173
     0
174
     0
175
     0
176
   256
177
   256
178
    40
  0
DIMSTYLE
  2
BIGT$SH
 70
     0
  3

  4

  5
OPEN
  6

  7

 40
1.0
 41
2.2299999999999991
 42
0.5
 43
7.0
 44
1.0
 45
0.0
 46
0.0
 47
0.0
 48
0.0
140
2.7999999999999989
141
0.0
142
0.0
143
25.399999999999999
144
1.0
145
0.0
146
1.0
147
1.0
 71
     0
 72
     0
 73
     0
 74
     0
 75
     0
 76
     0
 77
     3
 78
     9
170
     0
171
     2
172
     1
173
     0
174
     0
175
     0
176
   256
177
   256
178
    40
  0
DIMSTYLE
  2
AM_ISO
 70
     0
  3

  4
"
  5

  6

  7

 40
1.0
 41
2.5
 42
1.0
 43
10.0
 44
1.0
 45
0.0
 46
0.0
 47
0.1
 48
0.1
140
3.5
141
0.0
142
0.0
143
0.0393701
144
1.0
145
0.0
146
0.71
147
1.5
 71
     0
 72
     0
 73
     0
 74
     0
 75
     0
 76
     0
 77
     1
 78
     8
170
     0
171
     2
172
     1
173
     0
174
     0
175
     0
176
   256
177
   256
178
     2
  0
DIMSTYLE
  2
AM_ISO$3
 70
     0
  3

  4
"
  5

  6

  7

 40
1.0
 41
2.5
 42
1.0
 43
10.0
 44
1.0
 45
0.0
 46
0.0
 47
0.1
 48
0.1
140
3.5
141
0.0
142
0.0
143
0.0393701
144
1.0
145
0.0
146
0.71
147
1.5
 71
     0
 72
     0
 73
     0
 74
     1
 75
     0
 76
     0
 77
     1
 78
     8
170
     0
171
     2
172
     0
173
     0
174
     0
175
     0
176
   256
177
   256
178
     2
  0
DIMSTYLE
  2
AM_ISO$4
 70
     0
  3

  4
"
  5

  6

  7

 40
1.0
 41
2.5
 42
1.0
 43
10.0
 44
1.0
 45
0.0
 46
0.0
 47
0.1
 48
0.1
140
3.5
141
0.0
142
0.0
143
0.0393701
144
1.0
145
0.0
146
0.71
147
1.5
 71
     0
 72
     0
 73
     0
 74
     1
 75
     0
 76
     0
 77
     1
 78
     8
170
     0
171
     2
172
     0
173
     0
174
     0
175
     0
176
   256
177
   256
178
     2
  0
DIMSTYLE
  2
AM_ISO$6
 70
     0
  3

  4
"
  5

  6

  7

 40
1.0
 41
2.5
 42
1.0
 43
10.0
 44
1.0
 45
0.0
 46
0.0
 47
0.1
 48
0.1
140
3.5
141
0.0
142
0.0
143
0.0393701
144
1.0
145
0.0
146
0.71
147
1.5
 71
     0
 72
     0
 73
     0
 74
     0
 75
     0
 76
     0
 77
     0
 78
     8
170
     0
171
     2
172
     1
173
     0
174
     0
175
     0
176
   256
177
   256
178
     2
  0
DIMSTYLE
  2
AM_ISO$7
 70
     0
  3

  4
"
  5

  6

  7

 40
1.0
 41
2.5
 42
1.0
 43
10.0
 44
1.0
 45
0.0
 46
0.0
 47
0.1
 48
0.1
140
5.0
141
0.0
142
0.0
143
0.0393701
144
1.0
145
0.0
146
0.71
147
1.5
 71
     0
 72
     0
 73
     0
 74
     0
 75
     0
 76
     0
 77
     1
 78
     8
170
     0
171
     2
172
     1
173
     0
174
     0
175
     0
176
   256
177
   256
178
     2
  0
DIMSTYLE
  2
AM_ISO$SF
 70
     0
  3

  4
"
  5

  6

  7

 40
1.0
 41
2.5
 42
1.0
 43
10.0
 44
1.0
 45
0.0
 46
0.0
 47
0.1
 48
0.1
140
3.5
141
0.0
142
0.0
143
0.0393701
144
1.0
145
0.0
146
0.71
147
1.5
 71
     0
 72
     0
 73
     0
 74
     0
 75
     1
 76
     1
 77
     1
 78
     8
170
     0
171
     2
172
     1
173
     0
174
     0
175
     0
176
   256
177
   256
178
     2
  0
DIMSTYLE
  2
AM_ISO$SH
 70
     0
  3

  4
"
  5

  6
GENAXEH
  7

 40
1.0
 41
2.5
 42
1.0
 43
10.0
 44
1.0
 45
0.0
 46
0.0
 47
0.1
 48
0.1
140
3.5
141
0.0
142
0.0
143
0.0393701
144
2.0
145
0.0
146
0.71
147
1.5
 71
     0
 72
     0
 73
     0
 74
     0
 75
     1
 76
     1
 77
     1
 78
     8
170
     0
171
     2
172
     1
173
     1
174
     0
175
     0
176
   256
177
   256
178
     2
  0
DIMSTYLE
  2
TECHNICAL_OSAKA
 70
     0
  3

  4
"
  5
OPEN30
  6

  7

 40
1.0
 41
2.5
 42
1.0
 43
10.0
 44
1.0
 45
0.0
 46
0.0
 47
0.1
 48
0.1
140
2.7999999999999989
141
0.0
142
0.0
143
0.0393701
144
1.0
145
0.0
146
0.71
147
1.5
 71
     0
 72
     0
 73
     0
 74
     0
 75
     0
 76
     0
 77
     3
 78
     8
170
     0
171
     2
172
     1
173
     0
174
     0
175
     0
176
   256
177
   256
178
    40
  0
DIMSTYLE
  2
TECHNICAL_OSAKA$3
 70
     0
  3

  4
"
  5
OPEN30
  6

  7

 40
1.0
 41
2.5
 42
1.0
 43
10.0
 44
1.0
 45
0.0
 46
0.0
 47
0.1
 48
0.1
140
2.7999999999999989
141
0.0
142
0.0
143
0.0393701
144
1.0
145
0.0
146
0.71
147
1.5
 71
     0
 72
     0
 73
     0
 74
     1
 75
     0
 76
     0
 77
     3
 78
     8
170
     0
171
     2
172
     0
173
     0
174
     0
175
     0
176
   256
177
   256
178
    40
  0
DIMSTYLE
  2
TECHNICAL_OSAKA$4
 70
     0
  3

  4
"
  5
OPEN30
  6

  7

 40
1.0
 41
2.5
 42
1.0
 43
10.0
 44
1.0
 45
0.0
 46
0.0
 47
0.1
 48
0.1
140
2.7999999999999989
141
0.0
142
0.0
143
0.0393701
144
1.0
145
0.0
146
0.71
147
1.5
 71
     0
 72
     0
 73
     0
 74
     1
 75
     0
 76
     0
 77
     3
 78
     8
170
     0
171
     2
172
     0
173
     0
174
     0
175
     0
176
   256
177
   256
178
    40
  0
DIMSTYLE
  2
TECHNICAL_OSAKA$6
 70
     0
  3

  4
"
  5
OPEN30
  6

  7

 40
1.0
 41
2.5
 42
1.0
 43
10.0
 44
1.0
 45
0.0
 46
0.0
 47
0.1
 48
0.1
140
2.7999999999999989
141
0.0
142
0.0
143
0.0393701
144
1.0
145
0.0
146
0.71
147
1.5
 71
     0
 72
     0
 73
     0
 74
     0
 75
     0
 76
     0
 77
     0
 78
     8
170
     0
171
     2
172
     1
173
     0
174
     0
175
     0
176
   256
177
   256
178
    40
  0
DIMSTYLE
  2
TECHNICAL_OSAKA$7
 70
     0
  3

  4
"
  5
OPEN30
  6

  7

 40
1.0
 41
2.5
 42
1.0
 43
10.0
 44
1.0
 45
0.0
 46
0.0
 47
0.1
 48
0.1
140
2.7999999999999989
141
0.0
142
0.0
143
0.0393701
144
1.0
145
0.0
146
0.71
147
1.5
 71
     0
 72
     0
 73
     0
 74
     0
 75
     0
 76
     0
 77
     3
 78
     8
170
     0
171
     2
172
     1
173
     0
174
     0
175
     0
176
   256
177
   256
178
    40
  0
DIMSTYLE
  2
TECHNICAL_OSAKA$SF
 70
     0
  3

  4
"
  5
OPEN30
  6
OPEN30
  7
OPEN30
 40
1.0
 41
2.5
 42
1.0
 43
10.0
 44
1.0
 45
0.0
 46
0.0
 47
0.1
 48
0.1
140
3.5
141
0.0
142
0.0
143
0.0393701
144
1.0
145
0.0
146
0.71
147
1.5
 71
     0
 72
     0
 73
     0
 74
     0
 75
     1
 76
     1
 77
     3
 78
     8
170
     0
171
     2
172
     1
173
     0
174
     0
175
     0
176
   256
177
   256
178
    40
  0
DIMSTYLE
  2
TECHNICAL_OSAKA$SH
 70
     0
  3

  4
"
  5
OPEN30
  6
GENAXEH
  7
OPEN30
 40
1.0
 41
2.5
 42
1.0
 43
10.0
 44
1.0
 45
0.0
 46
0.0
 47
0.1
 48
0.1
140
3.5
141
0.0
142
0.0
143
0.0393701
144
2.0
145
0.0
146
0.71
147
1.5
 71
     0
 72
     0
 73
     0
 74
     0
 75
     1
 76
     1
 77
     3
 78
     8
170
     0
171
     2
172
     1
173
     1
174
     0
175
     0
176
   256
177
   256
178
    40
  0
DIMSTYLE
  2
AM_ANSI
 70
     0
  3

  4
mm
  5

  6

  7

 40
1.0
 41
0.12
 42
0.05
 43
0.5
 44
0.1
 45
0.0
 46
0.0
 47
0.1
 48
0.1
140
0.12
141
0.0
142
0.0
143
25.399999999999999
144
1.0
145
0.0
146
0.71
147
0.06
 71
     0
 72
     0
 73
     1
 74
     1
 75
     0
 76
     0
 77
     0
 78
     7
170
     0
171
     2
172
     0
173
     0
174
     0
175
     0
176
   256
177
   256
178
     2
  0
DIMSTYLE
  2
AM_ANSI$3
 70
     0
  3

  4
mm
  5

  6

  7

 40
1.0
 41
0.12
 42
0.05
 43
0.5
 44
0.1
 45
0.0
 46
0.0
 47
0.1
 48
0.1
140
0.12
141
0.0
142
0.0
143
25.399999999999999
144
1.0
145
0.0
146
0.71
147
0.06
 71
     0
 72
     0
 73
     1
 74
     1
 75
     0
 76
     0
 77
     0
 78
     7
170
     0
171
     2
172
     0
173
     0
174
     0
175
     0
176
   256
177
   256
178
     2
  0
DIMSTYLE
  2
AM_ANSI$4
 70
     0
  3

  4
mm
  5

  6

  7

 40
1.0
 41
0.12
 42
0.05
 43
0.5
 44
0.1
 45
0.0
 46
0.0
 47
0.1
 48
0.1
140
0.12
141
0.0
142
0.0
143
25.399999999999999
144
1.0
145
0.0
146
0.71
147
0.06
 71
     0
 72
     0
 73
     1
 74
     1
 75
     0
 76
     0
 77
     0
 78
     7
170
     0
171
     2
172
     0
173
     0
174
     0
175
     0
176
   256
177
   256
178
     2
  0
DIMSTYLE
  2
AM_ANSI$7
 70
     0
  3

  4
mm
  5

  6

  7

 40
1.0
 41
0.12
 42
0.05
 43
0.5
 44
0.1
 45
0.0
 46
0.0
 47
0.1
 48
0.1
140
0.12
141
0.0
142
0.0
143
25.399999999999999
144
1.0
145
0.0
146
0.71
147
0.06
 71
     0
 72
     0
 73
     1
 74
     1
 75
     0
 76
     0
 77
     0
 78
     7
170
     0
171
     2
172
     0
173
     0
174
     0
175
     0
176
   256
177
   256
178
     2
  0
DIMSTYLE
  2
AM_ANSI$SF
 70
     0
  3

  4
mm
  5

  6

  7

 40
1.0
 41
0.12
 42
0.05
 43
0.5
 44
0.1
 45
0.0
 46
0.0
 47
0.1
 48
0.1
140
0.12
141
0.0
142
0.0
143
25.399999999999999
144
1.0
145
0.0
146
0.71
147
0.06
 71
     0
 72
     0
 73
     1
 74
     1
 75
     1
 76
     1
 77
     0
 78
     7
170
     0
171
     2
172
     0
173
     0
174
     0
175
     0
176
   256
177
   256
178
     2
  0
DIMSTYLE
  2
AM_ANSI$SH
 70
     0
  3

  4
mm
  5

  6

  7

 40
1.0
 41
0.12
 42
0.05
 43
0.5
 44
0.1
 45
0.0
 46
0.0
 47
0.1
 48
0.1
140
0.12
141
0.0
142
0.0
143
25.399999999999999
144
1.0
145
0.0
146
0.71
147
0.06
 71
     0
 72
     0
 73
     1
 74
     1
 75
     1
 76
     1
 77
     0
 78
     7
170
     0
171
     2
172
     0
173
     1
174
     0
175
     0
176
   256
177
   256
178
     2
  0
ENDTAB
  0
ENDSEC
  0
SECTION
  2
BLOCKS
  0
BLOCK
  8
0
  2
$MODEL_SPACE
 70
     0
 10
0.0
 20
0.0
 30
0.0
  3
$MODEL_SPACE
  1

  0
ENDBLK
  5
1C
  8
0
  0
BLOCK
 67
     1
  8
0
  2
$PAPER_SPACE
 70
     0
 10
0.0
 20
0.0
 30
0.0
  3
$PAPER_SPACE
  1

  0
ENDBLK
  5
19
 67
     1
  8
0
  0
BLOCK
  8
0
  2
_OPEN
 70
     0
 10
0.0
 20
0.0
 30
0.0
  3
_OPEN
  1

  0
LINE
  5
B37
  8
0
  6
BYBLOCK
 62
     0
 10
-1.0
 20
0.1666666666666666
 30
0.0
 11
0.0
 21
0.0
 31
0.0
  0
LINE
  5
B38
  8
0
  6
BYBLOCK
 62
     0
 10
-1.0
 20
-0.1666666666666666
 30
0.0
 11
0.0
 21
0.0
 31
0.0
  0
LINE
  5
B39
  8
0
  6
BYBLOCK
 62
     0
 10
0.0
 20
0.0
 30
0.0
 11
-1.0
 21
0.0
 31
0.0
  0
ENDBLK
  5
B3A
  8
0
  0
BLOCK
  8
0
  2
矢印なし
 70
     0
 10
0.0
 20
0.0
 30
0.0
  3
矢印なし
  1

  0
ENDBLK
  5
6E5
  8
0
  0
BLOCK
  8
0
  2
GENAXEH
 70
     0
 10
0.0
 20
0.0
 30
0.0
  3
GENAXEH
  1

  0
LINE
  5
B72
  8
0
 10
-1.0
 20
0.0
 30
0.0
 11
1.0
 21
0.0
 31
0.0
  0
ENDBLK
  5
B73
  8
0
  0
BLOCK
  8
0
  2
_OPEN30
 70
     0
 10
0.0
 20
0.0
 30
0.0
  3
_OPEN30
  1

  0
LINE
  5
BAE
  8
0
  6
BYBLOCK
 62
     0
 10
-1.0
 20
0.26794919
 30
0.0
 11
0.0
 21
0.0
 31
0.0
  0
LINE
  5
BAF
  8
0
  6
BYBLOCK
 62
     0
 10
0.0
 20
0.0
 30
0.0
 11
-1.0
 21
-0.26794919
 31
0.0
  0
LINE
  5
BB0
  8
0
  6
BYBLOCK
 62
     0
 10
0.0
 20
0.0
 30
0.0
 11
-1.0
 21
0.0
 31
0.0
  0
ENDBLK
  5
BB1
  8
0
  0
ENDSEC
  0
SECTION
  2
ENTITIES
  0
INSERT
  5
6E6
  8
245
  2
矢印なし
 10
175.62382697000001
 20
90.551235719999994
 30
0.0
  0
LINE
  5
7FD
  8
250
  6
CONTINUOUS
 10
-103.52242751
 20
-34.959422459999999
 30
0.0
 11
-116.34187261
 21
-34.959422459999999
 31
0.0
1001
ITEMNAME
1000
LNSP2
  0
TEXT
  5
7FF
  8
241
  6
CONTINUOUS
 10
-149.0
 20
49.0
 30
0.0
 40
5.0
  1
MT5-CKB4-86
  7
YOKO
 11
-149.0
 21
49.0
 31
0.0
 73
     1
  0
LINE
  5
BE0
  8
245
  6
CENTER2
 10
-150.0
 20
0.0
 30
0.0
 11
86.5
 21
0.0
 31
0.0
1001
GRPNAME
1000
PASTMD01
  0
LINE
  5
BE1
  8
240
  6
CONTINUOUS
 10
-130.0
 20
18.850000000000001
 30
0.0
 11
5.3150562700000004
 21
22.323086440000001
 31
0.0
  0
LINE
  5
BE2
  8
240
  6
CONTINUOUS
 10
-130.0
 20
-18.850000000000001
 30
0.0
 11
5.3150562700000004
 21
-22.323086440000001
 31
0.0
  0
LINE
  5
BE3
  8
241
  6
CONTINUOUS
 10
-144.96574619
 20
-15.981864720000001
 30
0.0
 11
-131.0
 21
-15.981864720000001
 31
0.0
  0
LINE
  5
BE4
  8
241
  6
CONTINUOUS
 10
-144.96574619
 20
15.981864720000001
 30
0.0
 11
-131.0
 21
15.981864720000001
 31
0.0
  0
LINE
  5
BE5
  8
240
  6
CONTINUOUS
 10
-131.0
 20
17.850000000000001
 30
0.0
 11
-144.96164361999999
 21
17.850000000000001
 31
0.0
  0
LINE
  5
BE6
  8
240
  6
CONTINUOUS
 10
-131.0
 20
-17.850000000000001
 30
0.0
 11
-144.96164361999999
 21
-17.850000000000001
 31
0.0
  0
LINE
  5
BE7
  8
241
  6
CONTINUOUS
 10
-147.54111474000001
 20
13.66677717
 30
0.0
 11
-149.0
 21
0.0
 31
0.0
  0
LINE
  5
BE8
  8
240
  6
CONTINUOUS
 10
-149.0
 20
-7.9500000000000002
 30
0.0
 11
-149.0
 21
7.9500000000000002
 31
0.0
  0
LINE
  5
BE9
  8
241
  6
CONTINUOUS
 10
-147.54111474000001
 20
-13.66677717
 30
0.0
 11
-149.0
 21
0.0
 31
0.0
  0
LINE
  5
BEA
  8
240
  6
CONTINUOUS
 10
-149.0
 20
-7.9500000000000002
 30
0.0
 11
-147.93022098
 21
-15.2830686
 31
0.0
  0
ARC
  5
BEB
  8
240
  6
CONTINUOUS
 10
-144.96164361999999
 20
-14.85
 30
0.0
 40
2.9999999999999911
 50
188.30000000000001
 51
270.0
  0
ARC
  5
BEC
  8
241
  6
CONTINUOUS
 10
-144.96574619
 20
-13.391864719999999
 30
0.0
 40
2.590000000002556
 50
186.09306997999991
 51
270.0
  0
ARC
  5
BED
  8
241
  6
CONTINUOUS
 10
-144.96574619
 20
13.391864719999999
 30
0.0
 40
2.5899999999999741
 50
90.0
 51
173.90693002
  0
LINE
  5
BEE
  8
240
  6
CONTINUOUS
 10
-147.93022098
 20
15.2830686
 30
0.0
 11
-149.0
 21
7.9500000000000002
 31
0.0
  0
ARC
  5
BEF
  8
240
  6
CONTINUOUS
 10
-144.96164361999999
 20
14.85
 30
0.0
 40
3.0
 50
90.0
 51
171.69999999999999
  0
LINE
  5
BF0
  8
241
  6
CONTINUOUS
 10
-120.0
 20
-6.981864719999999
 30
0.0
 11
-120.0
 21
6.981864719999999
 31
0.0
  0
ARC
  5
BF1
  8
241
  6
CONTINUOUS
 10
-130.0
 20
-6.981864719999999
 30
0.0
 40
10.0
 50
270.0
 51
0.0
  0
LINE
  5
BF2
  8
240
  6
CONTINUOUS
 10
-131.0
 20
-17.850000000000001
 30
0.0
 11
-130.0
 21
-18.850000000000001
 31
0.0
  0
LINE
  5
BF3
  8
241
  6
CONTINUOUS
 10
-131.0
 20
-15.981864720000001
 30
0.0
 11
-130.0
 21
-16.981864720000001
 31
0.0
  0
LINE
  5
BF4
  8
241
  6
CONTINUOUS
 10
-131.0
 20
-17.850000000000001
 30
0.0
 11
-131.0
 21
-15.981864720000001
 31
0.0
  0
ARC
  5
BF5
  8
241
  6
CONTINUOUS
 10
-130.0
 20
6.981864719999999
 30
0.0
 40
10.0
 50
0.0
 51
90.0
  0
LINE
  5
BF6
  8
241
  6
CONTINUOUS
 10
-131.0
 20
15.981864720000001
 30
0.0
 11
-130.0
 21
16.981864720000001
 31
0.0
  0
LINE
  5
BF7
  8
241
  6
CONTINUOUS
 10
-131.0
 20
17.850000000000001
 30
0.0
 11
-131.0
 21
15.981864720000001
 31
0.0
  0
LINE
  5
BF8
  8
240
  6
CONTINUOUS
 10
-131.0
 20
17.850000000000001
 30
0.0
 11
-130.0
 21
18.850000000000001
 31
0.0
  0
LINE
  5
BF9
  8
240
  6
CONTINUOUS
 10
85.5
 20
19.5
 30
0.0
 11
7.5
 21
19.5
 31
0.0
  0
LINE
  5
BFA
  8
240
  6
CONTINUOUS
 10
85.5
 20
-19.5
 30
0.0
 11
7.5
 21
-19.5
 31
0.0
  0
LINE
  5
BFB
  8
245
  6
CENTER2
 10
0.0
 20
23.186666670000001
 30
0.0
 11
0.0
 21
-23.186666670000001
 31
0.0
  0
LINE
  5
BFD
  8
241
  6
CONTINUOUS
 10
6.5
 20
-20.5
 30
0.0
 11
6.5
 21
20.5
 31
0.0
  0
ARC
  5
BFE
  8
240
  6
CONTINUOUS
 10
7.5
 20
-20.5
 30
0.0
 40
1.0
 50
90.0
 51
180.0
  0
LINE
  5
BFF
  8
240
  6
CONTINUOUS
 10
6.5
 20
-21.340337330000001
 30
0.0
 11
6.5
 21
-20.5
 31
0.0
  0
ARC
  5
C00
  8
240
  6
CONTINUOUS
 10
5.5
 20
-21.340337330000001
 30
0.0
 40
0.9999999999999987
 50
259.34213081000001
 51
0.0
  0
LINE
  5
C01
  8
240
  6
CONTINUOUS
 10
6.5
 20
21.340337330000001
 30
0.0
 11
6.5
 21
20.5
 31
0.0
  0
ARC
  5
C02
  8
240
  6
CONTINUOUS
 10
7.5
 20
20.5
 30
0.0
 40
1.0
 50
180.0
 51
270.0
  0
ARC
  5
C03
  8
240
  6
CONTINUOUS
 10
5.5
 20
21.340337330000001
 30
0.0
 40
1.0
 50
0.0
 51
100.65785159000001
  0
LINE
  5
C12
  8
240
  6
CONTINUOUS
 10
85.5
 20
-19.5
 30
0.0
 11
85.5
 21
19.5
 31
0.0
  0
LINE
  5
C82
  8
243
  6
HIDDEN2
 10
85.5
 20
11.00000000000003
 30
0.0
 11
59.450000000000102
 21
11.000000000000091
 31
0.0
  0
LINE
  5
C83
  8
243
  6
HIDDEN2
 10
85.500000000000071
 20
-10.999999999999901
 30
0.0
 11
59.45000000000018
 21
-11.00000000000014
 31
0.0
  0
LINE
  5
C84
  8
250
  6
CONTINUOUS
 10
91.838654509999984
 20
36.510263210000033
 30
0.0
 11
105.03865451
 21
36.510263210000033
 31
0.0
1001
ITEMNAME
1000
LNSP2
  0
CIRCLE
  5
C85
  8
242
  6
CONTINUOUS
 10
75.5
 20
0.0
 30
0.0
 40
3.5
  0
CIRCLE
  5
C86
  8
241
  6
CONTINUOUS
 10
75.5
 20
0.0
 30
0.0
 40
4.0
  0
POLYLINE
  5
C87
  8
241
  6
CONTINUOUS
 66
     1
 10
0.0
 20
0.0
 30
0.0
 70
     1
  0
VERTEX
  5
C88
  8
241
  6
CONTINUOUS
 10
73.5
 20
-1.1547005400000001
 30
0.0
  0
VERTEX
  5
C89
  8
241
  6
CONTINUOUS
 10
75.5
 20
-2.3094010800000002
 30
0.0
  0
VERTEX
  5
C8A
  8
241
  6
CONTINUOUS
 10
77.5
 20
-1.1547005400000001
 30
0.0
  0
VERTEX
  5
C8B
  8
241
  6
CONTINUOUS
 10
77.5
 20
1.1547005400000001
 30
0.0
  0
VERTEX
  5
C8C
  8
241
  6
CONTINUOUS
 10
75.5
 20
2.3094010800000002
 30
0.0
  0
VERTEX
  5
C8D
  8
241
  6
CONTINUOUS
 10
73.5
 20
1.1547005400000001
 30
0.0
  0
SEQEND
  5
C8E
  8
241
  6
CONTINUOUS
  0
LINE
  5
C8F
  8
245
  6
CENTER2
 10
75.5
 20
5.0
 30
0.0
 11
75.5
 21
-5.0
 31
0.0
  0
TEXT
  5
C94
  8
250
  6
CONTINUOUS
 10
94.238654509999975
 20
37.510263210000033
 30
0.0
 40
2.799999999999998
  1
CK4
  7
YOKO
1001
ITEMNAME
1000
LNSP3
1001
ACAD
1000
MTEXTBEGIN
1070
    73
1070
     1
1070
    44
1040
1.0
1070
    74
1070
     0
1000
MTEXTEND
  0
LINE
  5
C95
  8
250
  6
CONTINUOUS
 10
86.0
 20
-19.5
 30
0.0
 11
97.5
 21
-19.5
 31
0.0
  0
LINE
  5
C96
  8
250
  6
CONTINUOUS
 10
86.0
 20
19.5
 30
0.0
 11
97.5
 21
19.5
 31
0.0
  0
LINE
  5
C97
  8
250
  6
CONTINUOUS
 10
96.5
 20
-17.27
 30
0.0
 11
96.5
 21
17.27
 31
0.0
  0
TEXT
  5
C98
  8
250
  6
CONTINUOUS
 10
95.499999999999986
 20
-3.8666666666666649
 30
0.0
 40
2.799999999999998
  1
\U+220539
 50
90.0
1001
ACAD
1000
MTEXTBEGIN
1070
    73
1070
     1
1070
    44
1040
1.0
1070
    74
1070
     0
1000
MTEXTEND
  0
LINE
  5
C99
  8
250
  6
CONTINUOUS
 10
96.128333333333316
 20
17.27
 30
0.0
 11
96.5
 21
19.5
 31
0.0
  0
LINE
  5
C9A
  8
250
  6
CONTINUOUS
 10
96.871666666666684
 20
17.27
 30
0.0
 11
96.5
 21
19.5
 31
0.0
  0
LINE
  5
C9B
  8
250
  6
CONTINUOUS
 10
96.5
 20
19.5
 30
0.0
 11
96.5
 21
17.27
 31
0.0
  0
LINE
  5
C9C
  8
250
  6
CONTINUOUS
 10
96.871666666666684
 20
-17.27
 30
0.0
 11
96.5
 21
-19.5
 31
0.0
  0
LINE
  5
C9D
  8
250
  6
CONTINUOUS
 10
96.128333333333316
 20
-17.27
 30
0.0
 11
96.5
 21
-19.5
 31
0.0
  0
LINE
  5
C9E
  8
250
  6
CONTINUOUS
 10
96.5
 20
-19.5
 30
0.0
 11
96.5
 21
-17.27
 31
0.0
  0
LINE
  5
C9F
  8
250
  6
CONTINUOUS
 10
83.454647244820819
 20
21.24540331731378
 30
0.0
 11
82.017774470000006
 21
19.500000000000021
 31
0.0
  0
LINE
  5
CA0
  8
250
  6
CONTINUOUS
 10
82.81090169462064
 20
21.617069983887351
 30
0.0
 11
82.017774470000006
 21
19.500000000000021
 31
0.0
  0
LINE
  5
CA1
  8
250
  6
CONTINUOUS
 10
82.017774470000006
 20
19.500000000000021
 30
0.0
 11
83.132774469720715
 21
21.43123665060056
 31
0.0
  0
LINE
  5
CC0
  8
247
  6
CONTINUOUS
 10
4.2984336071208977
 20
-12.65730788833122
 30
0.0
 11
4.2984336071209546
 21
-8.0226925040012134
 31
0.0
  0
LINE
  5
CC1
  8
247
  6
CONTINUOUS
 10
1.798433607120955
 20
-11.86220138831913
 30
0.0
 11
3.8984336070369632
 21
-12.46436669838857
 31
0.0
  0
LINE
  5
CC2
  8
247
  6
CONTINUOUS
 10
2.7945874532349531
 20
-11.23245929185026
 30
0.0
 11
2.7945874532349531
 21
-12.147843907198251
 31
0.0
  0
ARC
  5
CC3
  8
247
  6
CONTINUOUS
 10
2.1831526744150551
 20
-10.994571290277969
 30
0.0
 40
0.3876715809326743
 50
72.99788967529301
 51
172.92416621851351
  0
ARC
  5
CC4
  8
247
  6
CONTINUOUS
 10
2.1036567381489699
 20
-11.289785445135291
 30
0.0
 40
0.6933047965358766
 50
4.7429368522022131
 51
73.849226273266311
1001
GENIUS_GENOBJ-N-FIL_13
1002
{
1000
OWNER
1000
GEN
1002
}
1001
GENIUS_GENODEF_13
1002
{
1000
HIER
1070
     0
1002
}
1002
{
1000
MANEDIT
1070
     0
1002
}
1002
{
1000
NOSEL
1070
     0
1002
}
1002
{
1000
BEHIND
1070
     0
1002
}
1002
{
1000
OTHER
1070
     0
1002
}
1002
{
1000
REACTOR
1002
}
  0
LINE
  5
CC5
  8
247
  6
CONTINUOUS
 10
3.8984336070369632
 20
-11.548982083040579
 30
0.0
 11
3.8984336070369632
 21
-12.46436669838857
 31
0.0
  0
LINE
  5
CC6
  8
247
  6
CONTINUOUS
 10
1.798433607120955
 20
-11.86220138831913
 30
0.0
 11
1.798433607120955
 21
-10.94681677297114
 31
0.0
  0
ARC
  5
CC7
  8
247
  6
CONTINUOUS
 10
3.1858505698888271
 20
-11.28561436459802
 30
0.0
 40
0.394857301075386
 50
65.990941652528875
 51
172.26344345906909
  0
ARC
  5
CC8
  8
247
  6
CONTINUOUS
 10
3.1896339344535241
 20
-11.619754498758139
 30
0.0
 40
0.7123241612361686
 50
5.701985164256504
 51
77.277338436822376
1001
GENIUS_GENOBJ-N-FIL_13
1002
{
1000
OWNER
1000
GEN
1002
}
1001
GENIUS_GENODEF_13
1002
{
1000
HIER
1070
     0
1002
}
1002
{
1000
MANEDIT
1070
     0
1002
}
1002
{
1000
NOSEL
1070
     0
1002
}
1002
{
1000
BEHIND
1070
     0
1002
}
1002
{
1000
OTHER
1070
     0
1002
}
1002
{
1000
REACTOR
1002
}
  0
LINE
  5
CC9
  8
247
  6
CONTINUOUS
 10
3.8984336070369632
 20
-10.59128977539455
 30
0.0
 11
1.798433607120955
 21
-9.9891244653251761
 31
0.0
  0
LINE
  5
CCA
  8
247
  6
CONTINUOUS
 10
1.798433607120955
 20
-8.4929706192391432
 30
0.0
 11
1.798433607120955
 21
-8.8889862526347656
 31
0.0
  0
LINE
  5
CCB
  8
247
  6
CONTINUOUS
 10
3.8984336070369632
 20
-9.516047542275146
 30
0.0
 11
3.8984336070369632
 21
-9.0852783115231546
 31
0.0
  0
ARC
  5
CCC
  8
247
  6
CONTINUOUS
 10
3.2567332022043161
 20
-8.2891244654011302
 30
0.0
 40
1.5768550576395479
 50
202.3594881415294
 51
254.99324854284649
  0
ARC
  5
CCD
  8
247
  6
CONTINUOUS
 10
2.3642524656590922
 20
-8.7548192544643921
 30
0.0
 40
0.6234706797009447
 50
94.994589319075317
 51
155.16632895730399
1001
GENIUS_GENOBJ-N-FIL_13
1002
{
1000
OWNER
1000
GEN
1002
}
1001
GENIUS_GENODEF_13
1002
{
1000
HIER
1070
     0
1002
}
1002
{
1000
MANEDIT
1070
     0
1002
}
1002
{
1000
NOSEL
1070
     0
1002
}
1002
{
1000
BEHIND
1070
     0
1002
}
1002
{
1000
OTHER
1070
     0
1002
}
1002
{
1000
REACTOR
1002
}
  0
ARC
  5
CCE
  8
247
  6
CONTINUOUS
 10
2.9605357290903949
 20
-9.3514918393639732
 30
0.0
 40
0.9749472149106983
 50
15.84609655578071
 51
82.325137004169065
  0
ARC
  5
CCF
  8
247
  6
CONTINUOUS
 10
3.1699040090920221
 20
-8.9425195271033981
 30
0.0
 40
0.9271945638692009
 50
249.7136016704969
 51
321.78874565641092
1001
GENIUS_GENOBJ-N-FIL_13
1002
{
1000
OWNER
1000
GEN
1002
}
1001
GENIUS_GENODEF_13
1002
{
1000
HIER
1070
     0
1002
}
1002
{
1000
MANEDIT
1070
     0
1002
}
1002
{
1000
NOSEL
1070
     0
1002
}
1002
{
1000
BEHIND
1070
     0
1002
}
1002
{
1000
OTHER
1070
     0
1002
}
1002
{
1000
REACTOR
1002
}
  0
LINE
  5
CD0
  8
247
  6
CONTINUOUS
 10
3.090741299376929
 20
-8.8698936961471304
 30
0.0
 11
3.090741299376929
 21
-8.3852783115511897
 31
0.0
  0
ARC
  5
CD1
  8
247
  6
CONTINUOUS
 10
3.048433607120955
 20
-12.65730788833122
 30
0.0
 40
1.25
 50
180.0
 51
0.0
  0
LINE
  5
CD2
  8
247
  6
CONTINUOUS
 10
1.798433607120955
 20
-12.65730788833122
 30
0.0
 11
1.798433607120955
 21
-12.2111540422452
 31
0.0
  0
ARC
  5
CD3
  8
247
  6
CONTINUOUS
 10
3.048433607120955
 20
-8.0226925040012134
 30
0.0
 40
1.25
 50
0.0
 51
180.0
  0
LINE
  5
CD6
  8
250
  6
CONTINUOUS
 10
0.0
 20
23.686666670000001
 30
0.0
 11
0.0
 21
36.0
 31
0.0
  0
LINE
  5
CD7
  8
250
  6
CONTINUOUS
 10
85.5
 20
20.0
 30
0.0
 11
85.5
 21
36.0
 31
0.0
  0
LINE
  5
CD8
  8
250
  6
CONTINUOUS
 10
2.2299999999999991
 20
35.0
 30
0.0
 11
83.269999999999996
 21
35.0
 31
0.0
  0
LINE
  5
CDC
  8
250
  6
CONTINUOUS
 10
83.132774469720715
 20
21.43123665060056
 30
0.0
 11
91.838654509999984
 21
36.510263210000033
 31
0.0
1001
ACAD
1000
DSTYLE
1002
{
1070
     6
1000
OPEN
1002
}
  0
TEXT
  5
CDD
  8
250
  6
CONTINUOUS
 10
38.083333333333329
 20
36.0
 30
0.0
 40
2.7999999999999989
  1
85.5
1001
ACAD
1000
MTEXTBEGIN
1070
    73
1070
     1
1070
    44
1040
1.0
1070
    74
1070
     0
1000
MTEXTEND
  0
LINE
  5
CDE
  8
250
  6
CONTINUOUS
 10
83.269999999999996
 20
35.37166666666667
 30
0.0
 11
85.5
 21
35.0
 31
0.0
  0
LINE
  5
CDF
  8
250
  6
CONTINUOUS
 10
83.269999999999996
 20
34.62833333333333
 30
0.0
 11
85.5
 21
35.0
 31
0.0
  0
LINE
  5
CE0
  8
250
  6
CONTINUOUS
 10
85.5
 20
35.0
 30
0.0
 11
83.269999999999996
 21
35.0
 31
0.0
  0
LINE
  5
CE1
  8
250
  6
CONTINUOUS
 10
2.2299999999999991
 20
34.62833333333333
 30
0.0
 11
0.0
 21
35.0
 31
0.0
  0
LINE
  5
CE2
  8
250
  6
CONTINUOUS
 10
2.2299999999999991
 20
35.37166666666667
 30
0.0
 11
0.0
 21
35.0
 31
0.0
  0
LINE
  5
CE3
  8
250
  6
CONTINUOUS
 10
0.0
 20
35.0
 30
0.0
 11
2.2299999999999991
 21
35.0
 31
0.0
  0
TEXT
  5
CE4
  8
250
  6
CONTINUOUS
 10
-114.0752059433333
 20
-33.959422459999999
 30
0.0
 40
2.7999999999999989
  1
MT5
  7
YOKO
1001
ITEMNAME
1000
LNSP3
1001
ACAD
1000
MTEXTBEGIN
1070
    73
1070
     1
1070
    44
1040
1.0
1070
    74
1070
     0
1000
MTEXTEND
1000
MTEXTBEGIN
1070
    73
1070
     1
1070
    44
1040
1.0
1070
    74
1070
     0
1000
MTEXTEND
1000
MTEXTBEGIN
1070
    73
1070
     1
1070
    44
1040
1.0
1070
    74
1070
     0
1000
MTEXTEND
  0
LINE
  5
CE7
  8
250
  6
CONTINUOUS
 10
-95.859093309462054
 20
-21.686138260749871
 30
0.0
 11
-103.52242751
 21
-34.959422459999999
 31
0.0
1001
ACAD
1000
DSTYLE
1002
{
1070
     6
1000
OPEN
1070
   343
1005
594
1002
}
  0
LINE
  5
CE8
  8
250
  6
CONTINUOUS
 10
-96.180966084587055
 20
-21.500304927506189
 30
0.0
 11
-94.744093309999997
 21
-19.754901610000001
 31
0.0
  0
LINE
  5
CE9
  8
250
  6
CONTINUOUS
 10
-95.537220534337095
 20
-21.87197159399355
 30
0.0
 11
-94.744093309999997
 21
-19.754901610000001
 31
0.0
  0
LINE
  5
CEA
  8
250
  6
CONTINUOUS
 10
-94.744093309999997
 20
-19.754901610000001
 30
0.0
 11
-95.859093309462054
 21
-21.686138260749871
 31
0.0
  0
VIEWPORT
  5
22
 67
     1
  8
0
 10
261.51769911999997
 20
148.5
 30
0.0
 40
523.03539823000006
 41
297.0
 68
     1
 69
     1
1001
ACAD
1000
MVIEW
1002
{
1070
    16
1010
0.0
1020
0.0
1030
0.0
1010
0.0
1020
0.0
1030
1.0
1040
0.0
1040
297.0
1040
261.51769911999997
1040
148.5
1040
50.0
1040
0.0
1040
0.0
1070
     0
1070
   100
1070
     1
1070
     1
1070
     0
1070
     0
1070
     0
1070
     0
1040
0.0
1040
0.0
1040
0.0
1040
1.0
1040
1.0
1040
10.0
1040
10.0
1070
     0
1002
{
1002
}
1002
}
1001
GENIUS_GENODEF_13
1002
{
1000
HIER
1070
     0
1002
}
1002
{
1000
MANEDIT
1070
     0
1002
}
1002
{
1000
NOSEL
1070
     0
1002
}
1002
{
1000
BEHIND
1070
     0
1002
}
1002
{
1000
OTHER
1070
     0
1002
}
1002
{
1000
REACTOR
1002
}
1001
GENIUS_GENOBJ-N-SDF_13
1002
{
1000
OWNER
1000
GEN
1002
}
1001
GENIUS_GENSCREG_15
1000
PF
1040
1.0
1000
DF
1040
1.0
1000
MIN
1011
0.0000000049999471
1021
0.0
1031
0.0
1021
0.0
1031
0.0
1000
MAX
1011
523.035398235
1021
0.0
1031
0.0
1021
297.0
1031
0.0
1000
FLAGS
1070
     4
  0
ENDSEC
  0
EOF
