  0
SECTION
  2
HEADER
  9
$ACADVER
  1
AC1009
  9
$INSBASE
 10
0.0
 20
0.0
 30
0.0
  9
$EXTMIN
 10
-106.0439924314102
 20
-50.0
 30
0.0
  9
$EXTMAX
 10
99.0
 20
39.000000000000071
 30
0.0
  9
$LIMMIN
 10
0.0
 20
0.0
  9
$LIMMAX
 10
297.0
 20
210.0
  9
$ORTHOMODE
 70
     1
  9
$REGENMODE
 70
     1
  9
$FILLMODE
 70
     1
  9
$QTEXTMODE
 70
     0
  9
$MIRRTEXT
 70
     1
  9
$DRAGMODE
 70
     2
  9
$LTSCALE
 40
10.0
  9
$OSMODE
 70
     7
  9
$ATTMODE
 70
     1
  9
$TEXTSIZE
 40
3.0
  9
$TRACEWID
 40
1.0
  9
$TEXTSTYLE
  7
YOKO
  9
$CLAYER
  8
240
  9
$CELTYPE
  6
BYLAYER
  9
$CECOLOR
 62
   256
  9
$DIMSCALE
 40
1.0
  9
$DIMASZ
 40
2.2299999999999991
  9
$DIMEXO
 40
0.5
  9
$DIMDLI
 40
7.0
  9
$DIMRND
 40
0.0
  9
$DIMDLE
 40
0.0
  9
$DIMEXE
 40
1.0
  9
$DIMTP
 40
0.0
  9
$DIMTM
 40
0.01
  9
$DIMTXT
 40
2.799999999999998
  9
$DIMCEN
 40
0.0
  9
$DIMTSZ
 40
0.0
  9
$DIMTOL
 70
     0
  9
$DIMLIM
 70
     0
  9
$DIMTIH
 70
     0
  9
$DIMTOH
 70
     0
  9
$DIMSE1
 70
     0
  9
$DIMSE2
 70
     0
  9
$DIMTAD
 70
     3
  9
$DIMZIN
 70
     9
  9
$DIMBLK
  1
OPEN
  9
$DIMASO
 70
     1
  9
$DIMSHO
 70
     1
  9
$DIMPOST
  1

  9
$DIMAPOST
  1

  9
$DIMALT
 70
     0
  9
$DIMALTD
 70
     2
  9
$DIMALTF
 40
25.399999999999999
  9
$DIMLFAC
 40
1.0
  9
$DIMTOFL
 70
     1
  9
$DIMTVP
 40
0.0
  9
$DIMTIX
 70
     1
  9
$DIMSOXD
 70
     0
  9
$DIMSAH
 70
     0
  9
$DIMBLK1
  1

  9
$DIMBLK2
  1

  9
$DIMSTYLE
  2
BIGT
  9
$DIMCLRD
 70
   256
  9
$DIMCLRE
 70
   256
  9
$DIMCLRT
 70
    40
  9
$DIMTFAC
 40
1.0
  9
$DIMGAP
 40
1.0
  9
$LUNITS
 70
     2
  9
$LUPREC
 70
     6
  9
$SKETCHINC
 40
1.0
  9
$FILLETRAD
 40
0.0
  9
$AUNITS
 70
     0
  9
$AUPREC
 70
     6
  9
$MENU
  1
.
  9
$ELEVATION
 40
0.0
  9
$PELEVATION
 40
0.0
  9
$THICKNESS
 40
0.0
  9
$LIMCHECK
 70
     0
  9
$BLIPMODE
 70
     0
  9
$CHAMFERA
 40
0.2
  9
$CHAMFERB
 40
0.2
  9
$SKPOLY
 70
     0
  9
$TDCREATE
 40
2459752.6433931482
  9
$TDUPDATE
 40
2460557.5803917712
  9
$TDINDWG
 40
0.011451412
  9
$TDUSRTIMER
 40
0.0114513079
  9
$USRTIMER
 70
     1
  9
$ANGBASE
 50
0.0
  9
$ANGDIR
 70
     0
  9
$PDMODE
 70
     1
  9
$PDSIZE
 40
0.0
  9
$PLINEWID
 40
0.0
  9
$COORDS
 70
     1
  9
$SPLFRAME
 70
     0
  9
$SPLINETYPE
 70
     6
  9
$SPLINESEGS
 70
     4
  9
$ATTDIA
 70
     1
  9
$ATTREQ
 70
     1
  9
$HANDLING
 70
     1
  9
$HANDSEED
  5
4A31
  9
$SURFTAB1
 70
     6
  9
$SURFTAB2
 70
     6
  9
$SURFTYPE
 70
     6
  9
$SURFU
 70
     6
  9
$SURFV
 70
     6
  9
$UCSNAME
  2

  9
$UCSORG
 10
0.0
 20
0.0
 30
0.0
  9
$UCSXDIR
 10
1.0
 20
0.0
 30
0.0
  9
$UCSYDIR
 10
0.0
 20
1.0
 30
0.0
  9
$PUCSNAME
  2

  9
$PUCSORG
 10
0.0
 20
0.0
 30
0.0
  9
$PUCSXDIR
 10
1.0
 20
0.0
 30
0.0
  9
$PUCSYDIR
 10
0.0
 20
1.0
 30
0.0
  9
$USERI1
 70
     1
  9
$USERI2
 70
     0
  9
$USERI3
 70
     0
  9
$USERI4
 70
     0
  9
$USERI5
 70
     0
  9
$USERR1
 40
0.0
  9
$USERR2
 40
0.0
  9
$USERR3
 40
0.0
  9
$USERR4
 40
0.0
  9
$USERR5
 40
0.0
  9
$WORLDVIEW
 70
     1
  9
$SHADEDGE
 70
     3
  9
$SHADEDIF
 70
    70
  9
$TILEMODE
 70
     1
  9
$MAXACTVP
 70
    16
  9
$PLIMCHECK
 70
     0
  9
$PEXTMIN
 10
1.0000000000000000E+020
 20
1.0000000000000000E+020
 30
1.0000000000000000E+020
  9
$PEXTMAX
 10
-1.0000000000000000E+020
 20
-1.0000000000000000E+020
 30
-1.0000000000000000E+020
  9
$PLIMMIN
 10
0.0
 20
0.0
  9
$PLIMMAX
 10
420.0
 20
297.0
  9
$UNITMODE
 70
     0
  9
$VISRETAIN
 70
     1
  9
$PLINEGEN
 70
     0
  9
$PSLTSCALE
 70
     1
  0
ENDSEC
  0
SECTION
  2
TABLES
  0
TABLE
  2
VPORT
 70
     1
  0
VPORT
  2
*ACTIVE
 70
     0
 10
0.0
 20
0.0
 11
1.0
 21
1.0
 12
-13.781830092426389
 22
-2.709094946042526
 13
0.0
 23
0.0
 14
7.0
 24
7.0
 15
7.0
 25
7.0
 16
0.0
 26
0.0
 36
1.0
 17
0.0
 27
0.0
 37
0.0
 40
204.27331956322379
 41
1.68057210965435
 42
50.0
 43
0.0
 44
0.0
 50
0.0
 51
0.0
 71
     0
 72
  2000
 73
     1
 74
     0
 75
     0
 76
     1
 77
     0
 78
     0
  0
ENDTAB
  0
TABLE
  2
LTYPE
 70
    16
  0
LTYPE
  2
CONTINUOUS
 70
     0
  3
Solid line
 72
    65
 73
     0
 40
0.0
  0
LTYPE
  2
CENTER2
 70
     0
  3
___ _ ___ _ ___ _ ___ _ ___ _ ___ _ ___ _ ___ _
 72
    65
 73
     4
 40
1.125
 49
0.75
 49
-0.125
 49
0.125
 49
-0.125
  0
LTYPE
  2
HIDDEN2
 70
     0
  3
_ _ _ _ _ _ _ _ _ _ _ _ _ _ _ _ _ _ _ _ _ _ _ _
 72
    65
 73
     2
 40
0.1875
 49
0.125
 49
-0.0625
  0
LTYPE
  2
PHANTOM2
 70
     0
  3
___ _ _ ___ _ _ ___ _ _ ___ _ _ ___ _ _ ___ _ _
 72
    65
 73
     6
 40
1.25
 49
0.625
 49
-0.125
 49
0.125
 49
-0.125
 49
0.125
 49
-0.125
  0
LTYPE
  2
AMCONSTR
 70
     0
  3
_______________________
 72
    65
 73
     2
 40
9999.0
 49
9999.0
 49
0.0
  0
LTYPE
  2
HIDDEN
 70
     0
  3
Hidden __ __ __ __ __ __ __ __ __ __ __ __ __ _
 72
    65
 73
     2
 40
0.375
 49
0.25
 49
-0.125
  0
LTYPE
  2
CENTER
 70
     0
  3
Center ____ _ ____ _ ____ _ ____ _ ____ _ ____
 72
    65
 73
     4
 40
2.0
 49
1.25
 49
-0.25
 49
0.25
 49
-0.25
  0
LTYPE
  2
AMZIGZAG2
 70
     0
  3
/\/-/\/-/\/-/\/-/\/-/\/
 72
    65
 73
     2
 40
0.4401
 49
0.0001
 49
-0.4400000000000002
  0
LTYPE
  2
ACANSTGB
 70
     0
  3
__ . . __ . .
 72
    65
 73
     6
 40
0.35433070866
 49
0.15748031496
 49
-0.03937007874
 49
0.03937007874
 49
-0.03937007874
 49
0.03937007874
 49
-0.03937007874
  0
LTYPE
  2
ACANSTGL
 70
     0
  3
_ _ _ _ _
 72
    65
 73
     2
 40
0.11811023622
 49
0.07874015748
 49
-0.03937007874
  0
ENDTAB
  0
TABLE
  2
LAYER
 70
    10
  0
LAYER
  2
0
 70
     0
 62
     7
  6
CONTINUOUS
  0
LAYER
  2
240
 70
     0
 62
     4
  6
CONTINUOUS
  0
LAYER
  2
DEFPOINTS
 70
     0
 62
     7
  6
CONTINUOUS
  0
LAYER
  2
245
 70
     0
 62
     2
  6
CENTER2
  0
LAYER
  2
241
 70
     0
 62
   211
  6
CONTINUOUS
  0
LAYER
  2
242
 70
     0
 62
     3
  6
CONTINUOUS
  0
LAYER
  2
243
 70
     0
 62
   211
  6
HIDDEN2
  0
LAYER
  2
244
 70
     0
 62
     3
  6
HIDDEN2
  0
LAYER
  2
250
 70
     0
 62
     3
  6
CONTINUOUS
  0
ENDTAB
  0
TABLE
  2
STYLE
 70
     7
  0
STYLE
  2
STANDARD
 70
     0
 40
0.0
 41
1.0
 50
0.0
 71
     0
 42
3.0
  3
romans.shx
  4
extfont.shx
  0
STYLE
  2
YOKO
 70
     0
 40
0.0
 41
1.0
 50
0.0
 71
     0
 42
3.0
  3
romans.shx
  4
extfont.shx
  0
STYLE
  2
ACJISTS
 70
     0
 40
1.0
 41
1.0
 50
0.0
 71
     0
 42
3.0
  3
amgdt.shx
  4
extfont.shx
  0
STYLE
  2
ACANSGDT
 70
     0
 40
0.0
 41
1.0
 50
0.0
 71
     0
 42
3.0
  3
amgdt.shx
  4

  0
ENDTAB
  0
TABLE
  2
VIEW
 70
     0
  0
ENDTAB
  0
TABLE
  2
UCS
 70
     0
  0
ENDTAB
  0
TABLE
  2
APPID
 70
    43
  0
APPID
  2
ACAD
 70
     0
  0
APPID
  2
ACADANNOTATIVE
 70
     0
  0
APPID
  2
GLOBAL
 70
     0
  0
APPID
  2
DETAIL
 70
     0
  0
APPID
  2
GRPNAME
 70
     0
  0
APPID
  2
GPARA
 70
     0
  0
APPID
  2
MCAD_NO_VIS
 70
     0
  0
APPID
  2
ACAD_TEMP_GRAPHIC
 70
     0
  0
APPID
  2
ACATTRIBSERVICES
 70
     0
  0
APPID
  2
GENIUS_GENSCREG_15
 70
     0
  0
APPID
  2
GENIUS_GENODEF_13
 70
     0
  0
APPID
  2
GENIUS_GENOBJ-N-SDF_13
 70
     0
  0
APPID
  2
GENIUS_GENREC_14
 70
     0
  0
APPID
  2
GENIUS_GENOBJ-N-REC_13
 70
     0
  0
APPID
  2
GENIUS_GENDIMSH_14
 70
     0
  0
APPID
  2
GENIUS_GENOBJ-N-DIM_13
 70
     0
  0
APPID
  2
GENIUS_GENDIM_13
 70
     0
  0
APPID
  2
GENIUS_GENDTOL_13
 70
     0
  0
APPID
  2
GENIUS_GENOLIS_13
 70
     0
  0
APPID
  2
GENIUS_GENOENT_13
 70
     0
  0
APPID
  2
GENIUS_GENOBJ-F-FEM_13
 70
     0
  0
APPID
  2
GENIUS_GENOREF_13
 70
     0
  0
APPID
  2
GENIUS_GEFFEM_13
 70
     0
  0
APPID
  2
GENIUS_GEFFEMP_13
 70
     0
  0
APPID
  2
AD_DRAW
 70
     0
  0
APPID
  2
DESIGNERASSEMBLIES
 70
     0
  0
APPID
  2
ACADM_DIM_EDIT
 70
     0
  0
APPID
  2
AMDT_DM_ADJ
 70
     0
  0
APPID
  2
ITEMNAME
 70
     0
  0
APPID
  2
GENIUS_GENOBJ-N-FIL_13
 70
     0
  0
APPID
  2
GENIUS_GENFIL_13
 70
     0
  0
APPID
  2
GENIUS_GENOBJ-N-CHA_13
 70
     0
  0
APPID
  2
ACAD_NAV_VCDISPLAY
 70
     0
  0
APPID
  2
GENIUS_GENOBJ-N-RSBK_13
 70
     0
  0
APPID
  2
GENIUS_GENOBJ-N-LIB_13
 70
     0
  0
APPID
  2
GENIUS_GENSCALE_13
 70
     0
  0
APPID
  2
ACAD_PSEXT
 70
     0
  0
APPID
  2
ACAD_DSTYLE_DIMINSPECT
 70
     0
  0
APPID
  2
ACAD_EXEMPT_FROM_CAD_STANDARDS
 70
     0
  0
APPID
  2
ACAD_MLEADERVER
 70
     0
  0
APPID
  2
ACAD_DSTYLE_DIMJAG
 70
     0
  0
APPID
  2
ACAD_DSTYLE_DIMBREAK
 70
     0
  0
APPID
  2
ACAECLAYERSTANDARD
 70
     0
  0
ENDTAB
  0
TABLE
  2
DIMSTYLE
 70
     9
  0
DIMSTYLE
  2
STANDARD
 70
     0
  3

  4

  5

  6

  7

 40
1.0
 41
0.18
 42
0.0625
 43
0.38
 44
0.18
 45
0.0
 46
0.0
 47
0.0
 48
0.0
140
0.18
141
0.09
142
0.0
143
25.399999999999999
144
1.0
145
0.0
146
1.0
147
0.09
 71
     0
 72
     0
 73
     1
 74
     1
 75
     0
 76
     0
 77
     0
 78
     0
170
     0
171
     2
172
     0
173
     0
174
     0
175
     0
176
     0
177
     0
178
     0
  0
DIMSTYLE
  2
BIGT
 70
     0
  3

  4

  5

  6

  7

 40
1.0
 41
2.2299999999999991
 42
0.5
 43
7.0
 44
1.0
 45
0.0
 46
0.0
 47
0.0
 48
0.01
140
2.799999999999998
141
0.0
142
0.0
143
25.399999999999999
144
1.0
145
0.0
146
1.0
147
1.0
 71
     0
 72
     0
 73
     0
 74
     0
 75
     0
 76
     0
 77
     3
 78
     9
170
     0
171
     2
172
     1
173
     0
174
     1
175
     0
176
   256
177
   256
178
    40
  0
DIMSTYLE
  2
AM_ANSI
 70
     0
  3

  4
mm
  5

  6

  7

 40
1.0
 41
0.12
 42
0.05
 43
0.5
 44
0.1
 45
0.0
 46
0.0
 47
0.1
 48
0.1
140
0.12
141
0.0
142
0.0
143
25.399999999999999
144
1.0
145
0.0
146
0.71
147
0.06
 71
     0
 72
     0
 73
     1
 74
     1
 75
     0
 76
     0
 77
     0
 78
     7
170
     0
171
     2
172
     0
173
     0
174
     0
175
     0
176
   256
177
   256
178
     2
  0
DIMSTYLE
  2
AM_ANSI$3
 70
     0
  3

  4
mm
  5

  6

  7

 40
1.0
 41
0.12
 42
0.05
 43
0.5
 44
0.1
 45
0.0
 46
0.0
 47
0.1
 48
0.1
140
0.12
141
0.0
142
0.0
143
25.399999999999999
144
1.0
145
0.0
146
0.71
147
0.06
 71
     0
 72
     0
 73
     1
 74
     1
 75
     0
 76
     0
 77
     0
 78
     7
170
     0
171
     2
172
     0
173
     0
174
     0
175
     0
176
   256
177
   256
178
     2
  0
DIMSTYLE
  2
AM_ANSI$4
 70
     0
  3

  4
mm
  5

  6

  7

 40
1.0
 41
0.12
 42
0.05
 43
0.5
 44
0.1
 45
0.0
 46
0.0
 47
0.1
 48
0.1
140
0.12
141
0.0
142
0.0
143
25.399999999999999
144
1.0
145
0.0
146
0.71
147
0.06
 71
     0
 72
     0
 73
     1
 74
     1
 75
     0
 76
     0
 77
     0
 78
     7
170
     0
171
     2
172
     0
173
     0
174
     0
175
     0
176
   256
177
   256
178
     2
  0
DIMSTYLE
  2
AM_ANSI$7
 70
     0
  3

  4
mm
  5

  6

  7

 40
1.0
 41
0.12
 42
0.05
 43
0.5
 44
0.1
 45
0.0
 46
0.0
 47
0.1
 48
0.1
140
0.12
141
0.0
142
0.0
143
25.399999999999999
144
1.0
145
0.0
146
0.71
147
0.06
 71
     0
 72
     0
 73
     1
 74
     1
 75
     0
 76
     0
 77
     0
 78
     7
170
     0
171
     2
172
     0
173
     0
174
     0
175
     0
176
   256
177
   256
178
     2
  0
DIMSTYLE
  2
AM_ANSI$SF
 70
     0
  3

  4
mm
  5

  6

  7

 40
1.0
 41
0.12
 42
0.05
 43
0.5
 44
0.1
 45
0.0
 46
0.0
 47
0.1
 48
0.1
140
0.12
141
0.0
142
0.0
143
25.399999999999999
144
1.0
145
0.0
146
0.71
147
0.06
 71
     0
 72
     0
 73
     1
 74
     1
 75
     1
 76
     1
 77
     0
 78
     7
170
     0
171
     2
172
     0
173
     0
174
     0
175
     0
176
   256
177
   256
178
     2
  0
DIMSTYLE
  2
AM_ANSI$SH
 70
     0
  3

  4
mm
  5

  6

  7

 40
1.0
 41
0.12
 42
0.05
 43
0.5
 44
0.1
 45
0.0
 46
0.0
 47
0.1
 48
0.1
140
0.12
141
0.0
142
0.0
143
25.399999999999999
144
1.0
145
0.0
146
0.71
147
0.06
 71
     0
 72
     0
 73
     1
 74
     1
 75
     1
 76
     1
 77
     0
 78
     7
170
     0
171
     2
172
     0
173
     1
174
     0
175
     0
176
   256
177
   256
178
     2
  0
ENDTAB
  0
ENDSEC
  0
SECTION
  2
BLOCKS
  0
BLOCK
  8
0
  2
$MODEL_SPACE
 70
     0
 10
0.0
 20
0.0
 30
0.0
  3
$MODEL_SPACE
  1

  0
ENDBLK
  5
490C
  8
0
  0
BLOCK
 67
     1
  8
0
  2
$PAPER_SPACE
 70
     0
 10
0.0
 20
0.0
 30
0.0
  3
$PAPER_SPACE
  1

  0
ENDBLK
  5
4908
 67
     1
  8
0
  0
BLOCK
  8
0
  2
_OPEN
 70
     0
 10
0.0
 20
0.0
 30
0.0
  3
_OPEN
  1

  0
LINE
  5
45F0
  8
0
  6
BYBLOCK
 62
     0
 10
-1.0
 20
0.1666666666666666
 30
0.0
 11
0.0
 21
0.0
 31
0.0
  0
LINE
  5
45F1
  8
0
  6
BYBLOCK
 62
     0
 10
-1.0
 20
-0.1666666666666666
 30
0.0
 11
0.0
 21
0.0
 31
0.0
  0
LINE
  5
45F2
  8
0
  6
BYBLOCK
 62
     0
 10
0.0
 20
0.0
 30
0.0
 11
-1.0
 21
0.0
 31
0.0
  0
ENDBLK
  5
45F3
  8
0
  0
BLOCK
  8
0
  2
_ACMFILLEDHALF
 70
     0
 10
0.0
 20
0.0
 30
0.0
  3
_ACMFILLEDHALF
  1

  0
TRACE
  5
481E
  8
240
 62
     0
 10
-0.8
 20
0.0
 30
0.0
 11
-1.0
 21
0.166666666
 31
0.0
 12
0.0
 22
0.0
 32
0.0
 13
0.0
 23
0.0
 33
0.0
  0
LINE
  5
481F
  8
240
 62
     0
 10
-1.0
 20
0.0
 30
0.0
 11
-0.8
 21
0.0
 31
0.0
  0
ENDBLK
  5
481D
  8
0
  0
ENDSEC
  0
SECTION
  2
ENTITIES
  0
ARC
  5
427B
  8
240
  6
CONTINUOUS
 10
-101.3
 20
11.50000000000003
 30
0.0
 40
1.0
 50
90.0
 51
180.0
  0
LINE
  5
427D
  8
243
  6
HIDDEN2
 10
-89.300000000000026
 20
6.000000000000032
 30
0.0
 11
-90.299999999999983
 21
7.0000000000000311
 31
0.0
1001
GENIUS_GENFIL_13
1070
     0
1040
1.0
1040
1.0
1040
0.9999999999999715
1040
45.0
1000
~T
1001
GENIUS_GENOREF_13
1005
42CA
  0
LINE
  5
427E
  8
240
  6
CONTINUOUS
 10
-102.3
 20
-11.49999999999997
 30
0.0
 11
-102.3
 21
11.50000000000003
 31
0.0
  0
LINE
  5
427F
  8
240
  6
CONTINUOUS
 10
6.4999999999994307
 20
-16.333499999999521
 30
0.0
 11
6.4999999999994307
 21
-20.499999999999972
 31
0.0
  0
LINE
  5
4280
  8
240
  6
CONTINUOUS
 10
-93.58393083773187
 20
-13.21606916226945
 30
0.0
 11
-94.300000000001319
 21
-12.49999999999997
 31
0.0
  0
LINE
  5
4281
  8
240
  6
CONTINUOUS
 10
-93.58393083773187
 20
-13.21606916226945
 30
0.0
 11
0.0
 21
-15.63349999999993
 31
0.0
  0
LINE
  5
4282
  8
243
  6
HIDDEN2
 10
-100.5679491924311
 20
8.5000000000000302
 30
0.0
 11
-90.299999999999983
 21
8.5000000000000302
 31
0.0
  0
LINE
  5
4283
  8
241
  6
CONTINUOUS
 10
6.4999999999994307
 20
16.333499999999589
 30
0.0
 11
6.4999999999994307
 21
-16.333499999999521
 31
0.0
  0
LINE
  5
4286
  8
243
  6
HIDDEN2
 10
-42.300000000000011
 20
6.000000000000032
 30
0.0
 11
-38.835898384861991
 21
0.000000000000032
 31
0.0
  0
LINE
  5
4287
  8
244
  6
HIDDEN2
 10
-52.299999999999933
 20
7.0000000000000311
 30
0.0
 11
-50.567949192431001
 21
6.000000000000032
 31
0.0
  0
LINE
  5
4289
  8
240
  6
CONTINUOUS
 10
6.4999999999994307
 20
16.333500000000281
 30
0.0
 11
6.4999999999994307
 21
20.500000000000028
 31
0.0
  0
LINE
  5
428A
  8
241
  6
CONTINUOUS
 10
-94.299999999999969
 20
-12.49999999999997
 30
0.0
 11
-94.299999999999969
 21
12.50000000000003
 31
0.0
  0
LINE
  5
428B
  8
240
  6
CONTINUOUS
 10
-93.58393083773187
 20
13.21606916226952
 30
0.0
 11
-94.300000000001319
 21
12.50000000000003
 31
0.0
  0
LINE
  5
428C
  8
240
  6
CONTINUOUS
 10
-101.3
 20
12.50000000000003
 30
0.0
 11
-94.300000000001319
 21
12.50000000000003
 31
0.0
  0
LINE
  5
428D
  8
240
  6
CONTINUOUS
 10
-93.58393083773187
 20
13.21606916226952
 30
0.0
 11
-0.0000000000002274
 21
15.633499999999939
 31
0.0
  0
LINE
  5
428E
  8
245
  6
CENTER2
 10
-106.0439924314102
 20
0.000000000000032
 30
0.0
 11
87.0
 21
-0.0000000000000258
 31
0.0
  0
LINE
  5
4290
  8
244
  6
HIDDEN2
 10
-90.299999999999983
 20
7.0000000000000311
 30
0.0
 11
-52.299999999999933
 21
7.0000000000000311
 31
0.0
  0
LINE
  5
4291
  8
243
  6
HIDDEN2
 10
-89.300000000000026
 20
6.000000000000032
 30
0.0
 11
-42.300000000000011
 21
6.000000000000032
 31
0.0
  0
LINE
  5
4292
  8
240
  6
CONTINUOUS
 10
7.4999999999994298
 20
21.500000000000028
 30
0.0
 11
28.499999999999432
 21
21.500000000000028
 31
0.0
  0
ARC
  5
4293
  8
240
  6
CONTINUOUS
 10
28.499999999999432
 20
22.500000000000028
 30
0.0
 40
1.0
 50
270.0
 51
0.0
1001
GENIUS_GENOBJ-N-FIL_13
1002
{
1000
OWNER
1000
GEN
1002
}
1001
GENIUS_GENODEF_13
1002
{
1000
HIER
1070
     0
1002
}
1002
{
1000
MANEDIT
1070
     0
1002
}
1002
{
1000
NOSEL
1070
     0
1002
}
1002
{
1000
BEHIND
1070
     0
1002
}
1002
{
1000
OTHER
1070
     0
1002
}
1002
{
1000
REACTOR
1002
}
  0
ARC
  5
4294
  8
240
  6
CONTINUOUS
 10
7.4999999999994298
 20
20.500000000000028
 30
0.0
 40
1.0
 50
90.0
 51
180.0
1001
GENIUS_GENOBJ-N-FIL_13
1002
{
1000
OWNER
1000
GEN
1002
}
1001
GENIUS_GENODEF_13
1002
{
1000
HIER
1070
     0
1002
}
1002
{
1000
MANEDIT
1070
     0
1002
}
1002
{
1000
NOSEL
1070
     0
1002
}
1002
{
1000
BEHIND
1070
     0
1002
}
1002
{
1000
OTHER
1070
     0
1002
}
1002
{
1000
REACTOR
1002
}
  0
LINE
  5
4295
  8
240
  6
CONTINUOUS
 10
7.4999999999994298
 20
-21.499999999999972
 30
0.0
 11
28.499999999999432
 21
-21.499999999999972
 31
0.0
  0
ARC
  5
4296
  8
240
  6
CONTINUOUS
 10
7.4999999999994298
 20
-20.499999999999972
 30
0.0
 40
1.0
 50
180.0
 51
270.0
1001
GENIUS_GENODEF_13
1002
{
1000
HIER
1070
     0
1002
}
1002
{
1000
MANEDIT
1070
     0
1002
}
1002
{
1000
NOSEL
1070
     0
1002
}
1002
{
1000
BEHIND
1070
     0
1002
}
1002
{
1000
OTHER
1070
     0
1002
}
1002
{
1000
REACTOR
1002
}
1001
GENIUS_GENOBJ-N-FIL_13
1002
{
1000
OWNER
1000
GEN
1002
}
  0
LINE
  5
4298
  8
243
  6
HIDDEN2
 10
-102.3
 20
10.50000000000003
 30
0.0
 11
-101.43397459621551
 21
9.0000000000000302
 31
0.0
  0
LINE
  5
4299
  8
243
  6
HIDDEN2
 10
-101.43397459621551
 20
9.0000000000000302
 30
0.0
 11
-100.5679491924311
 21
8.5000000000000302
 31
0.0
  0
LINE
  5
429A
  8
243
  6
HIDDEN2
 10
-90.299999999999983
 20
0.000000000000032
 30
0.0
 11
-90.299999999999983
 21
8.5000000000000302
 31
0.0
  0
LINE
  5
429C
  8
243
  6
HIDDEN2
 10
-89.300000000000026
 20
3.0000000000000311
 30
0.0
 11
-89.300000000000026
 21
6.000000000000032
 31
0.0
  0
LINE
  5
429D
  8
241
  6
CONTINUOUS
 10
22.499999999999829
 20
14.36140661634508
 30
0.0
 11
22.499999999999488
 21
-14.36140661634502
 31
0.0
  0
LINE
  5
429E
  8
241
  6
CONTINUOUS
 10
6.4999999999994307
 20
0.000000000000032
 30
0.0
 11
6.4999999999994307
 21
0.000000000000032
 31
0.0
  0
LINE
  5
429F
  8
241
  6
CONTINUOUS
 10
6.4999999999994307
 20
-14.36140661634502
 30
0.0
 11
22.499999999999488
 21
-14.36140661634502
 31
0.0
  0
LINE
  5
42A0
  8
242
  6
CONTINUOUS
 10
22.499999999999488
 20
-14.36140661634502
 30
0.0
 11
6.4999999999994307
 21
14.36140661634508
 31
0.0
  0
LINE
  5
42A5
  8
243
  6
HIDDEN2
 10
-100.5679491924311
 20
8.5000000000000302
 30
0.0
 11
-100.5679491924311
 21
0.0000000000000053
 31
0.0
  0
LINE
  5
42A8
  8
240
  6
CONTINUOUS
 10
29.499999999999432
 20
28.99999999999994
 30
0.0
 11
29.499999999999432
 21
22.500000000000028
 31
0.0
  0
LINE
  5
42A9
  8
240
  6
CONTINUOUS
 10
32.499999999999432
 20
31.999999999999961
 30
0.0
 11
29.499999999999432
 21
28.99999999999994
 31
0.0
1001
GENIUS_GENFIL_13
1070
     1
1040
3.000000000000028
1040
3.0
1040
3.0
1040
44.999999999999723
1000
~T
1001
GENIUS_GENOREF_13
1005
42C9
  0
LINE
  5
42AA
  8
240
  6
CONTINUOUS
 10
29.499999999999432
 20
-22.499999999999972
 30
0.0
 11
29.499999999999432
 21
-29.000000000000021
 31
0.0
  0
ARC
  5
42AB
  8
240
  6
CONTINUOUS
 10
28.499999999999432
 20
-22.499999999999972
 30
0.0
 40
1.0
 50
0.0
 51
90.0
1001
GENIUS_GENOBJ-N-FIL_13
1002
{
1000
OWNER
1000
GEN
1002
}
1001
GENIUS_GENODEF_13
1002
{
1000
HIER
1070
     0
1002
}
1002
{
1000
MANEDIT
1070
     0
1002
}
1002
{
1000
NOSEL
1070
     0
1002
}
1002
{
1000
BEHIND
1070
     0
1002
}
1002
{
1000
OTHER
1070
     0
1002
}
1002
{
1000
REACTOR
1002
}
  0
LINE
  5
42AC
  8
241
  6
CONTINUOUS
 10
29.499999999999432
 20
-22.499999999999972
 30
0.0
 11
29.499999999999432
 21
22.500000000000028
 31
0.0
  0
LINE
  5
42AE
  8
240
  6
CONTINUOUS
 10
32.499999999999432
 20
31.999999999999961
 30
0.0
 11
82.5
 21
31.999999999999972
 31
0.0
  0
LINE
  5
42AF
  8
240
  6
CONTINUOUS
 10
82.5
 20
31.999999999999972
 30
0.0
 11
83.499999999999986
 21
30.999999999999979
 31
0.0
  0
LINE
  5
42B0
  8
240
  6
CONTINUOUS
 10
32.499999999999403
 20
-32.000000000000007
 30
0.0
 11
82.5
 21
-32.0
 31
0.0
  0
LINE
  5
42B1
  8
240
  6
CONTINUOUS
 10
29.499999999999432
 20
-29.000000000000021
 30
0.0
 11
32.499999999999403
 21
-32.000000000000007
 31
0.0
1001
GENIUS_GENFIL_13
1070
     1
1040
3.000000000000028
1040
3.0
1040
3.0
1040
45.000000000000227
1000
~T
1001
GENIUS_GENOREF_13
1005
42C8
  0
LINE
  5
42B2
  8
240
  6
CONTINUOUS
 10
82.5
 20
-32.0
 30
0.0
 11
83.499999999999986
 21
-31.0
 31
0.0
  0
LINE
  5
42B4
  8
240
  6
CONTINUOUS
 10
83.499999999999986
 20
-31.0
 30
0.0
 11
83.499999999999986
 21
30.999999999999979
 31
0.0
  0
LINE
  5
42BC
  8
243
  6
HIDDEN2
 10
83.499999999999986
 20
17.999999999999972
 30
0.0
 11
45.383012701892198
 21
17.999999999999972
 31
0.0
  0
LINE
  5
42C2
  8
241
  6
CONTINUOUS
 10
82.5
 20
-26.743949705496409
 30
0.0
 11
82.5
 21
-32.0
 31
0.0
  0
LINE
  5
42C6
  8
241
  6
CONTINUOUS
 10
32.499999999999403
 20
-32.000000000000007
 30
0.0
 11
32.499999999999403
 21
-25.23198697993735
 31
0.0
  0
POINT
  5
42C8
  8
0
 10
-182.0
 20
-161.18735089299511
 30
0.0
1001
GENIUS_GENOLIS_13
1002
{
1000
ENT
1005
0
1005
42B1
1002
}
1001
GENIUS_GENOENT_13
1002
{
1000
MYREF
1005
42C8
1002
}
1002
{
1000
GRP
1005
0
1002
}
1001
GENIUS_GENOBJ-N-CHA_13
1002
{
1000
OWNER
1000
GEN
1002
}
1001
GENIUS_GENODEF_13
1002
{
1000
HIER
1070
     1
1002
}
1002
{
1000
MANEDIT
1070
     0
1002
}
1002
{
1000
NOSEL
1070
     0
1002
}
1002
{
1000
BEHIND
1070
     0
1002
}
1002
{
1000
OTHER
1070
     0
1002
}
1002
{
1000
REACTOR
1002
}
  0
POINT
  5
42C9
  8
0
 10
-182.0
 20
-161.18735089299511
 30
0.0
1001
GENIUS_GENOLIS_13
1002
{
1000
ENT
1005
0
1005
42A9
1002
}
1001
GENIUS_GENOENT_13
1002
{
1000
MYREF
1005
42C9
1002
}
1002
{
1000
GRP
1005
0
1002
}
1001
GENIUS_GENOBJ-N-CHA_13
1002
{
1000
OWNER
1000
GEN
1002
}
1001
GENIUS_GENODEF_13
1002
{
1000
HIER
1070
     1
1002
}
1002
{
1000
MANEDIT
1070
     1
1002
}
1002
{
1000
NOSEL
1070
     0
1002
}
1002
{
1000
BEHIND
1070
     0
1002
}
1002
{
1000
OTHER
1070
     0
1002
}
1002
{
1000
REACTOR
1002
}
  0
POINT
  5
42CA
  8
0
 10
28.0
 20
6.812649107004856
 30
0.0
1001
GENIUS_GENOENT_13
1002
{
1000
MYREF
1005
42CA
1002
}
1002
{
1000
GRP
1005
0
1002
}
1001
GENIUS_GENOLIS_13
1002
{
1000
ENT
1005
0
1005
427D
1002
}
1001
GENIUS_GENOBJ-N-CHA_13
1002
{
1000
OWNER
1000
GEN
1002
}
1001
GENIUS_GENODEF_13
1002
{
1000
HIER
1070
     1
1002
}
1002
{
1000
MANEDIT
1070
     1
1002
}
1002
{
1000
NOSEL
1070
     0
1002
}
1002
{
1000
BEHIND
1070
     0
1002
}
1002
{
1000
OTHER
1070
     0
1002
}
1002
{
1000
REACTOR
1002
}
  0
LINE
  5
42CB
  8
240
  6
CONTINUOUS
 10
0.0
 20
-15.6334999999996
 30
0.0
 11
0.3000000000009777
 21
-15.33350000000098
 31
0.0
  0
ARC
  5
42CC
  8
240
  6
CONTINUOUS
 10
5.499999999998975
 20
-16.333499999999589
 30
0.0
 40
1.0
 50
0.0
 51
90.0
1001
GENIUS_GENODEF_13
1002
{
1000
HIER
1070
     0
1002
}
1002
{
1000
MANEDIT
1070
     0
1002
}
1002
{
1000
NOSEL
1070
     0
1002
}
1002
{
1000
BEHIND
1070
     0
1002
}
1002
{
1000
OTHER
1070
     0
1002
}
1002
{
1000
REACTOR
1002
}
1001
GENIUS_GENOBJ-N-FIL_13
1002
{
1000
OWNER
1000
GEN
1002
}
  0
LINE
  5
42CD
  8
241
  6
CONTINUOUS
 10
0.0
 20
-15.6334999999996
 30
0.0
 11
0.0
 21
15.63349999999966
 31
0.0
  0
LINE
  5
42CF
  8
240
  6
CONTINUOUS
 10
0.2999999999996135
 20
-15.33349999999959
 30
0.0
 11
5.499999999998975
 21
-15.33349999999959
 31
0.0
  0
LINE
  5
42D0
  8
240
  6
CONTINUOUS
 10
-0.0000000000002274
 20
15.63350000000017
 30
0.0
 11
0.3000000000007503
 21
15.33350000000155
 31
0.0
  0
ARC
  5
42D1
  8
240
  6
CONTINUOUS
 10
5.4999999999987468
 20
16.333500000000281
 30
0.0
 40
1.0
 50
270.0
 51
0.0
1001
GENIUS_GENODEF_13
1002
{
1000
HIER
1070
     0
1002
}
1002
{
1000
MANEDIT
1070
     0
1002
}
1002
{
1000
NOSEL
1070
     0
1002
}
1002
{
1000
BEHIND
1070
     0
1002
}
1002
{
1000
OTHER
1070
     0
1002
}
1002
{
1000
REACTOR
1002
}
1001
GENIUS_GENOBJ-N-FIL_13
1002
{
1000
OWNER
1000
GEN
1002
}
  0
LINE
  5
42D2
  8
240
  6
CONTINUOUS
 10
0.2999999999992724
 20
15.333500000000161
 30
0.0
 11
5.4999999999987468
 21
15.333500000000271
 31
0.0
  0
LINE
  5
42D4
  8
243
  6
HIDDEN2
 10
-89.300000000000026
 20
-5.999999999999968
 30
0.0
 11
-90.299999999999983
 21
-6.999999999999968
 31
0.0
1001
GENIUS_GENFIL_13
1070
     0
1040
1.0
1040
1.0
1040
0.9999999999999715
1040
45.0
1000
~T
1001
GENIUS_GENOREF_13
1005
42F6
  0
LINE
  5
42D5
  8
243
  6
HIDDEN2
 10
-100.5679491924311
 20
-8.499999999999968
 30
0.0
 11
-90.299999999999983
 21
-8.499999999999968
 31
0.0
  0
LINE
  5
42D7
  8
243
  6
HIDDEN2
 10
-42.300000000000011
 20
-5.999999999999968
 30
0.0
 11
-42.300000000000011
 21
6.000000000000032
 31
0.0
  0
LINE
  5
42D8
  8
243
  6
HIDDEN2
 10
-42.300000000000011
 20
-5.999999999999968
 30
0.0
 11
-38.835898384861991
 21
0.000000000000032
 31
0.0
  0
LINE
  5
42D9
  8
244
  6
HIDDEN2
 10
-52.299999999999933
 20
-6.999999999999968
 30
0.0
 11
-50.567949192431001
 21
-5.999999999999968
 31
0.0
  0
LINE
  5
42DB
  8
244
  6
HIDDEN2
 10
-90.299999999999983
 20
-6.999999999999968
 30
0.0
 11
-52.299999999999933
 21
-6.999999999999968
 31
0.0
  0
LINE
  5
42DC
  8
243
  6
HIDDEN2
 10
-89.300000000000026
 20
-5.999999999999968
 30
0.0
 11
-42.300000000000011
 21
-5.999999999999968
 31
0.0
  0
ARC
  5
42DD
  8
240
  6
CONTINUOUS
 10
28.499999999999432
 20
-22.499999999999972
 30
0.0
 40
1.0
 50
0.0
 51
90.000000000000057
1001
GENIUS_GENOBJ-N-FIL_13
1002
{
1000
OWNER
1000
GEN
1002
}
1001
GENIUS_GENODEF_13
1002
{
1000
HIER
1070
     0
1002
}
1002
{
1000
MANEDIT
1070
     0
1002
}
1002
{
1000
NOSEL
1070
     0
1002
}
1002
{
1000
BEHIND
1070
     0
1002
}
1002
{
1000
OTHER
1070
     0
1002
}
1002
{
1000
REACTOR
1002
}
  0
LINE
  5
42DE
  8
243
  6
HIDDEN2
 10
-102.3
 20
-10.49999999999997
 30
0.0
 11
-101.43397459621551
 21
-8.999999999999968
 31
0.0
  0
LINE
  5
42DF
  8
243
  6
HIDDEN2
 10
-101.43397459621551
 20
-8.999999999999968
 30
0.0
 11
-100.5679491924311
 21
-8.499999999999968
 31
0.0
  0
LINE
  5
42E0
  8
243
  6
HIDDEN2
 10
-90.299999999999983
 20
0.000000000000032
 30
0.0
 11
-90.299999999999983
 21
-8.499999999999968
 31
0.0
  0
LINE
  5
42E1
  8
243
  6
HIDDEN2
 10
-52.299999999999933
 20
-6.999999999999968
 30
0.0
 11
-52.299999999999933
 21
7.0000000000000311
 31
0.0
  0
LINE
  5
42E2
  8
243
  6
HIDDEN2
 10
-89.300000000000026
 20
-2.999999999999968
 30
0.0
 11
-89.300000000000026
 21
-5.999999999999968
 31
0.0
  0
LINE
  5
42E4
  8
241
  6
CONTINUOUS
 10
6.4999999999994307
 20
14.36140661634508
 30
0.0
 11
22.499999999999488
 21
14.36140661634508
 31
0.0
  0
LINE
  5
42E5
  8
242
  6
CONTINUOUS
 10
22.499999999999488
 20
14.36140661634508
 30
0.0
 11
6.4999999999994307
 21
-14.36140661634502
 31
0.0
  0
LINE
  5
42E8
  8
243
  6
HIDDEN2
 10
-100.5679491924311
 20
-8.499999999999968
 30
0.0
 11
-100.5679491924311
 21
0.0000000000000622
 31
0.0
  0
LINE
  5
42E9
  8
240
  6
CONTINUOUS
 10
29.499999999999432
 20
-28.999999999999879
 30
0.0
 11
29.499999999999432
 21
-22.499999999999972
 31
0.0
  0
LINE
  5
42EF
  8
243
  6
HIDDEN2
 10
83.499999999999986
 20
-17.999999999999901
 30
0.0
 11
45.383012701892198
 21
-17.999999999999901
 31
0.0
  0
LINE
  5
42F2
  8
243
  6
HIDDEN2
 10
44.949999999999989
 20
-18.249999999999901
 30
0.0
 11
45.383012701892198
 21
-17.999999999999901
 31
0.0
  0
LINE
  5
42F4
  8
241
  6
CONTINUOUS
 10
82.5
 20
26.743949705496469
 30
0.0
 11
82.5
 21
32.000000000000092
 31
0.0
  0
LINE
  5
42F5
  8
241
  6
CONTINUOUS
 10
32.499999999999403
 20
32.000000000000092
 30
0.0
 11
32.499999999999403
 21
25.2319869799374
 31
0.0
  0
POINT
  5
42F6
  8
0
 10
28.0
 20
-21.187350892994861
 30
0.0
1001
GENIUS_GENOENT_13
1002
{
1000
MYREF
1005
42F6
1002
}
1002
{
1000
GRP
1005
0
1002
}
1001
GENIUS_GENOLIS_13
1002
{
1000
ENT
1005
0
1005
42D4
1002
}
1001
GENIUS_GENOBJ-N-CHA_13
1002
{
1000
OWNER
1000
GEN
1002
}
1001
GENIUS_GENODEF_13
1002
{
1000
HIER
1070
     1
1002
}
1002
{
1000
MANEDIT
1070
     1
1002
}
1002
{
1000
NOSEL
1070
     0
1002
}
1002
{
1000
BEHIND
1070
     0
1002
}
1002
{
1000
OTHER
1070
     0
1002
}
1002
{
1000
REACTOR
1002
}
  0
CIRCLE
  5
446B
  8
242
  6
CONTINUOUS
 10
67.5
 20
-0.000000000000016
 30
0.0
 40
5.5
  0
CIRCLE
  5
446C
  8
241
  6
CONTINUOUS
 10
67.5
 20
-0.000000000000016
 30
0.0
 40
6.0
  0
LINE
  5
446D
  8
245
  6
CENTER2
 10
67.5
 20
6.9999999999999822
 30
0.0
 11
67.5
 21
-7.0000000000000213
 31
0.0
1001
GRPNAME
1000
PASTMD1R
  0
LINE
  5
446E
  8
241
  6
CONTINUOUS
 10
64.5
 20
-1.732050810000018
 30
0.0
 11
67.5
 21
-3.4641016200000201
 31
0.0
  0
LINE
  5
446F
  8
241
  6
CONTINUOUS
 10
67.5
 20
-3.4641016200000201
 30
0.0
 11
70.5
 21
-1.732050810000018
 31
0.0
  0
LINE
  5
4470
  8
241
  6
CONTINUOUS
 10
70.5
 20
-1.732050810000018
 30
0.0
 11
70.5
 21
1.7320508099999821
 31
0.0
  0
LINE
  5
4471
  8
241
  6
CONTINUOUS
 10
70.5
 20
1.7320508099999821
 30
0.0
 11
67.5
 21
3.4641016199999841
 31
0.0
  0
LINE
  5
4472
  8
241
  6
CONTINUOUS
 10
67.5
 20
3.4641016199999841
 30
0.0
 11
64.5
 21
1.7320508099999821
 31
0.0
  0
LINE
  5
4473
  8
241
  6
CONTINUOUS
 10
64.5
 20
1.7320508099999821
 30
0.0
 11
64.5
 21
-1.732050810000018
 31
0.0
  0
LINE
  5
44B0
  8
250
  6
CONTINUOUS
 10
-46.391380197716892
 20
-24.526610168385581
 30
0.0
 11
-32.677094483431212
 21
-24.526610168385581
 31
0.0
1001
ITEMNAME
1000
LNSP2
  0
TEXT
  5
44B1
  8
241
  6
CONTINUOUS
 10
-98.0
 20
35.000000000000028
 30
0.0
 40
4.0
  1
MT4M-CKB6-84-M14
  7
YOKO
  0
LINE
  5
44B2
  8
250
  6
CONTINUOUS
 10
-54.881734198446132
 20
23.215276378274471
 30
0.0
 11
-76.593532985105725
 21
23.215276378274471
 31
0.0
  0
LINE
  5
44B3
  8
250
  6
CONTINUOUS
 10
-76.593532985105725
 20
23.215276378274471
 30
0.0
 11
-71.992048163969244
 21
9.1198984265164551
 31
0.0
  0
LINE
  5
44B4
  8
250
  6
CONTINUOUS
 10
-71.992048163969244
 20
9.1198984265164551
 30
0.0
 11
-71.299999999999983
 21
7.0000000000000311
 31
0.0
  0
LINE
  5
44B5
  8
250
  6
CONTINUOUS
 10
-72.271138085206445
 20
9.0287885576856404
 30
0.0
 11
-71.299999999999983
 21
7.0000000000000311
 31
0.0
  0
LINE
  5
44B6
  8
250
  6
CONTINUOUS
 10
-71.299999999999983
 20
7.0000000000000311
 30
0.0
 11
-71.712958242731986
 21
9.2110082953472698
 31
0.0
  0
TEXT
  5
44B7
  8
250
  6
CONTINUOUS
 10
-43.962808769145482
 20
-23.526610168385581
 30
0.0
 40
3.0
  1
MT4
  7
YOKO
1001
ITEMNAME
1000
LNSP3
  0
TEXT
  5
44B8
  8
250
  6
CONTINUOUS
 10
-75.281734198446117
 20
24.615276378274469
 30
0.0
 40
2.799999999999998
  1
M14P2.0
  7
ACJISTS
  0
LINE
  5
44B9
  8
250
  6
CONTINUOUS
 10
-51.187494309386089
 20
-16.219496848076471
 30
0.0
 11
-46.391380197716892
 21
-24.526610168385581
 31
0.0
1001
ACAD
1000
DSTYLE
1002
{
1070
    76
1070
     1
1070
    78
1070
     8
1070
   140
1040
3.0
1070
   282
1070
     1
1002
}
  0
LINE
  5
44BA
  8
250
  6
CONTINUOUS
 10
-51.509367084459292
 20
-16.405330181409809
 30
0.0
 11
-52.302494309386091
 21
-14.288260197637189
 31
0.0
  0
LINE
  5
44BB
  8
250
  6
CONTINUOUS
 10
-50.865621534312872
 20
-16.03366351474315
 30
0.0
 11
-52.302494309386091
 21
-14.288260197637189
 31
0.0
  0
LINE
  5
44BC
  8
250
  6
CONTINUOUS
 10
-52.302494309386091
 20
-14.288260197637189
 30
0.0
 11
-51.187494309386089
 21
-16.219496848076471
 31
0.0
  0
LINE
  5
44C6
  8
250
  6
CONTINUOUS
 10
-0.0000000000003325
 20
-16.13349999999993
 30
0.0
 11
-0.0000000000003341
 21
-42.812649107004972
 31
0.0
  0
LINE
  5
44CB
  8
250
  6
CONTINUOUS
 10
83.499999999999986
 20
-31.5
 30
0.0
 11
83.499999999999986
 21
-42.812649107004972
 31
0.0
  0
LINE
  5
44CD
  8
250
  6
CONTINUOUS
 10
81.269999999999982
 20
-41.812649107004972
 30
0.0
 11
2.2299999999999982
 21
-41.812649107004972
 31
0.0
  0
LINE
  5
44D1
  8
250
  6
CONTINUOUS
 10
83.0
 20
32.000000000000092
 30
0.0
 11
99.0
 21
32.000000000000071
 31
0.0
  0
LINE
  5
44D2
  8
250
  6
CONTINUOUS
 10
83.0
 20
-32.0
 30
0.0
 11
99.0
 21
-32.0
 31
0.0
  0
LINE
  5
44D3
  8
250
  6
CONTINUOUS
 10
98.0
 20
29.770000000000071
 30
0.0
 11
98.0
 21
-29.770000000000021
 31
0.0
  0
LINE
  5
44DD
  8
250
  6
CONTINUOUS
 10
-0.5
 20
15.767474596215621
 30
0.0
 11
-14.999999999999989
 21
19.652737886466898
 31
0.0
  0
LINE
  5
44DE
  8
250
  6
CONTINUOUS
 10
-0.5
 20
-15.49952540378432
 30
0.0
 11
-15.0
 21
-11.614262113533041
 31
0.0
  0
LINE
  5
44DF
  8
250
  6
CONTINUOUS
 10
-13.999999999999989
 20
17.154788694035769
 30
0.0
 11
-14.0
 21
-9.6522113059641583
 31
0.0
  0
ARC
  5
44E3
  8
240
  6
CONTINUOUS
 10
-101.2999999999987
 20
-11.49999999999997
 30
0.0
 40
1.0
 50
180.0
 51
270.0
  0
LINE
  5
44E4
  8
240
  6
CONTINUOUS
 10
-101.2999999999987
 20
-12.49999999999997
 30
0.0
 11
-94.299999999999969
 21
-12.49999999999997
 31
0.0
  0
TEXT
  5
44F3
  8
250
  6
CONTINUOUS
 10
37.083333333333343
 20
-40.812649107004972
 30
0.0
 40
2.799999999999998
  1
83.5
  0
LINE
  5
44F4
  8
250
  6
CONTINUOUS
 10
2.2299999999999982
 20
-42.184315773671642
 30
0.0
 11
-0.0000000000000016
 21
-41.812649107004972
 31
0.0
  0
LINE
  5
44F5
  8
250
  6
CONTINUOUS
 10
2.2299999999999982
 20
-41.440982440338303
 30
0.0
 11
-0.0000000000000016
 21
-41.812649107004972
 31
0.0
  0
LINE
  5
44F6
  8
250
  6
CONTINUOUS
 10
-0.0000000000000016
 20
-41.812649107004972
 30
0.0
 11
2.2299999999999982
 21
-41.812649107004972
 31
0.0
  0
LINE
  5
44F7
  8
250
  6
CONTINUOUS
 10
81.269999999999982
 20
-41.440982440338303
 30
0.0
 11
83.499999999999986
 21
-41.812649107004972
 31
0.0
  0
LINE
  5
44F8
  8
250
  6
CONTINUOUS
 10
81.269999999999982
 20
-42.184315773671642
 30
0.0
 11
83.499999999999986
 21
-41.812649107004972
 31
0.0
  0
LINE
  5
44F9
  8
250
  6
CONTINUOUS
 10
83.499999999999986
 20
-41.812649107004972
 30
0.0
 11
81.269999999999982
 21
-41.812649107004972
 31
0.0
  0
TEXT
  5
44FA
  8
250
  6
CONTINUOUS
 10
97.0
 20
-3.9999999999999498
 30
0.0
 40
2.799999999999998
  1
\U+220564
 50
90.0
  0
LINE
  5
44FB
  8
250
  6
CONTINUOUS
 10
98.371666666666684
 20
-29.770000000000021
 30
0.0
 11
98.0
 21
-32.0
 31
0.0
  0
LINE
  5
44FC
  8
250
  6
CONTINUOUS
 10
97.62833333333333
 20
-29.770000000000021
 30
0.0
 11
98.0
 21
-32.0
 31
0.0
  0
LINE
  5
44FD
  8
250
  6
CONTINUOUS
 10
98.0
 20
-32.0
 30
0.0
 11
98.0
 21
-29.770000000000021
 31
0.0
  0
LINE
  5
44FE
  8
250
  6
CONTINUOUS
 10
97.628333333333345
 20
29.770000000000071
 30
0.0
 11
98.0
 21
32.000000000000071
 31
0.0
  0
LINE
  5
44FF
  8
250
  6
CONTINUOUS
 10
98.371666666666684
 20
29.770000000000071
 30
0.0
 11
98.0
 21
32.000000000000071
 31
0.0
  0
LINE
  5
4500
  8
250
  6
CONTINUOUS
 10
98.0
 20
32.000000000000071
 30
0.0
 11
98.0
 21
29.770000000000071
 31
0.0
  0
TEXT
  5
4508
  8
250
  6
CONTINUOUS
 10
-15.0
 20
-4.8487113059641898
 30
0.0
 40
2.799999999999998
  1
\U+220531.267
 50
90.0
  0
LINE
  5
4509
  8
250
  6
CONTINUOUS
 10
-13.62833333333333
 20
-9.6522113059641583
 30
0.0
 11
-14.0
 21
-11.882211305964161
 31
0.0
  0
LINE
  5
450A
  8
250
  6
CONTINUOUS
 10
-14.371666666666661
 20
-9.6522113059641583
 30
0.0
 11
-14.0
 21
-11.882211305964161
 31
0.0
  0
LINE
  5
450B
  8
250
  6
CONTINUOUS
 10
-14.0
 20
-11.882211305964161
 30
0.0
 11
-14.0
 21
-9.6522113059641583
 31
0.0
  0
LINE
  5
450C
  8
250
  6
CONTINUOUS
 10
-14.371666666666661
 20
17.154788694035769
 30
0.0
 11
-13.999999999999989
 21
19.38478869403578
 31
0.0
  0
LINE
  5
450D
  8
250
  6
CONTINUOUS
 10
-13.62833333333332
 20
17.154788694035769
 30
0.0
 11
-13.999999999999989
 21
19.38478869403578
 31
0.0
  0
LINE
  5
450E
  8
250
  6
CONTINUOUS
 10
-13.999999999999989
 20
19.38478869403578
 30
0.0
 11
-13.999999999999989
 21
17.154788694035769
 31
0.0
  0
LINE
  5
4543
  8
250
 10
96.73134429753766
 20
-42.18780827405125
 30
0.0
 11
86.187377757869797
 21
-42.18780827405125
 31
0.0
  0
LINE
  5
4544
  8
250
 10
86.187377757869797
 20
-42.18780827405125
 30
0.0
 11
74.183137914652903
 21
-19.962101982391019
 31
0.0
  0
LINE
  5
4545
  8
250
 10
74.183137914652903
 20
-19.962101982391019
 30
0.0
 11
73.123394638808733
 21
-17.999999999999901
 31
0.0
  0
LINE
  5
4546
  8
250
 10
74.441453540003351
 20
-19.822584133947171
 30
0.0
 11
73.123394638808733
 21
-17.999999999999901
 31
0.0
  0
LINE
  5
4547
  8
250
 10
73.123394638808733
 20
-17.999999999999901
 30
0.0
 11
73.924822289302483
 21
-20.10161983083486
 31
0.0
  0
TEXT
  5
4548
  8
250
 10
86.864677630870915
 20
-40.787808274051237
 30
0.0
 40
2.799999999999998
  1
CK6
  7
ACJISTS
  0
VIEWPORT
  5
22
 67
     1
  8
0
 10
261.51769911504419
 20
148.5
 30
0.0
 40
523.0353982300885
 41
297.0
 68
     1
 69
     1
1001
ACAD
1000
MVIEW
1002
{
1070
    16
1010
0.0
1020
0.0
1030
0.0
1010
0.0
1020
0.0
1030
1.0
1040
0.0
1040
297.0
1040
261.51769911504419
1040
148.5
1040
50.0
1040
0.0
1040
0.0
1070
     0
1070
   100
1070
     1
1070
     1
1070
     0
1070
     0
1070
     0
1070
     0
1040
0.0
1040
0.0
1040
0.0
1040
1.0
1040
1.0
1040
10.0
1040
10.0
1070
     0
1002
{
1002
}
1002
}
1001
GENIUS_GENODEF_13
1002
{
1000
HIER
1070
     0
1002
}
1002
{
1000
MANEDIT
1070
     0
1002
}
1002
{
1000
NOSEL
1070
     0
1002
}
1002
{
1000
BEHIND
1070
     0
1002
}
1002
{
1000
OTHER
1070
     0
1002
}
1002
{
1000
REACTOR
1002
}
1001
GENIUS_GENOBJ-N-SDF_13
1002
{
1000
OWNER
1000
GEN
1002
}
1001
GENIUS_GENSCREG_15
1000
PF
1040
1.0
1000
DF
1040
1.0
1000
MIN
1011
0.0
1021
0.0
1031
0.0
1021
0.0
1031
0.0
1000
MAX
1011
523.0353982300885
1021
0.0
1031
0.0
1021
297.0
1031
0.0
1000
FLAGS
1070
     4
  0
ENDSEC
  0
EOF
