  0
SECTION
  2
HEADER
  9
$ACADVER
  1
AC1009
  9
$INSBASE
 10
0.0
 20
0.0
 30
0.0
  9
$EXTMIN
 10
-106.0439924314102
 20
-49.999999999999758
 30
0.0
  9
$EXTMAX
 10
92.0
 20
39.000000000000092
 30
0.0
  9
$LIMMIN
 10
0.0
 20
0.0
  9
$LIMMAX
 10
297.0
 20
210.0
  9
$ORTHOMODE
 70
     0
  9
$REGENMODE
 70
     1
  9
$FILLMODE
 70
     1
  9
$QTEXTMODE
 70
     0
  9
$MIRRTEXT
 70
     1
  9
$DRAGMODE
 70
     2
  9
$LTSCALE
 40
10.0
  9
$OSMODE
 70
     7
  9
$ATTMODE
 70
     1
  9
$TEXTSIZE
 40
3.0
  9
$TRACEWID
 40
1.0
  9
$TEXTSTYLE
  7
YOKO
  9
$CLAYER
  8
240
  9
$CELTYPE
  6
BYLAYER
  9
$CECOLOR
 62
   256
  9
$DIMSCALE
 40
1.0
  9
$DIMASZ
 40
2.2299999999999991
  9
$DIMEXO
 40
0.5
  9
$DIMDLI
 40
7.0
  9
$DIMRND
 40
0.0
  9
$DIMDLE
 40
0.0
  9
$DIMEXE
 40
1.0
  9
$DIMTP
 40
0.0
  9
$DIMTM
 40
0.01
  9
$DIMTXT
 40
2.799999999999998
  9
$DIMCEN
 40
0.0
  9
$DIMTSZ
 40
0.0
  9
$DIMTOL
 70
     0
  9
$DIMLIM
 70
     0
  9
$DIMTIH
 70
     0
  9
$DIMTOH
 70
     0
  9
$DIMSE1
 70
     0
  9
$DIMSE2
 70
     0
  9
$DIMTAD
 70
     3
  9
$DIMZIN
 70
     9
  9
$DIMBLK
  1
OPEN
  9
$DIMASO
 70
     1
  9
$DIMSHO
 70
     1
  9
$DIMPOST
  1

  9
$DIMAPOST
  1

  9
$DIMALT
 70
     0
  9
$DIMALTD
 70
     2
  9
$DIMALTF
 40
25.399999999999999
  9
$DIMLFAC
 40
1.0
  9
$DIMTOFL
 70
     1
  9
$DIMTVP
 40
0.0
  9
$DIMTIX
 70
     1
  9
$DIMSOXD
 70
     0
  9
$DIMSAH
 70
     0
  9
$DIMBLK1
  1

  9
$DIMBLK2
  1

  9
$DIMSTYLE
  2
BIGT
  9
$DIMCLRD
 70
   256
  9
$DIMCLRE
 70
   256
  9
$DIMCLRT
 70
    40
  9
$DIMTFAC
 40
1.0
  9
$DIMGAP
 40
1.0
  9
$LUNITS
 70
     2
  9
$LUPREC
 70
     6
  9
$SKETCHINC
 40
1.0
  9
$FILLETRAD
 40
0.0
  9
$AUNITS
 70
     0
  9
$AUPREC
 70
     6
  9
$MENU
  1
.
  9
$ELEVATION
 40
0.0
  9
$PELEVATION
 40
0.0
  9
$THICKNESS
 40
0.0
  9
$LIMCHECK
 70
     0
  9
$BLIPMODE
 70
     0
  9
$CHAMFERA
 40
0.2
  9
$CHAMFERB
 40
0.2
  9
$SKPOLY
 70
     0
  9
$TDCREATE
 40
2459752.6310898848
  9
$TDUPDATE
 40
2460556.4756589821
  9
$TDINDWG
 40
0.0131452662
  9
$TDUSRTIMER
 40
0.0131452083
  9
$USRTIMER
 70
     1
  9
$ANGBASE
 50
0.0
  9
$ANGDIR
 70
     0
  9
$PDMODE
 70
     1
  9
$PDSIZE
 40
0.0
  9
$PLINEWID
 40
0.0
  9
$COORDS
 70
     1
  9
$SPLFRAME
 70
     0
  9
$SPLINETYPE
 70
     6
  9
$SPLINESEGS
 70
     4
  9
$ATTDIA
 70
     1
  9
$ATTREQ
 70
     1
  9
$HANDLING
 70
     1
  9
$HANDSEED
  5
48EF
  9
$SURFTAB1
 70
     6
  9
$SURFTAB2
 70
     6
  9
$SURFTYPE
 70
     6
  9
$SURFU
 70
     6
  9
$SURFV
 70
     6
  9
$UCSNAME
  2

  9
$UCSORG
 10
0.0
 20
0.0
 30
0.0
  9
$UCSXDIR
 10
1.0
 20
0.0
 30
0.0
  9
$UCSYDIR
 10
0.0
 20
1.0
 30
0.0
  9
$PUCSNAME
  2

  9
$PUCSORG
 10
0.0
 20
0.0
 30
0.0
  9
$PUCSXDIR
 10
1.0
 20
0.0
 30
0.0
  9
$PUCSYDIR
 10
0.0
 20
1.0
 30
0.0
  9
$USERI1
 70
     1
  9
$USERI2
 70
     0
  9
$USERI3
 70
     0
  9
$USERI4
 70
     0
  9
$USERI5
 70
     0
  9
$USERR1
 40
0.0
  9
$USERR2
 40
0.0
  9
$USERR3
 40
0.0
  9
$USERR4
 40
0.0
  9
$USERR5
 40
0.0
  9
$WORLDVIEW
 70
     1
  9
$SHADEDGE
 70
     3
  9
$SHADEDIF
 70
    70
  9
$TILEMODE
 70
     1
  9
$MAXACTVP
 70
    16
  9
$PLIMCHECK
 70
     0
  9
$PEXTMIN
 10
1.0000000000000000E+020
 20
1.0000000000000000E+020
 30
1.0000000000000000E+020
  9
$PEXTMAX
 10
-1.0000000000000000E+020
 20
-1.0000000000000000E+020
 30
-1.0000000000000000E+020
  9
$PLIMMIN
 10
0.0
 20
0.0
  9
$PLIMMAX
 10
420.0
 20
297.0
  9
$UNITMODE
 70
     0
  9
$VISRETAIN
 70
     1
  9
$PLINEGEN
 70
     0
  9
$PSLTSCALE
 70
     1
  0
ENDSEC
  0
SECTION
  2
TABLES
  0
TABLE
  2
VPORT
 70
     1
  0
VPORT
  2
*ACTIVE
 70
     0
 10
0.0
 20
0.0
 11
1.0
 21
1.0
 12
-10.370699763685989
 22
-12.223488720262051
 13
0.0
 23
0.0
 14
7.0
 24
7.0
 15
7.0
 25
7.0
 16
0.0
 26
0.0
 36
1.0
 17
0.0
 27
0.0
 37
0.0
 40
234.80218151752371
 41
1.495118549511854
 42
50.0
 43
0.0
 44
0.0
 50
0.0
 51
0.0
 71
     0
 72
  2000
 73
     1
 74
     0
 75
     0
 76
     1
 77
     0
 78
     0
  0
ENDTAB
  0
TABLE
  2
LTYPE
 70
    21
  0
LTYPE
  2
CONTINUOUS
 70
     0
  3
Solid line
 72
    65
 73
     0
 40
0.0
  0
LTYPE
  2
CENTER2
 70
     0
  3
___ _ ___ _ ___ _ ___ _ ___ _ ___ _ ___ _ ___ _
 72
    65
 73
     4
 40
1.125
 49
0.75
 49
-0.125
 49
0.125
 49
-0.125
  0
LTYPE
  2
HIDDEN2
 70
     0
  3
_ _ _ _ _ _ _ _ _ _ _ _ _ _ _ _ _ _ _ _ _ _ _ _
 72
    65
 73
     2
 40
0.1875
 49
0.125
 49
-0.0625
  0
LTYPE
  2
PHANTOM2
 70
     0
  3
___ _ _ ___ _ _ ___ _ _ ___ _ _ ___ _ _ ___ _ _
 72
    65
 73
     6
 40
1.25
 49
0.625
 49
-0.125
 49
0.125
 49
-0.125
 49
0.125
 49
-0.125
  0
LTYPE
  2
AMCONSTR
 70
     0
  3
_______________________
 72
    65
 73
     2
 40
9999.0
 49
9999.0
 49
0.0
  0
LTYPE
  2
HIDDEN
 70
     0
  3
Hidden __ __ __ __ __ __ __ __ __ __ __ __ __ _
 72
    65
 73
     2
 40
0.375
 49
0.25
 49
-0.125
  0
LTYPE
  2
CENTER
 70
     0
  3
Center ____ _ ____ _ ____ _ ____ _ ____ _ ____
 72
    65
 73
     4
 40
2.0
 49
1.25
 49
-0.25
 49
0.25
 49
-0.25
  0
LTYPE
  2
AMZIGZAG2
 70
     0
  3
/\/-/\/-/\/-/\/-/\/-/\/
 72
    65
 73
     2
 40
0.4401
 49
0.0001
 49
-0.4400000000000001
  0
LTYPE
  2
ACANSTGB
 70
     0
  3
__ . . __ . .
 72
    65
 73
     6
 40
0.35433070866
 49
0.15748031496
 49
-0.03937007874
 49
0.03937007874
 49
-0.03937007874
 49
0.03937007874
 49
-0.03937007874
  0
LTYPE
  2
ACANSTGL
 70
     0
  3
_ _ _ _ _
 72
    65
 73
     2
 40
0.11811023622
 49
0.07874015748
 49
-0.03937007874
  0
ENDTAB
  0
TABLE
  2
LAYER
 70
     9
  0
LAYER
  2
0
 70
     0
 62
     7
  6
CONTINUOUS
  0
LAYER
  2
240
 70
     0
 62
     4
  6
CONTINUOUS
  0
LAYER
  2
DEFPOINTS
 70
     0
 62
     7
  6
CONTINUOUS
  0
LAYER
  2
245
 70
     0
 62
     2
  6
CENTER2
  0
LAYER
  2
241
 70
     0
 62
   211
  6
CONTINUOUS
  0
LAYER
  2
242
 70
     0
 62
     3
  6
CONTINUOUS
  0
LAYER
  2
243
 70
     0
 62
   211
  6
HIDDEN2
  0
LAYER
  2
250
 70
     0
 62
     3
  6
CONTINUOUS
  0
LAYER
  2
244
 70
     0
 62
     3
  6
HIDDEN2
  0
ENDTAB
  0
TABLE
  2
STYLE
 70
    10
  0
STYLE
  2
STANDARD
 70
     0
 40
0.0
 41
1.0
 50
0.0
 71
     0
 42
3.0
  3
romans.shx
  4
extfont.shx
  0
STYLE
  2
YOKO
 70
     0
 40
0.0
 41
1.0
 50
0.0
 71
     0
 42
3.0
  3
romans.shx
  4
extfont.shx
  0
STYLE
  2
ACJISTS
 70
     0
 40
1.0
 41
1.0
 50
0.0
 71
     0
 42
3.0
  3
amgdt.shx
  4
extfont.shx
  0
STYLE
  2

 70
     1
 40
0.0
 41
1.0
 50
0.0
 71
     0
 42
3.0
  3
genltshp.shx
  4

  0
STYLE
  2
ACANSGDT
 70
     0
 40
0.0
 41
1.0
 50
0.0
 71
     0
 42
3.0
  3
amgdt.shx
  4

  0
ENDTAB
  0
TABLE
  2
VIEW
 70
     0
  0
ENDTAB
  0
TABLE
  2
UCS
 70
     0
  0
ENDTAB
  0
TABLE
  2
APPID
 70
    42
  0
APPID
  2
ACAD
 70
     0
  0
APPID
  2
ACADANNOTATIVE
 70
     0
  0
APPID
  2
GLOBAL
 70
     0
  0
APPID
  2
DETAIL
 70
     0
  0
APPID
  2
GRPNAME
 70
     0
  0
APPID
  2
GPARA
 70
     0
  0
APPID
  2
MCAD_NO_VIS
 70
     0
  0
APPID
  2
ACAD_TEMP_GRAPHIC
 70
     0
  0
APPID
  2
ACATTRIBSERVICES
 70
     0
  0
APPID
  2
GENIUS_GENSCREG_15
 70
     0
  0
APPID
  2
GENIUS_GENODEF_13
 70
     0
  0
APPID
  2
GENIUS_GENOBJ-N-SDF_13
 70
     0
  0
APPID
  2
GENIUS_GENREC_14
 70
     0
  0
APPID
  2
GENIUS_GENOBJ-N-REC_13
 70
     0
  0
APPID
  2
GENIUS_GENDIMSH_14
 70
     0
  0
APPID
  2
GENIUS_GENOBJ-N-DIM_13
 70
     0
  0
APPID
  2
GENIUS_GENDIM_13
 70
     0
  0
APPID
  2
GENIUS_GENDTOL_13
 70
     0
  0
APPID
  2
GENIUS_GENOLIS_13
 70
     0
  0
APPID
  2
GENIUS_GENOENT_13
 70
     0
  0
APPID
  2
GENIUS_GENOBJ-F-FEM_13
 70
     0
  0
APPID
  2
GENIUS_GENOREF_13
 70
     0
  0
APPID
  2
GENIUS_GEFFEM_13
 70
     0
  0
APPID
  2
GENIUS_GEFFEMP_13
 70
     0
  0
APPID
  2
AD_DRAW
 70
     0
  0
APPID
  2
DESIGNERASSEMBLIES
 70
     0
  0
APPID
  2
ACADM_DIM_EDIT
 70
     0
  0
APPID
  2
AMDT_DM_ADJ
 70
     0
  0
APPID
  2
ITEMNAME
 70
     0
  0
APPID
  2
GENIUS_GENOBJ-N-FIL_13
 70
     0
  0
APPID
  2
GENIUS_GENFIL_13
 70
     0
  0
APPID
  2
GENIUS_GENOBJ-N-CHA_13
 70
     0
  0
APPID
  2
ACAD_NAV_VCDISPLAY
 70
     0
  0
APPID
  2
GENIUS_GENOBJ-N-RSBK_13
 70
     0
  0
APPID
  2
GENIUS_GENOBJ-N-LIB_13
 70
     0
  0
APPID
  2
GENIUS_GENSCALE_13
 70
     0
  0
APPID
  2
ACAD_PSEXT
 70
     0
  0
APPID
  2
ACAD_DSTYLE_DIMINSPECT
 70
     0
  0
APPID
  2
ACAD_EXEMPT_FROM_CAD_STANDARDS
 70
     0
  0
APPID
  2
ACAD_MLEADERVER
 70
     0
  0
APPID
  2
ACAD_DSTYLE_DIMJAG
 70
     0
  0
APPID
  2
ACAD_DSTYLE_DIMBREAK
 70
     0
  0
ENDTAB
  0
TABLE
  2
DIMSTYLE
 70
    31
  0
DIMSTYLE
  2
STANDARD
 70
     0
  3

  4

  5

  6

  7

 40
1.0
 41
0.18
 42
0.0625
 43
0.38
 44
0.18
 45
0.0
 46
0.0
 47
0.0
 48
0.0
140
0.18
141
0.09
142
0.0
143
25.399999999999999
144
1.0
145
0.0
146
1.0
147
0.09
 71
     0
 72
     0
 73
     1
 74
     1
 75
     0
 76
     0
 77
     0
 78
     0
170
     0
171
     2
172
     0
173
     0
174
     0
175
     0
176
     0
177
     0
178
     0
  0
DIMSTYLE
  2
BIGT
 70
     0
  3

  4

  5

  6

  7

 40
1.0
 41
2.2299999999999991
 42
0.5
 43
7.0
 44
1.0
 45
0.0
 46
0.0
 47
0.0
 48
0.01
140
2.799999999999998
141
0.0
142
0.0
143
25.399999999999999
144
1.0
145
0.0
146
1.0
147
1.0
 71
     0
 72
     0
 73
     0
 74
     0
 75
     0
 76
     0
 77
     3
 78
     9
170
     0
171
     2
172
     1
173
     0
174
     1
175
     0
176
   256
177
   256
178
    40
  0
DIMSTYLE
  2
AM_ANSI
 70
     0
  3

  4
mm
  5

  6

  7

 40
1.0
 41
0.12
 42
0.05
 43
0.5
 44
0.1
 45
0.0
 46
0.0
 47
0.1
 48
0.1
140
0.12
141
0.0
142
0.0
143
25.399999999999999
144
1.0
145
0.0
146
0.71
147
0.06
 71
     0
 72
     0
 73
     1
 74
     1
 75
     0
 76
     0
 77
     0
 78
     7
170
     0
171
     2
172
     0
173
     0
174
     0
175
     0
176
   256
177
   256
178
     2
  0
DIMSTYLE
  2
AM_ANSI$3
 70
     0
  3

  4
mm
  5

  6

  7

 40
1.0
 41
0.12
 42
0.05
 43
0.5
 44
0.1
 45
0.0
 46
0.0
 47
0.1
 48
0.1
140
0.12
141
0.0
142
0.0
143
25.399999999999999
144
1.0
145
0.0
146
0.71
147
0.06
 71
     0
 72
     0
 73
     1
 74
     1
 75
     0
 76
     0
 77
     0
 78
     7
170
     0
171
     2
172
     0
173
     0
174
     0
175
     0
176
   256
177
   256
178
     2
  0
DIMSTYLE
  2
AM_ANSI$4
 70
     0
  3

  4
mm
  5

  6

  7

 40
1.0
 41
0.12
 42
0.05
 43
0.5
 44
0.1
 45
0.0
 46
0.0
 47
0.1
 48
0.1
140
0.12
141
0.0
142
0.0
143
25.399999999999999
144
1.0
145
0.0
146
0.71
147
0.06
 71
     0
 72
     0
 73
     1
 74
     1
 75
     0
 76
     0
 77
     0
 78
     7
170
     0
171
     2
172
     0
173
     0
174
     0
175
     0
176
   256
177
   256
178
     2
  0
DIMSTYLE
  2
AM_ANSI$7
 70
     0
  3

  4
mm
  5

  6

  7

 40
1.0
 41
0.12
 42
0.05
 43
0.5
 44
0.1
 45
0.0
 46
0.0
 47
0.1
 48
0.1
140
0.12
141
0.0
142
0.0
143
25.399999999999999
144
1.0
145
0.0
146
0.71
147
0.06
 71
     0
 72
     0
 73
     1
 74
     1
 75
     0
 76
     0
 77
     0
 78
     7
170
     0
171
     2
172
     0
173
     0
174
     0
175
     0
176
   256
177
   256
178
     2
  0
DIMSTYLE
  2
AM_ANSI$SF
 70
     0
  3

  4
mm
  5

  6

  7

 40
1.0
 41
0.12
 42
0.05
 43
0.5
 44
0.1
 45
0.0
 46
0.0
 47
0.1
 48
0.1
140
0.12
141
0.0
142
0.0
143
25.399999999999999
144
1.0
145
0.0
146
0.71
147
0.06
 71
     0
 72
     0
 73
     1
 74
     1
 75
     1
 76
     1
 77
     0
 78
     7
170
     0
171
     2
172
     0
173
     0
174
     0
175
     0
176
   256
177
   256
178
     2
  0
DIMSTYLE
  2
AM_ANSI$SH
 70
     0
  3

  4
mm
  5

  6
GENAXEH
  7

 40
1.0
 41
0.12
 42
0.05
 43
0.5
 44
0.1
 45
0.0
 46
0.0
 47
0.1
 48
0.1
140
0.12
141
0.0
142
0.0
143
25.399999999999999
144
1.0
145
0.0
146
0.71
147
0.06
 71
     0
 72
     0
 73
     1
 74
     1
 75
     1
 76
     1
 77
     0
 78
     7
170
     0
171
     2
172
     0
173
     1
174
     0
175
     0
176
   256
177
   256
178
     2
  0
ENDTAB
  0
ENDSEC
  0
SECTION
  2
BLOCKS
  0
BLOCK
  8
0
  2
$MODEL_SPACE
 70
     0
 10
0.0
 20
0.0
 30
0.0
  3
$MODEL_SPACE
  1

  0
ENDBLK
  5
47AC
  8
0
  0
BLOCK
 67
     1
  8
0
  2
$PAPER_SPACE
 70
     0
 10
0.0
 20
0.0
 30
0.0
  3
$PAPER_SPACE
  1

  0
ENDBLK
  5
47A8
 67
     1
  8
0
  0
BLOCK
  8
0
  2
_OPEN
 70
     0
 10
0.0
 20
0.0
 30
0.0
  3
_OPEN
  1

  0
LINE
  5
4638
  8
0
  6
BYBLOCK
 62
     0
 10
-1.0
 20
0.1666666666666666
 30
0.0
 11
0.0
 21
0.0
 31
0.0
  0
LINE
  5
4639
  8
0
  6
BYBLOCK
 62
     0
 10
-1.0
 20
-0.1666666666666666
 30
0.0
 11
0.0
 21
0.0
 31
0.0
  0
LINE
  5
463A
  8
0
  6
BYBLOCK
 62
     0
 10
0.0
 20
0.0
 30
0.0
 11
-1.0
 21
0.0
 31
0.0
  0
ENDBLK
  5
463B
  8
0
  0
BLOCK
  8
0
  2
GENAXEH
 70
     0
 10
0.0
 20
0.0
 30
0.0
  3
GENAXEH
  1

  0
LINE
  5
4673
  8
0
 10
-1.0
 20
0.0
 30
0.0
 11
1.0
 21
0.0
 31
0.0
  0
ENDBLK
  5
4674
  8
0
  0
BLOCK
  8
0
  2
_ACMFILLEDHALF
 70
     0
 10
0.0
 20
0.0
 30
0.0
  3
_ACMFILLEDHALF
  1

  0
TRACE
  5
4871
  8
240
 62
     0
 10
-0.8
 20
0.0
 30
0.0
 11
-1.0
 21
0.166666666
 31
0.0
 12
0.0
 22
0.0
 32
0.0
 13
0.0
 23
0.0
 33
0.0
  0
LINE
  5
4872
  8
240
 62
     0
 10
-1.0
 20
0.0
 30
0.0
 11
-0.8
 21
0.0
 31
0.0
  0
ENDBLK
  5
4870
  8
0
  0
ENDSEC
  0
SECTION
  2
ENTITIES
  0
ARC
  5
4275
  8
240
  6
CONTINUOUS
 10
-101.3
 20
11.50000000000005
 30
0.0
 40
1.0
 50
90.0
 51
180.0
  0
LINE
  5
4277
  8
241
 10
-89.300000000000026
 20
6.000000000000056
 30
0.0
 11
-90.299999999999983
 21
7.000000000000056
 31
0.0
1001
GENIUS_GENFIL_13
1070
     0
1040
1.0
1040
1.0
1040
0.9999999999999715
1040
45.0
1000
~T
1001
GENIUS_GENOREF_13
1005
42C2
  0
LINE
  5
4278
  8
240
  6
CONTINUOUS
 10
-102.3
 20
-11.49999999999994
 30
0.0
 11
-102.3
 21
11.50000000000005
 31
0.0
  0
LINE
  5
4279
  8
240
  6
CONTINUOUS
 10
6.4999999999994307
 20
-16.3334999999995
 30
0.0
 11
6.4999999999994307
 21
-20.49999999999994
 31
0.0
  0
LINE
  5
427A
  8
240
  6
CONTINUOUS
 10
-93.58393083773187
 20
-13.216069162269431
 30
0.0
 11
-94.300000000001319
 21
-12.49999999999994
 31
0.0
  0
LINE
  5
427B
  8
240
  6
CONTINUOUS
 10
-93.58393083773187
 20
-13.216069162269431
 30
0.0
 11
0.0
 21
-15.633499999999909
 31
0.0
  0
LINE
  5
427C
  8
243
  6
HIDDEN2
 10
-100.5679491924311
 20
8.5000000000000568
 30
0.0
 11
-90.299999999999983
 21
8.5000000000000568
 31
0.0
  0
LINE
  5
427D
  8
241
  6
CONTINUOUS
 10
6.4999999999994307
 20
16.333500000000299
 30
0.0
 11
6.4999999999994307
 21
-16.3334999999995
 31
0.0
  0
LINE
  5
4280
  8
243
  6
HIDDEN2
 10
-42.300000000000011
 20
6.000000000000056
 30
0.0
 11
-38.835898384861991
 21
0.0000000000000568
 31
0.0
  0
LINE
  5
4281
  8
244
  6
HIDDEN2
 10
-52.299999999999933
 20
7.000000000000056
 30
0.0
 11
-50.567949192431001
 21
6.000000000000056
 31
0.0
  0
LINE
  5
4283
  8
240
  6
CONTINUOUS
 10
6.4999999999994307
 20
16.333500000000299
 30
0.0
 11
6.4999999999994307
 21
20.50000000000006
 31
0.0
  0
LINE
  5
4284
  8
241
  6
CONTINUOUS
 10
-94.299999999999983
 20
-12.49999999999994
 30
0.0
 11
-94.299999999999983
 21
12.50000000000003
 31
0.0
  0
LINE
  5
4285
  8
240
  6
CONTINUOUS
 10
-93.58393083773187
 20
13.21606916226955
 30
0.0
 11
-94.300000000001319
 21
12.50000000000005
 31
0.0
  0
LINE
  5
4286
  8
240
  6
CONTINUOUS
 10
-101.3
 20
12.50000000000005
 30
0.0
 11
-94.300000000001319
 21
12.50000000000005
 31
0.0
  0
LINE
  5
4287
  8
240
  6
CONTINUOUS
 10
-93.58393083773187
 20
13.21606916226955
 30
0.0
 11
-0.0000000000002274
 21
15.63349999999997
 31
0.0
  0
LINE
  5
428A
  8
244
  6
HIDDEN2
 10
-90.299999999999983
 20
7.000000000000056
 30
0.0
 11
-52.299999999999933
 21
7.000000000000056
 31
0.0
  0
LINE
  5
428B
  8
243
  6
HIDDEN2
 10
-89.300000000000026
 20
6.000000000000056
 30
0.0
 11
-42.300000000000011
 21
6.000000000000056
 31
0.0
  0
LINE
  5
428C
  8
240
  6
CONTINUOUS
 10
7.4999999999994298
 20
21.50000000000006
 30
0.0
 11
28.499999999999432
 21
21.50000000000006
 31
0.0
  0
ARC
  5
428D
  8
240
  6
CONTINUOUS
 10
28.499999999999432
 20
22.50000000000006
 30
0.0
 40
1.0
 50
270.0
 51
0.0
1001
GENIUS_GENOBJ-N-FIL_13
1002
{
1000
OWNER
1000
GEN
1002
}
1001
GENIUS_GENODEF_13
1002
{
1000
HIER
1070
     0
1002
}
1002
{
1000
MANEDIT
1070
     0
1002
}
1002
{
1000
NOSEL
1070
     0
1002
}
1002
{
1000
BEHIND
1070
     0
1002
}
1002
{
1000
OTHER
1070
     0
1002
}
1002
{
1000
REACTOR
1002
}
  0
ARC
  5
428E
  8
240
  6
CONTINUOUS
 10
7.4999999999994298
 20
20.50000000000006
 30
0.0
 40
1.0
 50
90.0
 51
180.0
1001
GENIUS_GENOBJ-N-FIL_13
1002
{
1000
OWNER
1000
GEN
1002
}
1001
GENIUS_GENODEF_13
1002
{
1000
HIER
1070
     0
1002
}
1002
{
1000
MANEDIT
1070
     0
1002
}
1002
{
1000
NOSEL
1070
     0
1002
}
1002
{
1000
BEHIND
1070
     0
1002
}
1002
{
1000
OTHER
1070
     0
1002
}
1002
{
1000
REACTOR
1002
}
  0
LINE
  5
428F
  8
240
  6
CONTINUOUS
 10
7.4999999999994298
 20
-21.49999999999995
 30
0.0
 11
28.499999999999432
 21
-21.49999999999995
 31
0.0
  0
ARC
  5
4290
  8
240
  6
CONTINUOUS
 10
7.4999999999994298
 20
-20.49999999999994
 30
0.0
 40
1.0
 50
180.0
 51
270.0
1001
GENIUS_GENODEF_13
1002
{
1000
HIER
1070
     0
1002
}
1002
{
1000
MANEDIT
1070
     0
1002
}
1002
{
1000
NOSEL
1070
     0
1002
}
1002
{
1000
BEHIND
1070
     0
1002
}
1002
{
1000
OTHER
1070
     0
1002
}
1002
{
1000
REACTOR
1002
}
1001
GENIUS_GENOBJ-N-FIL_13
1002
{
1000
OWNER
1000
GEN
1002
}
  0
LINE
  5
4292
  8
243
  6
HIDDEN2
 10
-102.3
 20
10.50000000000006
 30
0.0
 11
-101.43397459621551
 21
9.0000000000000568
 31
0.0
  0
LINE
  5
4293
  8
243
  6
HIDDEN2
 10
-101.43397459621551
 20
9.0000000000000568
 30
0.0
 11
-100.5679491924311
 21
8.5000000000000568
 31
0.0
  0
LINE
  5
4296
  8
243
  6
HIDDEN2
 10
-89.300000000000026
 20
3.0000000000000551
 30
0.0
 11
-89.300000000000026
 21
6.000000000000056
 31
0.0
  0
LINE
  5
4297
  8
241
  6
CONTINUOUS
 10
22.499999999999829
 20
14.36140661634559
 30
0.0
 11
22.499999999999488
 21
-14.36140661634499
 31
0.0
  0
LINE
  5
4298
  8
241
 10
6.4999999999994307
 20
0.0000000000000568
 30
0.0
 11
6.4999999999994307
 21
0.0000000000000568
 31
0.0
  0
LINE
  5
4299
  8
241
  6
CONTINUOUS
 10
6.4999999999994307
 20
-14.36140661634499
 30
0.0
 11
22.499999999999488
 21
-14.36140661634499
 31
0.0
  0
LINE
  5
429A
  8
242
 10
22.499999999999488
 20
-14.36140661634499
 30
0.0
 11
6.4999999999996039
 21
14.361406616345789
 31
0.0
  0
LINE
  5
429C
  8
245
  6
CENTER2
 10
-106.0439924314102
 20
0.0000000000000568
 30
0.0
 11
75.992870235419772
 21
0.0
 31
0.0
  0
LINE
  5
42A2
  8
240
  6
CONTINUOUS
 10
30.499999999999432
 20
-25.0
 30
0.0
 11
71.5
 21
-25.0
 31
0.0
  0
LINE
  5
42A3
  8
240
  6
CONTINUOUS
 10
29.499999999999432
 20
-24.0
 30
0.0
 11
30.499999999999432
 21
-25.0
 31
0.0
1001
GENIUS_GENFIL_13
1070
     1
1040
0.9999999999999431
1040
0.9999999999999715
1040
1.0
1040
44.99999999999919
1000
~T
1001
GENIUS_GENOREF_13
1005
42C3
  0
LINE
  5
42A4
  8
240
  6
CONTINUOUS
 10
30.499999999999432
 20
24.999999999999972
 30
0.0
 11
71.5
 21
25.0
 31
0.0
  0
LINE
  5
42A5
  8
240
  6
CONTINUOUS
 10
71.5
 20
25.0
 30
0.0
 11
72.5
 21
24.0
 31
0.0
  0
LINE
  5
42A7
  8
240
  6
CONTINUOUS
 10
71.5
 20
-25.0
 30
0.0
 11
72.5
 21
-24.0
 31
0.0
  0
LINE
  5
42A8
  8
240
  6
CONTINUOUS
 10
72.5
 20
-24.0
 30
0.0
 11
72.5
 21
24.0
 31
0.0
  0
LINE
  5
42AF
  8
243
  6
HIDDEN2
 10
72.5
 20
13.99999999999994
 30
0.0
 11
43.383012701892262
 21
14.0
 31
0.0
  0
LINE
  5
42B5
  8
241
  6
CONTINUOUS
 10
71.5
 20
-19.743949705496391
 30
0.0
 11
71.5
 21
-25.0
 31
0.0
  0
LINE
  5
42BA
  8
240
  6
CONTINUOUS
 10
29.499999999999432
 20
23.999999999999972
 30
0.0
 11
29.499999999999432
 21
22.50000000000006
 31
0.0
  0
LINE
  5
42BB
  8
240
  6
CONTINUOUS
 10
30.499999999999432
 20
24.999999999999972
 30
0.0
 11
29.499999999999432
 21
23.999999999999972
 31
0.0
1001
GENIUS_GENFIL_13
1070
     1
1040
0.9999999999999431
1040
0.9999999999999715
1040
1.0
1040
45.000000000000803
1000
~T
1001
GENIUS_GENOREF_13
1005
42C4
  0
LINE
  5
42BC
  8
240
  6
CONTINUOUS
 10
29.499999999999432
 20
-22.49999999999994
 30
0.0
 11
29.499999999999432
 21
-24.0
 31
0.0
  0
ARC
  5
42BD
  8
240
  6
CONTINUOUS
 10
28.499999999999432
 20
-22.49999999999994
 30
0.0
 40
1.0
 50
0.0
 51
90.0
1001
GENIUS_GENOBJ-N-FIL_13
1002
{
1000
OWNER
1000
GEN
1002
}
1001
GENIUS_GENODEF_13
1002
{
1000
HIER
1070
     0
1002
}
1002
{
1000
MANEDIT
1070
     0
1002
}
1002
{
1000
NOSEL
1070
     0
1002
}
1002
{
1000
BEHIND
1070
     0
1002
}
1002
{
1000
OTHER
1070
     0
1002
}
1002
{
1000
REACTOR
1002
}
  0
LINE
  5
42BE
  8
241
  6
CONTINUOUS
 10
30.499999999999432
 20
-25.0
 30
0.0
 11
30.499999999999432
 21
-20.136947777482639
 31
0.0
  0
LINE
  5
42BF
  8
241
  6
CONTINUOUS
 10
29.499999999999432
 20
-22.49999999999994
 30
0.0
 11
29.499999999999432
 21
22.50000000000006
 31
0.0
  0
POINT
  5
42C2
  8
0
 10
14.0
 20
14.0
 30
0.0
1001
GENIUS_GENOENT_13
1002
{
1000
MYREF
1005
42C2
1002
}
1002
{
1000
GRP
1005
0
1002
}
1001
GENIUS_GENOLIS_13
1002
{
1000
ENT
1005
0
1005
4277
1002
}
1001
GENIUS_GENOBJ-N-CHA_13
1002
{
1000
OWNER
1000
GEN
1002
}
1001
GENIUS_GENODEF_13
1002
{
1000
HIER
1070
     1
1002
}
1002
{
1000
MANEDIT
1070
     1
1002
}
1002
{
1000
NOSEL
1070
     0
1002
}
1002
{
1000
BEHIND
1070
     0
1002
}
1002
{
1000
OTHER
1070
     0
1002
}
1002
{
1000
REACTOR
1002
}
  0
POINT
  5
42C3
  8
0
 10
-189.0
 20
-161.0
 30
0.0
1001
GENIUS_GENOENT_13
1002
{
1000
MYREF
1005
42C3
1002
}
1002
{
1000
GRP
1005
0
1002
}
1001
GENIUS_GENOBJ-N-CHA_13
1002
{
1000
OWNER
1000
GEN
1002
}
1001
GENIUS_GENOLIS_13
1002
{
1000
ENT
1005
0
1005
42A3
1002
}
1001
GENIUS_GENODEF_13
1002
{
1000
HIER
1070
     1
1002
}
1002
{
1000
MANEDIT
1070
     0
1002
}
1002
{
1000
NOSEL
1070
     0
1002
}
1002
{
1000
BEHIND
1070
     0
1002
}
1002
{
1000
OTHER
1070
     0
1002
}
1002
{
1000
REACTOR
1002
}
  0
POINT
  5
42C4
  8
0
 10
-189.0
 20
-161.0
 30
0.0
1001
GENIUS_GENOLIS_13
1002
{
1000
ENT
1005
0
1005
42BB
1002
}
1001
GENIUS_GENOENT_13
1002
{
1000
MYREF
1005
42C4
1002
}
1002
{
1000
GRP
1005
0
1002
}
1001
GENIUS_GENOBJ-N-CHA_13
1002
{
1000
OWNER
1000
GEN
1002
}
1001
GENIUS_GENODEF_13
1002
{
1000
HIER
1070
     1
1002
}
1002
{
1000
MANEDIT
1070
     1
1002
}
1002
{
1000
NOSEL
1070
     0
1002
}
1002
{
1000
BEHIND
1070
     0
1002
}
1002
{
1000
OTHER
1070
     0
1002
}
1002
{
1000
REACTOR
1002
}
  0
LINE
  5
43C5
  8
240
  6
CONTINUOUS
 10
0.0
 20
-15.63349999999957
 30
0.0
 11
0.3000000000009777
 21
-15.33350000000094
 31
0.0
  0
ARC
  5
43C6
  8
240
  6
CONTINUOUS
 10
5.499999999998975
 20
-16.33349999999956
 30
0.0
 40
1.0
 50
0.0
 51
90.0
1001
GENIUS_GENODEF_13
1002
{
1000
HIER
1070
     0
1002
}
1002
{
1000
MANEDIT
1070
     0
1002
}
1002
{
1000
NOSEL
1070
     0
1002
}
1002
{
1000
BEHIND
1070
     0
1002
}
1002
{
1000
OTHER
1070
     0
1002
}
1002
{
1000
REACTOR
1002
}
1001
GENIUS_GENOBJ-N-FIL_13
1002
{
1000
OWNER
1000
GEN
1002
}
  0
LINE
  5
43C7
  8
241
  6
CONTINUOUS
 10
0.0
 20
-15.63349999999957
 30
0.0
 11
0.0
 21
15.63349999999998
 31
0.0
  0
LINE
  5
43C9
  8
240
  6
CONTINUOUS
 10
0.2999999999996135
 20
-15.33349999999956
 30
0.0
 11
5.499999999998975
 21
-15.33349999999956
 31
0.0
  0
LINE
  5
43CA
  8
240
  6
CONTINUOUS
 10
-0.0000000000002274
 20
15.6335000000002
 30
0.0
 11
0.3000000000007503
 21
15.33350000000158
 31
0.0
  0
ARC
  5
43CB
  8
240
  6
CONTINUOUS
 10
5.4999999999987477
 20
16.333500000000299
 30
0.0
 40
1.0
 50
270.0
 51
0.0
1001
GENIUS_GENODEF_13
1002
{
1000
HIER
1070
     0
1002
}
1002
{
1000
MANEDIT
1070
     0
1002
}
1002
{
1000
NOSEL
1070
     0
1002
}
1002
{
1000
BEHIND
1070
     0
1002
}
1002
{
1000
OTHER
1070
     0
1002
}
1002
{
1000
REACTOR
1002
}
1001
GENIUS_GENOBJ-N-FIL_13
1002
{
1000
OWNER
1000
GEN
1002
}
  0
LINE
  5
43CC
  8
240
  6
CONTINUOUS
 10
0.2999999999992724
 20
15.33350000000018
 30
0.0
 11
5.4999999999987477
 21
15.333500000000299
 31
0.0
  0
LINE
  5
43CF
  8
241
  6
CONTINUOUS
 10
6.499999999999603
 20
14.361406616345789
 30
0.0
 11
22.499999999999659
 21
14.36140661634559
 31
0.0
  0
LINE
  5
43D0
  8
242
 10
22.499999999999659
 20
14.36140661634559
 30
0.0
 11
6.4999999999994307
 21
-14.36140661634499
 31
0.0
  0
LINE
  5
43D2
  8
241
  6
CONTINUOUS
 10
71.500000000000242
 20
19.743949705496401
 30
0.0
 11
71.500000000000298
 21
25.000000000000011
 31
0.0
  0
LINE
  5
43D3
  8
241
  6
CONTINUOUS
 10
30.499999999999741
 20
25.000000000000512
 30
0.0
 11
30.49999999999967
 21
20.136947777483162
 31
0.0
  0
LINE
  5
43D4
  8
243
  6
HIDDEN2
 10
-89.300000000000026
 20
-5.9999999999999467
 30
0.0
 11
-90.300000000000026
 21
-6.9999999999999458
 31
0.0
1001
GENIUS_GENFIL_13
1070
     0
1040
1.0
1040
1.0
1040
0.9999999999999715
1040
45.0
1000
~T
1001
GENIUS_GENOREF_13
1005
43E0
  0
LINE
  5
43D5
  8
243
  6
HIDDEN2
 10
-100.5679491924311
 20
-8.4999999999999396
 30
0.0
 11
-90.300000000000026
 21
-8.4999999999999432
 31
0.0
  0
LINE
  5
43D6
  8
243
  6
HIDDEN2
 10
-42.300000000000011
 20
-5.9999999999999947
 30
0.0
 11
-42.29999999999999
 21
6.000000000000056
 31
0.0
  0
LINE
  5
43D7
  8
243
  6
HIDDEN2
 10
-42.300000000000011
 20
-5.9999999999999947
 30
0.0
 11
-38.835898384861991
 21
0.0000000000000005
 31
0.0
  0
LINE
  5
43D8
  8
244
  6
HIDDEN2
 10
-52.299999999999962
 20
-6.999999999999984
 30
0.0
 11
-50.567949192431008
 21
-5.9999999999999858
 31
0.0
  0
LINE
  5
43D9
  8
244
  6
HIDDEN2
 10
-90.300000000000026
 20
-6.9999999999999458
 30
0.0
 11
-52.299999999999962
 21
-6.999999999999984
 31
0.0
  0
LINE
  5
43DA
  8
243
  6
HIDDEN2
 10
-89.300000000000026
 20
-5.9999999999999467
 30
0.0
 11
-42.300000000000011
 21
-5.9999999999999947
 31
0.0
  0
LINE
  5
43DB
  8
243
  6
HIDDEN2
 10
-101.43397459621551
 20
-8.9999999999999361
 30
0.0
 11
-100.5679491924311
 21
-8.4999999999999396
 31
0.0
  0
LINE
  5
43DC
  8
243
  6
HIDDEN2
 10
-90.299999999999983
 20
8.5000000000000568
 30
0.0
 11
-90.300000000000026
 21
-8.4999999999999432
 31
0.0
  0
LINE
  5
43DD
  8
243
  6
HIDDEN2
 10
-52.299999999999962
 20
-6.999999999999984
 30
0.0
 11
-52.299999999999933
 21
7.000000000000056
 31
0.0
  0
LINE
  5
43DE
  8
243
  6
HIDDEN2
 10
-89.300000000000026
 20
-2.999999999999948
 30
0.0
 11
-89.300000000000026
 21
-5.9999999999999467
 31
0.0
  0
LINE
  5
43DF
  8
243
  6
HIDDEN2
 10
-100.5679491924311
 20
-8.4999999999999396
 30
0.0
 11
-100.5679491924311
 21
8.5000000000000551
 31
0.0
  0
POINT
  5
43E0
  8
0
 10
13.99999999999998
 20
-13.999999999999989
 30
0.0
1001
GENIUS_GENOENT_13
1002
{
1000
MYREF
1005
43E0
1002
}
1002
{
1000
GRP
1005
0
1002
}
1001
GENIUS_GENOLIS_13
1002
{
1000
ENT
1005
0
1005
43D4
1002
}
1001
GENIUS_GENOBJ-N-CHA_13
1002
{
1000
OWNER
1000
GEN
1002
}
1001
GENIUS_GENODEF_13
1002
{
1000
HIER
1070
     1
1002
}
1002
{
1000
MANEDIT
1070
     1
1002
}
1002
{
1000
NOSEL
1070
     0
1002
}
1002
{
1000
BEHIND
1070
     0
1002
}
1002
{
1000
OTHER
1070
     0
1002
}
1002
{
1000
REACTOR
1002
}
  0
LINE
  5
43E2
  8
243
  6
HIDDEN2
 10
-102.3
 20
-10.49999999999995
 30
0.0
 11
-101.43397459621551
 21
-8.9999999999999485
 31
0.0
  0
LINE
  5
43E6
  8
243
  6
HIDDEN2
 10
72.5
 20
-13.99999999999994
 30
0.0
 11
43.383012701892262
 21
-14.0
 31
0.0
  0
LINE
  5
4481
  8
250
 10
-46.391380197716892
 20
-24.526610168385581
 30
0.0
 11
-32.677094483431212
 21
-24.526610168385581
 31
0.0
1001
ITEMNAME
1000
LNSP2
  0
TEXT
  5
4482
  8
241
 10
-98.0
 20
35.00000000000005
 30
0.0
 40
4.0
  1
MT4M-CKB5-73-M14
  7
YOKO
  0
LINE
  5
4483
  8
250
 10
-54.881734198446132
 20
23.215276378274499
 30
0.0
 11
-76.593532985105725
 21
23.215276378274499
 31
0.0
  0
LINE
  5
4484
  8
250
 10
-76.593532985105725
 20
23.215276378274499
 30
0.0
 11
-71.992048163969244
 21
9.1198984265164764
 31
0.0
  0
LINE
  5
4485
  8
250
 10
-71.992048163969244
 20
9.1198984265164764
 30
0.0
 11
-71.299999999999983
 21
7.0000000000000542
 31
0.0
  0
LINE
  5
4486
  8
250
 10
-72.271138085206445
 20
9.0287885576856635
 30
0.0
 11
-71.299999999999983
 21
7.0000000000000542
 31
0.0
  0
LINE
  5
4487
  8
250
 10
-71.299999999999983
 20
7.0000000000000542
 30
0.0
 11
-71.712958242731986
 21
9.2110082953472912
 31
0.0
  0
TEXT
  5
4488
  8
250
 10
-43.962808769145482
 20
-23.52661016838556
 30
0.0
 40
3.0
  1
MT4
  7
YOKO
1001
ITEMNAME
1000
LNSP3
  0
TEXT
  5
4489
  8
250
 10
-75.281734198446117
 20
24.615276378274501
 30
0.0
 40
2.799999999999998
  1
M14P2.0
  7
ACJISTS
  0
LINE
  5
448A
  8
250
 10
-51.187494309386089
 20
-16.21949684807646
 30
0.0
 11
-46.391380197716892
 21
-24.526610168385581
 31
0.0
1001
ACAD
1000
DSTYLE
1002
{
1070
    76
1070
     1
1070
    78
1070
     8
1070
   140
1040
3.0
1070
   282
1070
     1
1002
}
  0
LINE
  5
448B
  8
250
 10
-51.509367084459292
 20
-16.405330181409791
 30
0.0
 11
-52.302494309386091
 21
-14.288260197637159
 31
0.0
  0
LINE
  5
448C
  8
250
 10
-50.865621534312872
 20
-16.033663514743122
 30
0.0
 11
-52.302494309386091
 21
-14.288260197637159
 31
0.0
  0
LINE
  5
448D
  8
250
 10
-52.302494309386091
 20
-14.288260197637159
 30
0.0
 11
-51.187494309386089
 21
-16.21949684807646
 31
0.0
  0
CIRCLE
  5
44FF
  8
242
  6
CONTINUOUS
 10
59.5
 20
0.0
 30
0.0
 40
4.5
  0
CIRCLE
  5
4500
  8
241
  6
CONTINUOUS
 10
59.5
 20
0.0
 30
0.0
 40
5.0
  0
LINE
  5
4501
  8
245
  6
CENTER2
 10
59.5
 20
6.0
 30
0.0
 11
59.5
 21
-6.0
 31
0.0
1001
GRPNAME
1000
PASTMD1U
  0
LINE
  5
4502
  8
241
  6
CONTINUOUS
 10
57.0
 20
-1.443375669999998
 30
0.0
 11
59.5
 21
-2.8867513499999991
 31
0.0
  0
LINE
  5
4503
  8
241
  6
CONTINUOUS
 10
59.5
 20
-2.8867513499999991
 30
0.0
 11
62.0
 21
-1.443375669999998
 31
0.0
  0
LINE
  5
4504
  8
241
  6
CONTINUOUS
 10
62.0
 20
-1.443375669999998
 30
0.0
 11
62.0
 21
1.443375669999998
 31
0.0
  0
LINE
  5
4505
  8
241
  6
CONTINUOUS
 10
62.0
 20
1.443375669999998
 30
0.0
 11
59.5
 21
2.8867513499999991
 31
0.0
  0
LINE
  5
4506
  8
241
  6
CONTINUOUS
 10
59.5
 20
2.8867513499999991
 30
0.0
 11
57.0
 21
1.443375669999998
 31
0.0
  0
LINE
  5
4507
  8
241
  6
CONTINUOUS
 10
57.0
 20
1.443375669999998
 30
0.0
 11
57.0
 21
-1.443375669999998
 31
0.0
  0
LINE
  5
4530
  8
250
  6
CONTINUOUS
 10
72.000000000000298
 20
25.000000000000011
 30
0.0
 11
92.0
 21
25.0
 31
0.0
  0
LINE
  5
4531
  8
250
  6
CONTINUOUS
 10
72.0
 20
-25.0
 30
0.0
 11
92.0
 21
-25.000000000000011
 31
0.0
  0
LINE
  5
4532
  8
250
  6
CONTINUOUS
 10
91.0
 20
22.77000000000001
 30
0.0
 11
91.0
 21
-22.77000000000001
 31
0.0
  0
LINE
  5
4536
  8
250
  6
CONTINUOUS
 10
-0.5
 20
15.67672466051747
 30
0.0
 11
-14.999999999999989
 21
19.561987950768739
 31
0.0
  0
LINE
  5
4537
  8
250
  6
CONTINUOUS
 10
-0.5
 20
-15.59027533948246
 30
0.0
 11
-15.0
 21
-11.705012049231181
 31
0.0
  0
LINE
  5
4538
  8
250
  6
CONTINUOUS
 10
-13.999999999999989
 20
17.064038758337631
 30
0.0
 11
-14.0
 21
-9.7429612416623037
 31
0.0
  0
LINE
  5
4548
  8
250
  6
CONTINUOUS
 10
0.0
 20
-16.133499999999898
 30
0.0
 11
-0.0000000000000017
 21
-43.0
 31
0.0
  0
LINE
  5
454F
  8
250
  6
CONTINUOUS
 10
72.5
 20
-24.5
 30
0.0
 11
72.5
 21
-43.0
 31
0.0
  0
LINE
  5
4550
  8
250
  6
CONTINUOUS
 10
2.2299999999999982
 20
-42.0
 30
0.0
 11
70.269999999999996
 21
-42.0
 31
0.0
  0
ARC
  5
4554
  8
240
  6
CONTINUOUS
 10
-101.2999999999987
 20
-11.49999999999994
 30
0.0
 40
1.0
 50
180.0
 51
270.0
  0
LINE
  5
4555
  8
240
  6
CONTINUOUS
 10
-101.2999999999987
 20
-12.49999999999994
 30
0.0
 11
-94.299999999999983
 21
-12.49999999999994
 31
0.0
  0
TEXT
  5
4556
  8
250
  6
CONTINUOUS
 10
89.999999999999986
 20
-3.9333333333333189
 30
0.0
 40
2.799999999999998
  1
\U+220550
 50
90.0
  0
LINE
  5
4557
  8
250
  6
CONTINUOUS
 10
91.371666666666684
 20
-22.77000000000001
 30
0.0
 11
91.0
 21
-25.000000000000011
 31
0.0
  0
LINE
  5
4558
  8
250
  6
CONTINUOUS
 10
90.628333333333316
 20
-22.77000000000001
 30
0.0
 11
91.0
 21
-25.000000000000011
 31
0.0
  0
LINE
  5
4559
  8
250
  6
CONTINUOUS
 10
91.0
 20
-25.000000000000011
 30
0.0
 11
91.0
 21
-22.77000000000001
 31
0.0
  0
LINE
  5
455A
  8
250
  6
CONTINUOUS
 10
90.628333333333316
 20
22.77000000000001
 30
0.0
 11
91.0
 21
25.0
 31
0.0
  0
LINE
  5
455B
  8
250
  6
CONTINUOUS
 10
91.371666666666684
 20
22.77000000000001
 30
0.0
 11
91.0
 21
25.0
 31
0.0
  0
LINE
  5
455C
  8
250
  6
CONTINUOUS
 10
91.0
 20
25.0
 30
0.0
 11
91.0
 21
22.77000000000001
 31
0.0
  0
TEXT
  5
455D
  8
250
  6
CONTINUOUS
 10
-15.0
 20
-4.939461241662336
 30
0.0
 40
2.799999999999998
  1
\U+220531.267
 50
90.0
  0
LINE
  5
455E
  8
250
  6
CONTINUOUS
 10
-13.62833333333333
 20
-9.7429612416623037
 30
0.0
 11
-14.0
 21
-11.972961241662301
 31
0.0
  0
LINE
  5
455F
  8
250
  6
CONTINUOUS
 10
-14.371666666666661
 20
-9.7429612416623037
 30
0.0
 11
-14.0
 21
-11.972961241662301
 31
0.0
  0
LINE
  5
4560
  8
250
  6
CONTINUOUS
 10
-14.0
 20
-11.972961241662301
 30
0.0
 11
-14.0
 21
-9.7429612416623037
 31
0.0
  0
LINE
  5
4561
  8
250
  6
CONTINUOUS
 10
-14.371666666666661
 20
17.064038758337631
 30
0.0
 11
-13.999999999999989
 21
19.294038758337631
 31
0.0
  0
LINE
  5
4562
  8
250
  6
CONTINUOUS
 10
-13.62833333333333
 20
17.064038758337631
 30
0.0
 11
-13.999999999999989
 21
19.294038758337631
 31
0.0
  0
LINE
  5
4563
  8
250
  6
CONTINUOUS
 10
-13.999999999999989
 20
19.294038758337631
 30
0.0
 11
-13.999999999999989
 21
17.064038758337631
 31
0.0
  0
TEXT
  5
4579
  8
250
  6
CONTINUOUS
 10
31.583333333333339
 20
-41.0
 30
0.0
 40
2.799999999999998
  1
72.5
  0
LINE
  5
457A
  8
250
  6
CONTINUOUS
 10
70.269999999999996
 20
-41.62833333333333
 30
0.0
 11
72.5
 21
-42.0
 31
0.0
  0
LINE
  5
457B
  8
250
  6
CONTINUOUS
 10
70.269999999999996
 20
-42.371666666666663
 30
0.0
 11
72.5
 21
-42.0
 31
0.0
  0
LINE
  5
457C
  8
250
  6
CONTINUOUS
 10
72.5
 20
-42.0
 30
0.0
 11
70.269999999999996
 21
-42.0
 31
0.0
  0
LINE
  5
457D
  8
250
  6
CONTINUOUS
 10
2.2299999999999982
 20
-42.371666666666663
 30
0.0
 11
-0.0000000000000016
 21
-42.0
 31
0.0
  0
LINE
  5
457E
  8
250
  6
CONTINUOUS
 10
2.2299999999999982
 20
-41.62833333333333
 30
0.0
 11
-0.0000000000000016
 21
-42.0
 31
0.0
  0
LINE
  5
457F
  8
250
  6
CONTINUOUS
 10
-0.0000000000000016
 20
-42.0
 30
0.0
 11
2.2299999999999982
 21
-42.0
 31
0.0
  0
LINE
  5
458D
  8
250
 10
86.979893183766862
 20
-38.187808274051307
 30
0.0
 11
76.435926644099041
 21
-38.187808274051307
 31
0.0
  0
LINE
  5
458E
  8
250
 10
76.435926644099041
 20
-38.187808274051307
 30
0.0
 11
64.431686800882119
 21
-15.96210198239107
 31
0.0
  0
LINE
  5
458F
  8
250
 10
64.431686800882119
 20
-15.96210198239107
 30
0.0
 11
63.37194352503797
 21
-13.99999999999997
 31
0.0
  0
LINE
  5
4590
  8
250
 10
64.690002426232581
 20
-15.822584133947229
 30
0.0
 11
63.37194352503797
 21
-13.99999999999997
 31
0.0
  0
LINE
  5
4591
  8
250
 10
63.37194352503797
 20
-13.99999999999997
 30
0.0
 11
64.173371175531699
 21
-16.10161983083491
 31
0.0
  0
TEXT
  5
4592
  8
250
 10
77.113226517100145
 20
-36.787808274051301
 30
0.0
 40
2.799999999999998
  1
CK5
  7
ACJISTS
  0
VIEWPORT
  5
22
 67
     1
  8
0
 10
261.51769911504419
 20
148.5
 30
0.0
 40
523.0353982300885
 41
297.0
 68
     1
 69
     1
1001
ACAD
1000
MVIEW
1002
{
1070
    16
1010
0.0
1020
0.0
1030
0.0
1010
0.0
1020
0.0
1030
1.0
1040
0.0
1040
297.0
1040
261.51769911504419
1040
148.5
1040
50.0
1040
0.0
1040
0.0
1070
     0
1070
   100
1070
     1
1070
     1
1070
     0
1070
     0
1070
     0
1070
     0
1040
0.0
1040
0.0
1040
0.0
1040
1.0
1040
1.0
1040
10.0
1040
10.0
1070
     0
1002
{
1002
}
1002
}
1001
GENIUS_GENODEF_13
1002
{
1000
HIER
1070
     0
1002
}
1002
{
1000
MANEDIT
1070
     0
1002
}
1002
{
1000
NOSEL
1070
     0
1002
}
1002
{
1000
BEHIND
1070
     0
1002
}
1002
{
1000
OTHER
1070
     0
1002
}
1002
{
1000
REACTOR
1002
}
1001
GENIUS_GENOBJ-N-SDF_13
1002
{
1000
OWNER
1000
GEN
1002
}
1001
GENIUS_GENSCREG_15
1000
PF
1040
1.0
1000
DF
1040
1.0
1000
MIN
1011
0.0
1021
0.0
1031
0.0
1021
0.0
1031
0.0
1000
MAX
1011
523.0353982300885
1021
0.0
1031
0.0
1021
297.0
1031
0.0
1000
FLAGS
1070
     4
  0
ENDSEC
  0
EOF
