  0
SECTION
  2
HEADER
  9
$ACADVER
  1
AC1009
  9
$INSBASE
 10
0.0
 20
0.0
 30
0.0
  9
$EXTMIN
 10
-106.0439924314102
 20
-36.0
 30
0.0
  9
$EXTMAX
 10
92.548941824870525
 20
39.000000000000348
 30
0.0
  9
$LIMMIN
 10
0.0
 20
0.0
  9
$LIMMAX
 10
297.0
 20
210.0
  9
$ORTHOMODE
 70
     1
  9
$REGENMODE
 70
     1
  9
$FILLMODE
 70
     1
  9
$QTEXTMODE
 70
     0
  9
$MIRRTEXT
 70
     1
  9
$DRAGMODE
 70
     2
  9
$LTSCALE
 40
10.0
  9
$OSMODE
 70
     7
  9
$ATTMODE
 70
     1
  9
$TEXTSIZE
 40
3.0
  9
$TRACEWID
 40
1.0
  9
$TEXTSTYLE
  7
YOKO
  9
$CLAYER
  8
240
  9
$CELTYPE
  6
BYLAYER
  9
$CECOLOR
 62
   256
  9
$DIMSCALE
 40
1.0
  9
$DIMASZ
 40
2.2299999999999991
  9
$DIMEXO
 40
0.5
  9
$DIMDLI
 40
7.0
  9
$DIMRND
 40
0.0
  9
$DIMDLE
 40
0.0
  9
$DIMEXE
 40
1.0
  9
$DIMTP
 40
0.0
  9
$DIMTM
 40
0.01
  9
$DIMTXT
 40
2.7999999999999989
  9
$DIMCEN
 40
0.0
  9
$DIMTSZ
 40
0.0
  9
$DIMTOL
 70
     0
  9
$DIMLIM
 70
     0
  9
$DIMTIH
 70
     0
  9
$DIMTOH
 70
     0
  9
$DIMSE1
 70
     0
  9
$DIMSE2
 70
     0
  9
$DIMTAD
 70
     3
  9
$DIMZIN
 70
     9
  9
$DIMBLK
  1
OPEN
  9
$DIMASO
 70
     1
  9
$DIMSHO
 70
     1
  9
$DIMPOST
  1

  9
$DIMAPOST
  1

  9
$DIMALT
 70
     0
  9
$DIMALTD
 70
     2
  9
$DIMALTF
 40
25.399999999999999
  9
$DIMLFAC
 40
1.0
  9
$DIMTOFL
 70
     1
  9
$DIMTVP
 40
0.0
  9
$DIMTIX
 70
     1
  9
$DIMSOXD
 70
     0
  9
$DIMSAH
 70
     0
  9
$DIMBLK1
  1

  9
$DIMBLK2
  1

  9
$DIMSTYLE
  2
BIGT
  9
$DIMCLRD
 70
   256
  9
$DIMCLRE
 70
   256
  9
$DIMCLRT
 70
    40
  9
$DIMTFAC
 40
1.0
  9
$DIMGAP
 40
1.0
  9
$LUNITS
 70
     2
  9
$LUPREC
 70
     6
  9
$SKETCHINC
 40
1.0
  9
$FILLETRAD
 40
0.0
  9
$AUNITS
 70
     0
  9
$AUPREC
 70
     6
  9
$MENU
  1
.
  9
$ELEVATION
 40
0.0
  9
$PELEVATION
 40
0.0
  9
$THICKNESS
 40
0.0
  9
$LIMCHECK
 70
     0
  9
$BLIPMODE
 70
     0
  9
$CHAMFERA
 40
0.2
  9
$CHAMFERB
 40
0.2
  9
$SKPOLY
 70
     0
  9
$TDCREATE
 40
2460557.4796270719
  9
$TDUPDATE
 40
2460557.4917028942
  9
$TDINDWG
 40
0.0110489352
  9
$TDUSRTIMER
 40
0.0110488079
  9
$USRTIMER
 70
     1
  9
$ANGBASE
 50
0.0
  9
$ANGDIR
 70
     0
  9
$PDMODE
 70
     1
  9
$PDSIZE
 40
0.0
  9
$PLINEWID
 40
0.0
  9
$COORDS
 70
     1
  9
$SPLFRAME
 70
     0
  9
$SPLINETYPE
 70
     6
  9
$SPLINESEGS
 70
     4
  9
$ATTDIA
 70
     1
  9
$ATTREQ
 70
     1
  9
$HANDLING
 70
     1
  9
$HANDSEED
  5
491D
  9
$SURFTAB1
 70
     6
  9
$SURFTAB2
 70
     6
  9
$SURFTYPE
 70
     6
  9
$SURFU
 70
     6
  9
$SURFV
 70
     6
  9
$UCSNAME
  2

  9
$UCSORG
 10
0.0
 20
0.0
 30
0.0
  9
$UCSXDIR
 10
1.0
 20
0.0
 30
0.0
  9
$UCSYDIR
 10
0.0
 20
1.0
 30
0.0
  9
$PUCSNAME
  2

  9
$PUCSORG
 10
0.0
 20
0.0
 30
0.0
  9
$PUCSXDIR
 10
1.0
 20
0.0
 30
0.0
  9
$PUCSYDIR
 10
0.0
 20
1.0
 30
0.0
  9
$USERI1
 70
     1
  9
$USERI2
 70
     0
  9
$USERI3
 70
     0
  9
$USERI4
 70
     0
  9
$USERI5
 70
     0
  9
$USERR1
 40
0.0
  9
$USERR2
 40
0.0
  9
$USERR3
 40
0.0
  9
$USERR4
 40
0.0
  9
$USERR5
 40
0.0
  9
$WORLDVIEW
 70
     1
  9
$SHADEDGE
 70
     3
  9
$SHADEDIF
 70
    70
  9
$TILEMODE
 70
     1
  9
$MAXACTVP
 70
    16
  9
$PLIMCHECK
 70
     0
  9
$PEXTMIN
 10
1.0000000000000000E+020
 20
1.0000000000000000E+020
 30
1.0000000000000000E+020
  9
$PEXTMAX
 10
-1.0000000000000000E+020
 20
-1.0000000000000000E+020
 30
-1.0000000000000000E+020
  9
$PLIMMIN
 10
0.0
 20
0.0
  9
$PLIMMAX
 10
420.0
 20
297.0
  9
$UNITMODE
 70
     0
  9
$VISRETAIN
 70
     1
  9
$PLINEGEN
 70
     0
  9
$PSLTSCALE
 70
     1
  0
ENDSEC
  0
SECTION
  2
TABLES
  0
TABLE
  2
VPORT
 70
     1
  0
VPORT
  2
*ACTIVE
 70
     0
 10
0.0
 20
0.0
 11
1.0
 21
1.0
 12
-0.492611422063817
 22
-0.5812837073034843
 13
0.0
 23
0.0
 14
7.0
 24
7.0
 15
7.0
 25
7.0
 16
0.0
 26
0.0
 36
1.0
 17
0.0
 27
0.0
 37
0.0
 40
170.13636379853691
 41
1.495118549511854
 42
50.0
 43
0.0
 44
0.0
 50
0.0
 51
0.0
 71
     0
 72
  2000
 73
     1
 74
     0
 75
     0
 76
     1
 77
     0
 78
     0
  0
ENDTAB
  0
TABLE
  2
LTYPE
 70
    16
  0
LTYPE
  2
CONTINUOUS
 70
     0
  3
Solid line
 72
    65
 73
     0
 40
0.0
  0
LTYPE
  2
CENTER2
 70
     0
  3
___ _ ___ _ ___ _ ___ _ ___ _ ___ _ ___ _ ___ _
 72
    65
 73
     4
 40
1.125
 49
0.75
 49
-0.125
 49
0.125
 49
-0.125
  0
LTYPE
  2
HIDDEN2
 70
     0
  3
_ _ _ _ _ _ _ _ _ _ _ _ _ _ _ _ _ _ _ _ _ _ _ _
 72
    65
 73
     2
 40
0.1875
 49
0.125
 49
-0.0625
  0
LTYPE
  2
PHANTOM2
 70
     0
  3
___ _ _ ___ _ _ ___ _ _ ___ _ _ ___ _ _ ___ _ _
 72
    65
 73
     6
 40
1.25
 49
0.625
 49
-0.125
 49
0.125
 49
-0.125
 49
0.125
 49
-0.125
  0
LTYPE
  2
AM_ISO02W050
 70
     0
  3
__ __ __ __ __ __ __ __ __ __ __ __ __ __ __
 72
    65
 73
     2
 40
7.5
 49
6.0
 49
-1.5
  0
LTYPE
  2
AMCONSTR
 70
     0
  3
_______________________
 72
    65
 73
     2
 40
9999.0
 49
9999.0
 49
0.0
  0
LTYPE
  2
ACISOWELD
 70
     0
  3
_ _ _ _ _
 72
    65
 73
     2
 40
2.0
 49
2.0
 49
-1.0
  0
LTYPE
  2
ACISOTGB
 70
     0
  3
__ . . __ . .
 72
    65
 73
     6
 40
9.0
 49
4.0
 49
-1.0
 49
1.0
 49
-1.0
 49
1.0
 49
-1.0
  0
LTYPE
  2
ACISOTGL
 70
     0
  3
_ _ _ _ _
 72
    65
 73
     2
 40
3.0
 49
2.0
 49
-1.0
  0
LTYPE
  2
ACJISTGB
 70
     0
  3
__ . . __ . .
 72
    65
 73
     6
 40
9.0
 49
4.0
 49
-1.0
 49
1.0
 49
-1.0
 49
1.0
 49
-1.0
  0
LTYPE
  2
ACJISTGL
 70
     0
  3
_ _ _ _ _
 72
    65
 73
     2
 40
3.0
 49
2.0
 49
-1.0
  0
ENDTAB
  0
TABLE
  2
LAYER
 70
     9
  0
LAYER
  2
0
 70
     0
 62
     7
  6
CONTINUOUS
  0
LAYER
  2
DEFPOINTS
 70
     0
 62
     7
  6
CONTINUOUS
  0
LAYER
  2
245
 70
     0
 62
     2
  6
CENTER2
  0
LAYER
  2
240
 70
     0
 62
     4
  6
CONTINUOUS
  0
LAYER
  2
241
 70
     0
 62
   211
  6
CONTINUOUS
  0
LAYER
  2
242
 70
     0
 62
     3
  6
CONTINUOUS
  0
LAYER
  2
243
 70
     0
 62
   211
  6
HIDDEN2
  0
LAYER
  2
244
 70
     0
 62
     3
  6
HIDDEN2
  0
LAYER
  2
250
 70
     0
 62
     3
  6
CONTINUOUS
  0
ENDTAB
  0
TABLE
  2
STYLE
 70
     7
  0
STYLE
  2
STANDARD
 70
     0
 40
0.0
 41
1.0
 50
0.0
 71
     0
 42
3.0
  3
romans.shx
  4
extfont.shx
  0
STYLE
  2
ACISOTS
 70
     0
 40
1.0
 41
1.0
 50
0.0
 71
     0
 42
3.0
  3
amgdt.shx
  4
extfont.shx
  0
STYLE
  2
ACISOGDT
 70
     0
 40
0.0
 41
1.0
 50
0.0
 71
     0
 42
3.0
  3
amgdt.shx
  4
extfont.shx
  0
STYLE
  2
ACJISTS
 70
     0
 40
1.0
 41
1.0
 50
0.0
 71
     0
 42
3.0
  3
amgdt.shx
  4
extfont.shx
  0
STYLE
  2
ACJISGDT
 70
     0
 40
0.0
 41
1.0
 50
0.0
 71
     0
 42
3.0
  3
amgdt.shx
  4
extfont.shx
  0
STYLE
  2
YOKO
 70
     0
 40
0.0
 41
1.0
 50
0.0
 71
     0
 42
3.0
  3
romans.shx
  4
extfont.shx
  0
ENDTAB
  0
TABLE
  2
VIEW
 70
     0
  0
ENDTAB
  0
TABLE
  2
UCS
 70
     0
  0
ENDTAB
  0
TABLE
  2
APPID
 70
    40
  0
APPID
  2
ACAD
 70
     0
  0
APPID
  2
GLOBAL
 70
     0
  0
APPID
  2
DETAIL
 70
     0
  0
APPID
  2
GRPNAME
 70
     0
  0
APPID
  2
GPARA
 70
     0
  0
APPID
  2
MCAD_NO_VIS
 70
     0
  0
APPID
  2
ACAD_TEMP_GRAPHIC
 70
     0
  0
APPID
  2
ACATTRIBSERVICES
 70
     0
  0
APPID
  2
GENIUS_GENSCREG_15
 70
     0
  0
APPID
  2
GENIUS_GENODEF_13
 70
     0
  0
APPID
  2
GENIUS_GENOBJ-N-SDF_13
 70
     0
  0
APPID
  2
GENIUS_GENREC_14
 70
     0
  0
APPID
  2
GENIUS_GENOBJ-N-REC_13
 70
     0
  0
APPID
  2
GENIUS_GENDIMSH_14
 70
     0
  0
APPID
  2
GENIUS_GENOBJ-N-DIM_13
 70
     0
  0
APPID
  2
GENIUS_GENDIM_13
 70
     0
  0
APPID
  2
GENIUS_GENDTOL_13
 70
     0
  0
APPID
  2
GENIUS_GENOLIS_13
 70
     0
  0
APPID
  2
GENIUS_GENOENT_13
 70
     0
  0
APPID
  2
GENIUS_GENOBJ-F-FEM_13
 70
     0
  0
APPID
  2
GENIUS_GENOREF_13
 70
     0
  0
APPID
  2
GENIUS_GEFFEM_13
 70
     0
  0
APPID
  2
GENIUS_GEFFEMP_13
 70
     0
  0
APPID
  2
AD_DRAW
 70
     0
  0
APPID
  2
DESIGNERASSEMBLIES
 70
     0
  0
APPID
  2
ACADM_DIM_EDIT
 70
     0
  0
APPID
  2
AMDT_DM_ADJ
 70
     0
  0
APPID
  2
ITEMNAME
 70
     0
  0
APPID
  2
GENIUS_GENOBJ-N-FIL_13
 70
     0
  0
APPID
  2
GENIUS_GENFIL_13
 70
     0
  0
APPID
  2
GENIUS_GENOBJ-N-CHA_13
 70
     0
  0
APPID
  2
ACAD_NAV_VCDISPLAY
 70
     0
  0
APPID
  2
ACAECLAYERSTANDARD
 70
     0
  0
APPID
  2
GENIUS_GENOBJ-N-RSBK_13
 70
     0
  0
APPID
  2
GENIUS_GENOBJ-N-LIB_13
 70
     0
  0
APPID
  2
GENIUS_GENSCALE_13
 70
     0
  0
APPID
  2
ACAD_PSEXT
 70
     0
  0
APPID
  2
ACAD_EXEMPT_FROM_CAD_STANDARDS
 70
     0
  0
APPID
  2
ACAD_DSTYLE_DIMINSPECT
 70
     0
  0
APPID
  2
ACAD_MLEADERVER
 70
     0
  0
ENDTAB
  0
TABLE
  2
DIMSTYLE
 70
    29
  0
DIMSTYLE
  2
BIGT
 70
     0
  3

  4

  5
OPEN
  6

  7

 40
1.0
 41
2.2299999999999991
 42
0.5
 43
7.0
 44
1.0
 45
0.0
 46
0.0
 47
0.0
 48
0.01
140
2.7999999999999989
141
0.0
142
0.0
143
25.399999999999999
144
1.0
145
0.0
146
1.0
147
1.0
 71
     0
 72
     0
 73
     0
 74
     0
 75
     0
 76
     0
 77
     3
 78
     9
170
     0
171
     2
172
     1
173
     0
174
     1
175
     0
176
   256
177
   256
178
    40
  0
DIMSTYLE
  2
AM_ISO
 70
     0
  3

  4
"
  5

  6

  7

 40
1.0
 41
2.5
 42
1.0
 43
10.0
 44
1.0
 45
0.0
 46
0.0
 47
0.1
 48
0.1
140
3.5
141
0.0
142
0.0
143
0.0393701
144
1.0
145
0.0
146
0.71
147
1.5
 71
     0
 72
     0
 73
     0
 74
     0
 75
     0
 76
     0
 77
     1
 78
     8
170
     0
171
     2
172
     1
173
     0
174
     0
175
     0
176
   256
177
   256
178
     2
  0
DIMSTYLE
  2
AM_ISO$3
 70
     0
  3

  4
"
  5

  6

  7

 40
1.0
 41
2.5
 42
1.0
 43
10.0
 44
1.0
 45
0.0
 46
0.0
 47
0.1
 48
0.1
140
3.5
141
0.0
142
0.0
143
0.0393701
144
1.0
145
0.0
146
0.71
147
1.5
 71
     0
 72
     0
 73
     0
 74
     1
 75
     0
 76
     0
 77
     1
 78
     8
170
     0
171
     2
172
     0
173
     0
174
     0
175
     0
176
   256
177
   256
178
     2
  0
DIMSTYLE
  2
AM_ISO$4
 70
     0
  3

  4
"
  5

  6

  7

 40
1.0
 41
2.5
 42
1.0
 43
10.0
 44
1.0
 45
0.0
 46
0.0
 47
0.1
 48
0.1
140
3.5
141
0.0
142
0.0
143
0.0393701
144
1.0
145
0.0
146
0.71
147
1.5
 71
     0
 72
     0
 73
     0
 74
     1
 75
     0
 76
     0
 77
     1
 78
     8
170
     0
171
     2
172
     0
173
     0
174
     0
175
     0
176
   256
177
   256
178
     2
  0
DIMSTYLE
  2
AM_ISO$6
 70
     0
  3

  4
"
  5

  6

  7

 40
1.0
 41
2.5
 42
1.0
 43
10.0
 44
1.0
 45
0.0
 46
0.0
 47
0.1
 48
0.1
140
3.5
141
0.0
142
0.0
143
0.0393701
144
1.0
145
0.0
146
0.71
147
1.5
 71
     0
 72
     0
 73
     0
 74
     0
 75
     0
 76
     0
 77
     0
 78
     8
170
     0
171
     2
172
     1
173
     0
174
     0
175
     0
176
   256
177
   256
178
     2
  0
DIMSTYLE
  2
AM_ISO$7
 70
     0
  3

  4
"
  5

  6

  7

 40
1.0
 41
2.5
 42
1.0
 43
10.0
 44
1.0
 45
0.0
 46
0.0
 47
0.1
 48
0.1
140
5.0
141
0.0
142
0.0
143
0.0393701
144
1.0
145
0.0
146
0.71
147
1.5
 71
     0
 72
     0
 73
     0
 74
     0
 75
     0
 76
     0
 77
     1
 78
     8
170
     0
171
     2
172
     1
173
     0
174
     0
175
     0
176
   256
177
   256
178
     2
  0
DIMSTYLE
  2
AM_ISO$SF
 70
     0
  3

  4
"
  5

  6

  7

 40
1.0
 41
2.5
 42
1.0
 43
10.0
 44
1.0
 45
0.0
 46
0.0
 47
0.1
 48
0.1
140
3.5
141
0.0
142
0.0
143
0.0393701
144
1.0
145
0.0
146
0.71
147
1.5
 71
     0
 72
     0
 73
     0
 74
     0
 75
     1
 76
     1
 77
     1
 78
     8
170
     0
171
     2
172
     1
173
     0
174
     0
175
     0
176
   256
177
   256
178
     2
  0
DIMSTYLE
  2
AM_ISO$SH
 70
     0
  3

  4
"
  5

  6
GENAXEH
  7

 40
1.0
 41
2.5
 42
1.0
 43
10.0
 44
1.0
 45
0.0
 46
0.0
 47
0.1
 48
0.1
140
3.5
141
0.0
142
0.0
143
0.0393701
144
2.0
145
0.0
146
0.71
147
1.5
 71
     0
 72
     0
 73
     0
 74
     0
 75
     1
 76
     1
 77
     1
 78
     8
170
     0
171
     2
172
     1
173
     1
174
     0
175
     0
176
   256
177
   256
178
     2
  0
DIMSTYLE
  2
BIGT$2
 70
     0
  3

  4

  5
OPEN
  6

  7

 40
1.0
 41
2.2299999999999991
 42
0.5
 43
7.0
 44
1.0
 45
0.0
 46
0.0
 47
0.0
 48
0.01
140
2.7999999999999989
141
0.0
142
0.0
143
25.399999999999999
144
1.0
145
0.0
146
1.0
147
1.0
 71
     0
 72
     0
 73
     0
 74
     0
 75
     0
 76
     0
 77
     3
 78
     9
170
     0
171
     2
172
     1
173
     0
174
     0
175
     0
176
   256
177
   256
178
    40
  0
DIMSTYLE
  2
BIGT$3
 70
     0
  3

  4

  5
OPEN
  6

  7

 40
1.0
 41
2.2299999999999991
 42
0.5
 43
2.5
 44
1.0
 45
0.0
 46
0.0
 47
0.0
 48
0.01
140
2.7999999999999989
141
0.0
142
0.0
143
25.399999999999999
144
1.0
145
0.0
146
1.0
147
1.0
 71
     0
 72
     0
 73
     0
 74
     0
 75
     0
 76
     0
 77
     3
 78
     9
170
     0
171
     2
172
     1
173
     0
174
     0
175
     0
176
   256
177
   256
178
    40
  0
DIMSTYLE
  2
BIGT$7
 70
     0
  3

  4

  5
OPEN
  6

  7

 40
0.0
 41
2.2299999999999991
 42
0.5
 43
7.0
 44
1.0
 45
0.0
 46
0.0
 47
0.0
 48
0.01
140
2.7999999999999989
141
0.0
142
0.0
143
25.399999999999999
144
1.0
145
0.0
146
1.0
147
1.0
 71
     0
 72
     0
 73
     0
 74
     0
 75
     0
 76
     0
 77
     3
 78
     9
170
     0
171
     2
172
     0
173
     0
174
     0
175
     0
176
   256
177
   256
178
    40
  0
DIMSTYLE
  2
BIGT$6
 70
     0
  3

  4

  5
OPEN
  6

  7

 40
1.0
 41
2.2299999999999991
 42
0.5
 43
2.5
 44
1.0
 45
0.0
 46
0.0
 47
0.0
 48
0.01
140
2.7999999999999989
141
0.0
142
0.0
143
25.399999999999999
144
1.0
145
0.0
146
1.0
147
1.0
 71
     0
 72
     0
 73
     0
 74
     0
 75
     0
 76
     0
 77
     3
 78
     9
170
     0
171
     2
172
     1
173
     0
174
     0
175
     0
176
   256
177
   256
178
    40
  0
DIMSTYLE
  2
BIGT$0
 70
     0
  3

  4

  5
OPEN
  6

  7

 40
1.0
 41
2.2299999999999991
 42
0.5
 43
7.0
 44
1.0
 45
0.0
 46
0.0
 47
0.0
 48
0.01
140
2.7999999999999989
141
0.0
142
0.0
143
25.399999999999999
144
1.0
145
0.0
146
1.0
147
1.0
 71
     0
 72
     0
 73
     0
 74
     0
 75
     0
 76
     0
 77
     3
 78
     9
170
     0
171
     2
172
     1
173
     0
174
     1
175
     0
176
   256
177
   256
178
    40
  0
DIMSTYLE
  2
BIGT$4
 70
     0
  3

  4

  5
OPEN
  6

  7

 40
1.0
 41
2.2299999999999991
 42
0.5
 43
2.5
 44
1.0
 45
0.0
 46
0.0
 47
0.0
 48
0.01
140
2.7999999999999989
141
0.0
142
0.0
143
25.399999999999999
144
1.0
145
0.0
146
1.0
147
1.0
 71
     0
 72
     0
 73
     0
 74
     0
 75
     0
 76
     0
 77
     3
 78
     9
170
     0
171
     2
172
     1
173
     0
174
     0
175
     0
176
   256
177
   256
178
    40
  0
DIMSTYLE
  2
BIGT$SH
 70
     0
  3

  4

  5
OPEN
  6

  7

 40
1.0
 41
2.2299999999999991
 42
0.5
 43
7.0
 44
1.0
 45
0.0
 46
0.0
 47
0.0
 48
0.0
140
2.7999999999999989
141
0.0
142
0.0
143
25.399999999999999
144
1.0
145
0.0
146
1.0
147
1.0
 71
     0
 72
     0
 73
     0
 74
     0
 75
     0
 76
     0
 77
     3
 78
     9
170
     0
171
     2
172
     1
173
     0
174
     0
175
     0
176
   256
177
   256
178
    40
  0
DIMSTYLE
  2
BIGT$SF
 70
     0
  3

  4

  5
OPEN
  6

  7

 40
1.0
 41
2.2299999999999991
 42
0.5
 43
7.0
 44
1.0
 45
0.0
 46
0.0
 47
0.0
 48
0.0
140
2.7999999999999989
141
0.0
142
0.0
143
25.399999999999999
144
1.0
145
0.0
146
1.0
147
1.0
 71
     0
 72
     0
 73
     0
 74
     0
 75
     0
 76
     0
 77
     3
 78
     9
170
     0
171
     2
172
     1
173
     0
174
     0
175
     0
176
   256
177
   256
178
    40
  0
DIMSTYLE
  2
TECHNICAL_OSAKA
 70
     0
  3

  4
"
  5
OPEN30
  6

  7

 40
1.0
 41
2.5
 42
1.0
 43
10.0
 44
1.0
 45
0.0
 46
0.0
 47
0.1
 48
0.1
140
2.7999999999999989
141
0.0
142
0.0
143
0.0393701
144
1.0
145
0.0
146
0.71
147
1.5
 71
     0
 72
     0
 73
     0
 74
     0
 75
     0
 76
     0
 77
     3
 78
     8
170
     0
171
     2
172
     1
173
     0
174
     0
175
     0
176
   256
177
   256
178
    40
  0
DIMSTYLE
  2
TECHNICAL_OSAKA$3
 70
     0
  3

  4
"
  5
OPEN30
  6

  7

 40
1.0
 41
2.5
 42
1.0
 43
10.0
 44
1.0
 45
0.0
 46
0.0
 47
0.1
 48
0.1
140
2.7999999999999989
141
0.0
142
0.0
143
0.0393701
144
1.0
145
0.0
146
0.71
147
1.5
 71
     0
 72
     0
 73
     0
 74
     1
 75
     0
 76
     0
 77
     3
 78
     8
170
     0
171
     2
172
     0
173
     0
174
     0
175
     0
176
   256
177
   256
178
    40
  0
DIMSTYLE
  2
TECHNICAL_OSAKA$4
 70
     0
  3

  4
"
  5
OPEN30
  6

  7

 40
1.0
 41
2.5
 42
1.0
 43
10.0
 44
1.0
 45
0.0
 46
0.0
 47
0.1
 48
0.1
140
2.7999999999999989
141
0.0
142
0.0
143
0.0393701
144
1.0
145
0.0
146
0.71
147
1.5
 71
     0
 72
     0
 73
     0
 74
     1
 75
     0
 76
     0
 77
     3
 78
     8
170
     0
171
     2
172
     0
173
     0
174
     0
175
     0
176
   256
177
   256
178
    40
  0
DIMSTYLE
  2
TECHNICAL_OSAKA$6
 70
     0
  3

  4
"
  5
OPEN30
  6

  7

 40
1.0
 41
2.5
 42
1.0
 43
10.0
 44
1.0
 45
0.0
 46
0.0
 47
0.1
 48
0.1
140
2.7999999999999989
141
0.0
142
0.0
143
0.0393701
144
1.0
145
0.0
146
0.71
147
1.5
 71
     0
 72
     0
 73
     0
 74
     0
 75
     0
 76
     0
 77
     0
 78
     8
170
     0
171
     2
172
     1
173
     0
174
     0
175
     0
176
   256
177
   256
178
    40
  0
DIMSTYLE
  2
TECHNICAL_OSAKA$7
 70
     0
  3

  4
"
  5
OPEN30
  6

  7

 40
1.0
 41
2.5
 42
1.0
 43
10.0
 44
1.0
 45
0.0
 46
0.0
 47
0.1
 48
0.1
140
2.7999999999999989
141
0.0
142
0.0
143
0.0393701
144
1.0
145
0.0
146
0.71
147
1.5
 71
     0
 72
     0
 73
     0
 74
     0
 75
     0
 76
     0
 77
     3
 78
     8
170
     0
171
     2
172
     1
173
     0
174
     0
175
     0
176
   256
177
   256
178
    40
  0
DIMSTYLE
  2
TECHNICAL_OSAKA$SF
 70
     0
  3

  4
"
  5
OPEN30
  6
OPEN30
  7
OPEN30
 40
1.0
 41
2.5
 42
1.0
 43
10.0
 44
1.0
 45
0.0
 46
0.0
 47
0.1
 48
0.1
140
3.5
141
0.0
142
0.0
143
0.0393701
144
1.0
145
0.0
146
0.71
147
1.5
 71
     0
 72
     0
 73
     0
 74
     0
 75
     1
 76
     1
 77
     3
 78
     8
170
     0
171
     2
172
     1
173
     0
174
     0
175
     0
176
   256
177
   256
178
    40
  0
DIMSTYLE
  2
TECHNICAL_OSAKA$SH
 70
     0
  3

  4
"
  5
OPEN30
  6
GENAXEH
  7
OPEN30
 40
1.0
 41
2.5
 42
1.0
 43
10.0
 44
1.0
 45
0.0
 46
0.0
 47
0.1
 48
0.1
140
3.5
141
0.0
142
0.0
143
0.0393701
144
2.0
145
0.0
146
0.71
147
1.5
 71
     0
 72
     0
 73
     0
 74
     0
 75
     1
 76
     1
 77
     3
 78
     8
170
     0
171
     2
172
     1
173
     1
174
     0
175
     0
176
   256
177
   256
178
    40
  0
ENDTAB
  0
ENDSEC
  0
SECTION
  2
BLOCKS
  0
BLOCK
  8
0
  2
$MODEL_SPACE
 70
     0
 10
0.0
 20
0.0
 30
0.0
  3
$MODEL_SPACE
  1

  0
ENDBLK
  5
1C
  8
0
  0
BLOCK
 67
     1
  8
0
  2
$PAPER_SPACE
 70
     0
 10
0.0
 20
0.0
 30
0.0
  3
$PAPER_SPACE
  1

  0
ENDBLK
  5
19
 67
     1
  8
0
  0
BLOCK
  8
0
  2
_OPEN
 70
     0
 10
0.0
 20
0.0
 30
0.0
  3
_OPEN
  1

  0
LINE
  5
4824
  8
0
  6
BYBLOCK
 62
     0
 10
-1.0
 20
0.1666666666666666
 30
0.0
 11
0.0
 21
0.0
 31
0.0
  0
LINE
  5
4825
  8
0
  6
BYBLOCK
 62
     0
 10
-1.0
 20
-0.1666666666666666
 30
0.0
 11
0.0
 21
0.0
 31
0.0
  0
LINE
  5
4826
  8
0
  6
BYBLOCK
 62
     0
 10
0.0
 20
0.0
 30
0.0
 11
-1.0
 21
0.0
 31
0.0
  0
ENDBLK
  5
4827
  8
0
  0
BLOCK
  8
0
  2
GENAXEH
 70
     0
 10
0.0
 20
0.0
 30
0.0
  3
GENAXEH
  1

  0
LINE
  5
485F
  8
0
 10
-1.0
 20
0.0
 30
0.0
 11
1.0
 21
0.0
 31
0.0
  0
ENDBLK
  5
4860
  8
0
  0
BLOCK
  8
0
  2
_OPEN30
 70
     0
 10
0.0
 20
0.0
 30
0.0
  3
_OPEN30
  1

  0
LINE
  5
489B
  8
0
  6
BYBLOCK
 62
     0
 10
-1.0
 20
0.26794919
 30
0.0
 11
0.0
 21
0.0
 31
0.0
  0
LINE
  5
489C
  8
0
  6
BYBLOCK
 62
     0
 10
0.0
 20
0.0
 30
0.0
 11
-1.0
 21
-0.26794919
 31
0.0
  0
LINE
  5
489D
  8
0
  6
BYBLOCK
 62
     0
 10
0.0
 20
0.0
 30
0.0
 11
-1.0
 21
0.0
 31
0.0
  0
ENDBLK
  5
489E
  8
0
  0
ENDSEC
  0
SECTION
  2
ENTITIES
  0
ARC
  5
4519
  8
240
  6
CONTINUOUS
 10
-101.3
 20
11.50000000000005
 30
0.0
 40
1.0
 50
90.0
 51
180.0
  0
LINE
  5
451B
  8
243
  6
HIDDEN2
 10
-89.300000000000011
 20
6.000000000000056
 30
0.0
 11
-90.300000000000011
 21
7.000000000000056
 31
0.0
1001
GENIUS_GENFIL_13
1070
     0
1040
1.0
1040
1.0
1040
0.9999999999999715
1040
45.0
1000
~T
1001
GENIUS_GENOREF_13
1005
4567
  0
LINE
  5
451C
  8
240
  6
CONTINUOUS
 10
-102.3
 20
-11.49999999999994
 30
0.0
 11
-102.3
 21
11.50000000000005
 31
0.0
  0
ARC
  5
451D
  8
240
  6
CONTINUOUS
 10
-101.3
 20
-11.49999999999994
 30
0.0
 40
1.0
 50
180.0
 51
270.0
  0
LINE
  5
451E
  8
240
  6
CONTINUOUS
 10
6.4999999999994307
 20
-16.3334999999995
 30
0.0
 11
6.4999999999994307
 21
-20.49999999999994
 31
0.0
  0
LINE
  5
451F
  8
240
  6
CONTINUOUS
 10
-101.3
 20
-12.49999999999994
 30
0.0
 11
-94.300000000001319
 21
-12.49999999999994
 31
0.0
  0
LINE
  5
4520
  8
240
  6
CONTINUOUS
 10
-93.583930837731884
 20
-13.216069162269431
 30
0.0
 11
-94.300000000001319
 21
-12.49999999999994
 31
0.0
  0
LINE
  5
4521
  8
240
  6
CONTINUOUS
 10
-93.583930837731884
 20
-13.216069162269431
 30
0.0
 11
0.0
 21
-15.633499999999909
 31
0.0
  0
LINE
  5
4522
  8
243
  6
HIDDEN2
 10
-100.5679491924311
 20
8.5000000000000568
 30
0.0
 11
-90.300000000000011
 21
8.5000000000000568
 31
0.0
  0
LINE
  5
4523
  8
241
  6
CONTINUOUS
 10
6.4999999999994307
 20
16.33349999999955
 30
0.0
 11
6.4999999999994307
 21
-16.3334999999995
 31
0.0
  0
LINE
  5
4524
  8
241
  6
CONTINUOUS
 10
-93.583930837731884
 20
-13.216069162269431
 30
0.0
 11
-93.583930837731884
 21
-8.3466157151617608
 31
0.0
  0
LINE
  5
4526
  8
243
  6
HIDDEN2
 10
-42.300000000000011
 20
6.000000000000056
 30
0.0
 11
-38.835898384861991
 21
0.0000000000000568
 31
0.0
  0
LINE
  5
4527
  8
244
  6
HIDDEN2
 10
-52.299999999999947
 20
7.000000000000056
 30
0.0
 11
-50.567949192431001
 21
6.000000000000056
 31
0.0
  0
LINE
  5
4528
  8
245
  6
CENTER2
 10
0.0
 20
-19.801324503311211
 30
0.0
 11
0.0
 21
19.22421948912023
 31
0.0
  0
LINE
  5
4529
  8
240
  6
CONTINUOUS
 10
6.4999999999994307
 20
16.333500000000299
 30
0.0
 11
6.4999999999994307
 21
20.50000000000006
 31
0.0
  0
LINE
  5
452A
  8
241
  6
CONTINUOUS
 10
-94.300000000000011
 20
-12.49999999999994
 30
0.0
 11
-94.300000000000011
 21
12.50000000000005
 31
0.0
  0
LINE
  5
452B
  8
240
  6
CONTINUOUS
 10
-93.583930837731884
 20
13.21606916226955
 30
0.0
 11
-94.300000000001319
 21
12.50000000000005
 31
0.0
  0
LINE
  5
452C
  8
240
  6
CONTINUOUS
 10
-101.3
 20
12.50000000000005
 30
0.0
 11
-94.300000000001319
 21
12.50000000000005
 31
0.0
  0
LINE
  5
452D
  8
240
  6
CONTINUOUS
 10
-93.583930837731884
 20
13.21606916226955
 30
0.0
 11
-0.0000000000002274
 21
15.63349999999997
 31
0.0
  0
LINE
  5
452F
  8
245
  6
CENTER2
 10
-106.0439924314102
 20
0.0000000000000568
 30
0.0
 11
78.913006988738744
 21
0.0
 31
0.0
  0
LINE
  5
4530
  8
244
  6
HIDDEN2
 10
-90.300000000000011
 20
7.000000000000056
 30
0.0
 11
-52.299999999999947
 21
7.000000000000056
 31
0.0
  0
LINE
  5
4531
  8
243
  6
HIDDEN2
 10
-89.300000000000011
 20
6.000000000000056
 30
0.0
 11
-42.300000000000011
 21
6.000000000000056
 31
0.0
  0
LINE
  5
4532
  8
240
  6
CONTINUOUS
 10
7.4999999999994307
 20
21.50000000000006
 30
0.0
 11
20.299999999999422
 21
21.500000000000028
 31
0.0
  0
ARC
  5
4533
  8
240
  6
CONTINUOUS
 10
7.4999999999994307
 20
20.50000000000006
 30
0.0
 40
1.0
 50
90.0
 51
180.0
1001
GENIUS_GENOBJ-N-FIL_13
1002
{
1000
OWNER
1000
GEN
1002
}
1001
GENIUS_GENODEF_13
1002
{
1000
HIER
1070
     0
1002
}
1002
{
1000
MANEDIT
1070
     0
1002
}
1002
{
1000
NOSEL
1070
     0
1002
}
1002
{
1000
BEHIND
1070
     0
1002
}
1002
{
1000
OTHER
1070
     0
1002
}
1002
{
1000
REACTOR
1002
}
  0
LINE
  5
4534
  8
240
  6
CONTINUOUS
 10
7.4999999999994307
 20
-21.49999999999995
 30
0.0
 11
20.2999999999995
 21
-21.49999999999995
 31
0.0
  0
ARC
  5
4535
  8
240
  6
CONTINUOUS
 10
7.4999999999994307
 20
-20.49999999999994
 30
0.0
 40
1.0
 50
180.0
 51
270.0
1001
GENIUS_GENODEF_13
1002
{
1000
HIER
1070
     0
1002
}
1002
{
1000
MANEDIT
1070
     0
1002
}
1002
{
1000
NOSEL
1070
     0
1002
}
1002
{
1000
BEHIND
1070
     0
1002
}
1002
{
1000
OTHER
1070
     0
1002
}
1002
{
1000
REACTOR
1002
}
1001
GENIUS_GENOBJ-N-FIL_13
1002
{
1000
OWNER
1000
GEN
1002
}
  0
LINE
  5
4537
  8
243
  6
HIDDEN2
 10
-102.3
 20
10.50000000000006
 30
0.0
 11
-101.43397459621551
 21
9.0000000000000568
 31
0.0
  0
LINE
  5
4538
  8
243
  6
HIDDEN2
 10
-101.43397459621551
 20
9.0000000000000568
 30
0.0
 11
-100.5679491924311
 21
8.5000000000000568
 31
0.0
  0
LINE
  5
453B
  8
243
  6
HIDDEN2
 10
-89.300000000000011
 20
3.000000000000056
 30
0.0
 11
-89.300000000000011
 21
6.000000000000056
 31
0.0
  0
LINE
  5
4542
  8
241
  6
CONTINUOUS
 10
22.49999999999994
 20
19.30000000000005
 30
0.0
 11
22.499999999999488
 21
-19.300000000000011
 31
0.0
  0
LINE
  5
4543
  8
242
  6
CONTINUOUS
 10
22.499999999999549
 20
-14.36140661634499
 30
0.0
 11
6.4999999999994307
 21
14.36140661634504
 31
0.0
  0
LINE
  5
4544
  8
240
  6
CONTINUOUS
 10
74.75
 20
19.5
 30
0.0
 11
75.5
 21
18.75
 31
0.0
  0
LINE
  5
4545
  8
240
  6
CONTINUOUS
 10
75.5
 20
-18.75
 30
0.0
 11
75.5
 21
18.75
 31
0.0
  0
LINE
  5
4546
  8
240
  6
CONTINUOUS
 10
74.75
 20
19.5
 30
0.0
 11
24.499999999999432
 21
19.500000000000028
 31
0.0
  0
LINE
  5
4547
  8
240
  6
CONTINUOUS
 10
75.5
 20
-18.75
 30
0.0
 11
74.75
 21
-19.5
 31
0.0
  0
LINE
  5
4548
  8
240
  6
CONTINUOUS
 10
74.75
 20
-19.5
 30
0.0
 11
24.499999999999432
 21
-19.5
 31
0.0
  0
LINE
  5
4549
  8
240
  6
CONTINUOUS
 10
24.29999999999945
 20
-19.300000000000011
 30
0.0
 11
22.499999999999432
 21
-19.300000000000011
 31
0.0
  0
LINE
  5
454A
  8
241
  6
CONTINUOUS
 10
74.75
 20
-19.5
 30
0.0
 11
74.75
 21
-14.084047975096921
 31
0.0
  0
LINE
  5
455D
  8
240
  6
CONTINUOUS
 10
22.499999999999432
 20
-19.300000000000011
 30
0.0
 11
20.2999999999995
 21
-21.49999999999995
 31
0.0
  0
LINE
  5
455E
  8
240
  6
CONTINUOUS
 10
24.29999999999945
 20
-19.300000000000011
 30
0.0
 11
24.499999999999432
 21
-19.5
 31
0.0
  0
LINE
  5
455F
  8
241
  6
CONTINUOUS
 10
24.499999999999432
 20
19.500000000000028
 30
0.0
 11
24.499999999999432
 21
-19.5
 31
0.0
  0
LINE
  5
4561
  8
240
  6
CONTINUOUS
 10
24.29999999999945
 20
19.300000000000011
 30
0.0
 11
22.499999999999432
 21
19.300000000000011
 31
0.0
  0
LINE
  5
4562
  8
240
  6
CONTINUOUS
 10
22.499999999999432
 20
19.300000000000011
 30
0.0
 11
20.2999999999995
 21
21.49999999999995
 31
0.0
  0
LINE
  5
4563
  8
240
  6
CONTINUOUS
 10
24.29999999999945
 20
19.300000000000011
 30
0.0
 11
24.499999999999432
 21
19.5
 31
0.0
  0
LINE
  5
4564
  8
241
  6
CONTINUOUS
 10
6.4999999999994307
 20
-14.36140661634499
 30
0.0
 11
22.499999999999549
 21
-14.36140661634499
 31
0.0
  0
POINT
  5
4567
  8
0
 10
14.0
 20
14.0
 30
0.0
1001
GENIUS_GENOENT_13
1002
{
1000
MYREF
1005
4567
1002
}
1002
{
1000
GRP
1005
0
1002
}
1001
GENIUS_GENOLIS_13
1002
{
1000
ENT
1005
0
1005
451B
1002
}
1001
GENIUS_GENOBJ-N-CHA_13
1002
{
1000
OWNER
1000
GEN
1002
}
1001
GENIUS_GENODEF_13
1002
{
1000
HIER
1070
     1
1002
}
1002
{
1000
MANEDIT
1070
     1
1002
}
1002
{
1000
NOSEL
1070
     0
1002
}
1002
{
1000
BEHIND
1070
     0
1002
}
1002
{
1000
OTHER
1070
     0
1002
}
1002
{
1000
REACTOR
1002
}
  0
LINE
  5
4568
  8
240
  6
CONTINUOUS
 10
0.0
 20
-15.63349999999957
 30
0.0
 11
0.3000000000009777
 21
-15.333500000000949
 31
0.0
  0
ARC
  5
4569
  8
240
  6
CONTINUOUS
 10
5.4999999999989759
 20
-16.33349999999956
 30
0.0
 40
1.0
 50
0.0
 51
90.0
1001
GENIUS_GENODEF_13
1002
{
1000
HIER
1070
     0
1002
}
1002
{
1000
MANEDIT
1070
     0
1002
}
1002
{
1000
NOSEL
1070
     0
1002
}
1002
{
1000
BEHIND
1070
     0
1002
}
1002
{
1000
OTHER
1070
     0
1002
}
1002
{
1000
REACTOR
1002
}
1001
GENIUS_GENOBJ-N-FIL_13
1002
{
1000
OWNER
1000
GEN
1002
}
  0
LINE
  5
456A
  8
241
  6
CONTINUOUS
 10
0.0
 20
-15.63349999999957
 30
0.0
 11
-0.0000000000002274
 21
15.6335000000002
 31
0.0
  0
LINE
  5
456C
  8
240
  6
CONTINUOUS
 10
0.2999999999996135
 20
-15.33349999999956
 30
0.0
 11
5.4999999999989759
 21
-15.33349999999956
 31
0.0
  0
LINE
  5
456D
  8
240
  6
CONTINUOUS
 10
-0.0000000000002274
 20
15.6335000000002
 30
0.0
 11
0.3000000000007503
 21
15.33350000000158
 31
0.0
  0
ARC
  5
456E
  8
240
  6
CONTINUOUS
 10
5.4999999999987486
 20
16.333500000000299
 30
0.0
 40
1.0
 50
270.0
 51
0.0
1001
GENIUS_GENODEF_13
1002
{
1000
HIER
1070
     0
1002
}
1002
{
1000
MANEDIT
1070
     0
1002
}
1002
{
1000
NOSEL
1070
     0
1002
}
1002
{
1000
BEHIND
1070
     0
1002
}
1002
{
1000
OTHER
1070
     0
1002
}
1002
{
1000
REACTOR
1002
}
1001
GENIUS_GENOBJ-N-FIL_13
1002
{
1000
OWNER
1000
GEN
1002
}
  0
LINE
  5
456F
  8
240
  6
CONTINUOUS
 10
0.2999999999992724
 20
15.33350000000018
 30
0.0
 11
5.4999999999987486
 21
15.333500000000299
 31
0.0
  0
LINE
  5
4570
  8
243
  6
HIDDEN2
 10
-89.300000000000011
 20
-5.999999999999952
 30
0.0
 11
-90.300000000000011
 21
-6.9999999999999512
 31
0.0
1001
GENIUS_GENFIL_13
1070
     0
1040
1.0
1040
1.0
1040
0.9999999999999715
1040
45.0
1000
~T
1001
GENIUS_GENOREF_13
1005
4584
  0
LINE
  5
4571
  8
243
  6
HIDDEN2
 10
-100.5679491924311
 20
-8.4999999999999432
 30
0.0
 11
-90.300000000000011
 21
-8.4999999999999503
 31
0.0
  0
LINE
  5
4573
  8
241
  6
CONTINUOUS
 10
-93.58393083773187
 20
13.216069162269539
 30
0.0
 11
-93.583930837731884
 21
8.3466157151618692
 31
0.0
  0
LINE
  5
4574
  8
243
  6
HIDDEN2
 10
-42.300000000000018
 20
-5.9999999999999822
 30
0.0
 11
-42.299999999999997
 21
6.000000000000056
 31
0.0
  0
LINE
  5
4575
  8
243
  6
HIDDEN2
 10
-42.300000000000018
 20
-5.9999999999999822
 30
0.0
 11
-38.835898384861991
 21
0.0000000000000163
 31
0.0
  0
LINE
  5
4576
  8
244
  6
HIDDEN2
 10
-52.299999999999962
 20
-6.9999999999999751
 30
0.0
 11
-50.567949192431008
 21
-5.999999999999976
 31
0.0
  0
LINE
  5
4578
  8
244
  6
HIDDEN2
 10
-90.300000000000011
 20
-6.9999999999999512
 30
0.0
 11
-52.299999999999962
 21
-6.9999999999999751
 31
0.0
  0
LINE
  5
4579
  8
243
  6
HIDDEN2
 10
-89.300000000000011
 20
-5.999999999999952
 30
0.0
 11
-42.300000000000018
 21
-5.9999999999999822
 31
0.0
  0
LINE
  5
457A
  8
243
  6
HIDDEN2
 10
-102.3
 20
-10.49999999999994
 30
0.0
 11
-101.43397459621551
 21
-8.9999999999999432
 31
0.0
  0
LINE
  5
457B
  8
243
  6
HIDDEN2
 10
-101.43397459621551
 20
-8.9999999999999432
 30
0.0
 11
-100.5679491924311
 21
-8.4999999999999432
 31
0.0
  0
LINE
  5
457C
  8
243
  6
HIDDEN2
 10
-90.300000000000011
 20
8.5000000000000568
 30
0.0
 11
-90.300000000000011
 21
-8.4999999999999503
 31
0.0
  0
LINE
  5
457D
  8
243
  6
HIDDEN2
 10
-52.299999999999962
 20
-6.9999999999999751
 30
0.0
 11
-52.299999999999947
 21
7.000000000000056
 31
0.0
  0
LINE
  5
457E
  8
243
  6
HIDDEN2
 10
-89.300000000000011
 20
-2.9999999999999512
 30
0.0
 11
-89.300000000000011
 21
-5.999999999999952
 31
0.0
  0
LINE
  5
4580
  8
242
  6
CONTINUOUS
 10
22.499999999999559
 20
14.36140661634502
 30
0.0
 11
6.4999999999994307
 21
-14.36140661634499
 31
0.0
  0
LINE
  5
4581
  8
241
  6
CONTINUOUS
 10
74.750000000000014
 20
19.5
 30
0.0
 11
74.750000000000014
 21
14.084047975096921
 31
0.0
  0
LINE
  5
4583
  8
241
  6
CONTINUOUS
 10
6.4999999999994396
 20
14.36140661634504
 30
0.0
 11
22.499999999999559
 21
14.36140661634502
 31
0.0
  0
POINT
  5
4584
  8
0
 10
13.999999999999989
 20
-13.999999999999959
 30
0.0
 50
360.0
1001
GENIUS_GENOENT_13
1002
{
1000
MYREF
1005
4584
1002
}
1002
{
1000
GRP
1005
0
1002
}
1001
GENIUS_GENOLIS_13
1002
{
1000
ENT
1005
0
1005
4570
1002
}
1001
GENIUS_GENOBJ-N-CHA_13
1002
{
1000
OWNER
1000
GEN
1002
}
1001
GENIUS_GENODEF_13
1002
{
1000
HIER
1070
     1
1002
}
1002
{
1000
MANEDIT
1070
     1
1002
}
1002
{
1000
NOSEL
1070
     0
1002
}
1002
{
1000
BEHIND
1070
     0
1002
}
1002
{
1000
OTHER
1070
     0
1002
}
1002
{
1000
REACTOR
1002
}
  0
LINE
  5
46B7
  8
243
  6
HIDDEN2
 10
49.449999999999989
 20
11.00000000000011
 30
0.0
 11
75.5
 21
11.00000000000011
 31
0.0
1001
GRPNAME
1000
PASTMD04
  0
LINE
  5
46B8
  8
243
  6
HIDDEN2
 10
49.449999999999989
 20
-11.00000000000011
 30
0.0
 11
75.5
 21
-11.00000000000011
 31
0.0
1001
GRPNAME
1000
PASTMD04
  0
CIRCLE
  5
46B9
  8
241
  6
CONTINUOUS
 10
65.5
 20
0.0
 30
0.0
 40
4.0
  0
LINE
  5
46BA
  8
245
  6
CENTER2
 10
65.5
 20
5.0
 30
0.0
 11
65.5
 21
-5.0
 31
0.0
  0
CIRCLE
  5
46BB
  8
242
  6
CONTINUOUS
 10
65.5
 20
0.0
 30
0.0
 40
3.5
  0
LINE
  5
46BC
  8
241
  6
CONTINUOUS
 10
63.5
 20
-1.1547005400000001
 30
0.0
 11
65.5
 21
-2.3094010800000002
 31
0.0
  0
LINE
  5
46BD
  8
241
  6
CONTINUOUS
 10
65.5
 20
-2.3094010800000002
 30
0.0
 11
67.5
 21
-1.1547005400000001
 31
0.0
  0
LINE
  5
46BE
  8
241
  6
CONTINUOUS
 10
67.5
 20
-1.1547005400000001
 30
0.0
 11
67.5
 21
1.1547005400000001
 31
0.0
  0
LINE
  5
46BF
  8
241
  6
CONTINUOUS
 10
67.5
 20
1.1547005400000001
 30
0.0
 11
65.5
 21
2.3094010800000002
 31
0.0
  0
LINE
  5
46C0
  8
241
  6
CONTINUOUS
 10
65.5
 20
2.3094010800000002
 30
0.0
 11
63.5
 21
1.1547005400000001
 31
0.0
  0
LINE
  5
46C1
  8
241
  6
CONTINUOUS
 10
63.5
 20
1.1547005400000001
 30
0.0
 11
63.5
 21
-1.1547005400000001
 31
0.0
  0
LINE
  5
46E6
  8
250
  6
CONTINUOUS
 10
-46.391380197716998
 20
-24.526610168385311
 30
0.0
 11
-32.677094483431311
 21
-24.526610168385311
 31
0.0
1001
ITEMNAME
1000
LNSP2
  0
TEXT
  5
46E7
  8
241
  6
CONTINUOUS
 10
-98.000000000000114
 20
35.000000000000313
 30
0.0
 40
4.0
  1
MT4M-CKB4-76-M14
  7
YOKO
  0
LINE
  5
46E8
  8
250
  6
CONTINUOUS
 10
92.548941824870525
 20
-35.187808274051449
 30
0.0
 11
82.00497528520269
 21
-35.187808274051449
 31
0.0
  0
LINE
  5
46E9
  8
250
  6
CONTINUOUS
 10
82.00497528520269
 20
-35.187808274051449
 30
0.0
 11
70.000735441985768
 21
-12.962101982391211
 31
0.0
  0
LINE
  5
46EA
  8
250
  6
CONTINUOUS
 10
70.000735441985768
 20
-12.962101982391211
 30
0.0
 11
68.940992166141626
 21
-11.00000000000011
 31
0.0
  0
LINE
  5
46EB
  8
250
  6
CONTINUOUS
 10
70.25905106733623
 20
-12.82258413394737
 30
0.0
 11
68.940992166141626
 21
-11.00000000000011
 31
0.0
  0
LINE
  5
46EC
  8
250
  6
CONTINUOUS
 10
68.940992166141626
 20
-11.00000000000011
 30
0.0
 11
69.742419816635348
 21
-13.10161983083505
 31
0.0
  0
LINE
  5
46ED
  8
250
  6
CONTINUOUS
 10
-54.881734198446217
 20
23.215276378274751
 30
0.0
 11
-76.593532985105853
 21
23.215276378274751
 31
0.0
  0
LINE
  5
46EE
  8
250
  6
CONTINUOUS
 10
-76.593532985105853
 20
23.215276378274751
 30
0.0
 11
-71.992048163969343
 21
9.1198984265167358
 31
0.0
  0
LINE
  5
46EF
  8
250
  6
CONTINUOUS
 10
-71.992048163969343
 20
9.1198984265167358
 30
0.0
 11
-71.300000000000097
 21
7.0000000000003118
 31
0.0
  0
LINE
  5
46F0
  8
250
  6
CONTINUOUS
 10
-72.271138085206545
 20
9.0287885576859228
 30
0.0
 11
-71.300000000000097
 21
7.0000000000003118
 31
0.0
  0
LINE
  5
46F1
  8
250
  6
CONTINUOUS
 10
-71.300000000000097
 20
7.0000000000003118
 30
0.0
 11
-71.712958242732086
 21
9.2110082953475523
 31
0.0
  0
LINE
  5
46F2
  8
250
  6
CONTINUOUS
 10
-0.5000000000001137
 20
-15.275733333332949
 30
0.0
 11
-8.5000000000006821
 21
-9.5514666666663501
 31
0.0
  0
LINE
  5
46F3
  8
250
  6
CONTINUOUS
 10
-0.5000000000001137
 20
15.99126666666699
 30
0.0
 11
-8.5000000000006803
 21
21.715533333333621
 31
0.0
  0
LINE
  5
46F4
  8
250
  6
CONTINUOUS
 10
-7.5000000000006839
 20
-8.0369999999996242
 30
0.0
 11
-7.5000000000006821
 21
18.77000000000033
 31
0.0
  0
TEXT
  5
46F5
  8
250
  6
CONTINUOUS
 10
-43.962808769145582
 20
-23.5266101683853
 30
0.0
 40
3.0
  1
MT4
  7
YOKO
1001
ITEMNAME
1000
LNSP3
  0
TEXT
  5
46F6
  8
250
  6
CONTINUOUS
 10
82.682275158203794
 20
-33.787808274051443
 30
0.0
 40
2.799999999999998
  1
CK4
  7
ACJISTS
  0
TEXT
  5
46F7
  8
250
  6
CONTINUOUS
 10
-75.28173419844623
 20
24.61527637827475
 30
0.0
 40
2.799999999999998
  1
M14P2.0
  7
ACJISTS
  0
TEXT
  5
46F8
  8
250
  6
CONTINUOUS
 10
-8.5000000000006821
 20
-3.8477857142853571
 30
0.0
 40
3.0
  1
\U+220531.267
 50
90.0
  0
LINE
  5
46F9
  8
250
  6
CONTINUOUS
 10
-7.8716666666673438
 20
18.77000000000033
 30
0.0
 11
-7.5000000000006821
 21
21.00000000000033
 31
0.0
  0
LINE
  5
46FA
  8
250
  6
CONTINUOUS
 10
-7.1283333333340151
 20
18.77000000000033
 30
0.0
 11
-7.5000000000006821
 21
21.00000000000033
 31
0.0
  0
LINE
  5
46FB
  8
250
  6
CONTINUOUS
 10
-7.5000000000006821
 20
21.00000000000033
 30
0.0
 11
-7.5000000000006821
 21
18.77000000000033
 31
0.0
  0
LINE
  5
46FC
  8
250
  6
CONTINUOUS
 10
-7.1283333333340169
 20
-8.0369999999996242
 30
0.0
 11
-7.5000000000006839
 21
-10.266999999999619
 31
0.0
  0
LINE
  5
46FD
  8
250
  6
CONTINUOUS
 10
-7.8716666666673554
 20
-8.0369999999996242
 30
0.0
 11
-7.5000000000006839
 21
-10.266999999999619
 31
0.0
  0
LINE
  5
46FE
  8
250
  6
CONTINUOUS
 10
-7.5000000000006839
 20
-10.266999999999619
 30
0.0
 11
-7.5000000000006839
 21
-8.0369999999996242
 31
0.0
  0
LINE
  5
46FF
  8
250
  6
CONTINUOUS
 10
-51.187494309386189
 20
-16.219496848076201
 30
0.0
 11
-46.391380197716998
 21
-24.526610168385311
 31
0.0
1001
ACAD
1000
DSTYLE
1002
{
1070
    76
1070
     1
1070
    78
1070
     8
1070
   140
1040
3.0
1070
   282
1070
     1
1002
}
  0
LINE
  5
4700
  8
250
  6
CONTINUOUS
 10
-51.509367084459392
 20
-16.405330181409528
 30
0.0
 11
-52.302494309386198
 21
-14.2882601976369
 31
0.0
  0
LINE
  5
4701
  8
250
  6
CONTINUOUS
 10
-50.865621534312979
 20
-16.033663514742859
 30
0.0
 11
-52.302494309386198
 21
-14.2882601976369
 31
0.0
  0
LINE
  5
4702
  8
250
  6
CONTINUOUS
 10
-52.302494309386198
 20
-14.2882601976369
 30
0.0
 11
-51.187494309386189
 21
-16.219496848076201
 31
0.0
  0
LINE
  5
4763
  8
250
  6
CONTINUOUS
 10
0.0
 20
-20.301324503311211
 30
0.0
 11
-0.000000000000001
 21
-36.0
 31
0.0
  0
LINE
  5
4764
  8
250
  6
CONTINUOUS
 10
75.5
 20
-19.25
 30
0.0
 11
75.5
 21
-36.0
 31
0.0
  0
LINE
  5
4765
  8
250
  6
CONTINUOUS
 10
2.2299999999999991
 20
-35.0
 30
0.0
 11
73.269999999999996
 21
-35.0
 31
0.0
  0
LINE
  5
4769
  8
250
  6
CONTINUOUS
 10
75.25
 20
-19.5
 30
0.0
 11
92.0
 21
-19.5
 31
0.0
  0
LINE
  5
476A
  8
250
  6
CONTINUOUS
 10
75.25
 20
19.5
 30
0.0
 11
92.0
 21
19.5
 31
0.0
  0
LINE
  5
476B
  8
250
  6
CONTINUOUS
 10
91.0
 20
-17.27
 30
0.0
 11
91.0
 21
17.269999999999989
 31
0.0
  0
TEXT
  5
476F
  8
250
  6
CONTINUOUS
 10
89.999999999999986
 20
-3.8666666666666529
 30
0.0
 40
2.7999999999999989
  1
\U+220539
 50
90.0
  0
LINE
  5
4770
  8
250
  6
CONTINUOUS
 10
90.62833333333333
 20
17.269999999999989
 30
0.0
 11
91.0
 21
19.5
 31
0.0
  0
LINE
  5
4771
  8
250
  6
CONTINUOUS
 10
91.37166666666667
 20
17.269999999999989
 30
0.0
 11
91.0
 21
19.5
 31
0.0
  0
LINE
  5
4772
  8
250
  6
CONTINUOUS
 10
91.0
 20
19.5
 30
0.0
 11
91.0
 21
17.269999999999989
 31
0.0
  0
LINE
  5
4773
  8
250
  6
CONTINUOUS
 10
91.37166666666667
 20
-17.27
 30
0.0
 11
91.0
 21
-19.5
 31
0.0
  0
LINE
  5
4774
  8
250
  6
CONTINUOUS
 10
90.62833333333333
 20
-17.27
 30
0.0
 11
91.0
 21
-19.5
 31
0.0
  0
LINE
  5
4775
  8
250
  6
CONTINUOUS
 10
91.0
 20
-19.5
 30
0.0
 11
91.0
 21
-17.27
 31
0.0
  0
TEXT
  5
4776
  8
250
  6
CONTINUOUS
 10
33.083333333333343
 20
-34.0
 30
0.0
 40
2.7999999999999989
  1
75.5
  0
LINE
  5
4777
  8
250
  6
CONTINUOUS
 10
73.269999999999996
 20
-34.62833333333333
 30
0.0
 11
75.5
 21
-35.0
 31
0.0
  0
LINE
  5
4778
  8
250
  6
CONTINUOUS
 10
73.269999999999996
 20
-35.37166666666667
 30
0.0
 11
75.5
 21
-35.0
 31
0.0
  0
LINE
  5
4779
  8
250
  6
CONTINUOUS
 10
75.5
 20
-35.0
 30
0.0
 11
73.269999999999996
 21
-35.0
 31
0.0
  0
LINE
  5
477A
  8
250
  6
CONTINUOUS
 10
2.2299999999999991
 20
-35.37166666666667
 30
0.0
 11
-0.0000000000000009
 21
-35.0
 31
0.0
  0
LINE
  5
477B
  8
250
  6
CONTINUOUS
 10
2.2299999999999991
 20
-34.62833333333333
 30
0.0
 11
-0.0000000000000009
 21
-35.0
 31
0.0
  0
LINE
  5
477C
  8
250
  6
CONTINUOUS
 10
-0.0000000000000009
 20
-35.0
 30
0.0
 11
2.2299999999999991
 21
-35.0
 31
0.0
  0
VIEWPORT
  5
22
 67
     1
  8
0
 10
261.51769911504419
 20
148.5
 30
0.0
 40
523.0353982300885
 41
297.0
 68
     1
 69
     1
1001
ACAD
1000
MVIEW
1002
{
1070
    16
1010
0.0
1020
0.0
1030
0.0
1010
0.0
1020
0.0
1030
1.0
1040
0.0
1040
297.0
1040
261.51769911504419
1040
148.5
1040
50.0
1040
0.0
1040
0.0
1070
     0
1070
   100
1070
     1
1070
     1
1070
     0
1070
     0
1070
     0
1070
     0
1040
0.0
1040
0.0
1040
0.0
1040
1.0
1040
1.0
1040
10.0
1040
10.0
1070
     0
1002
{
1002
}
1002
}
1001
GENIUS_GENODEF_13
1002
{
1000
HIER
1070
     0
1002
}
1002
{
1000
MANEDIT
1070
     0
1002
}
1002
{
1000
NOSEL
1070
     0
1002
}
1002
{
1000
BEHIND
1070
     0
1002
}
1002
{
1000
OTHER
1070
     0
1002
}
1002
{
1000
REACTOR
1002
}
1001
GENIUS_GENOBJ-N-SDF_13
1002
{
1000
OWNER
1000
GEN
1002
}
1001
GENIUS_GENSCREG_15
1000
PF
1040
1.0
1000
DF
1040
1.0
1000
MIN
1011
0.0
1021
0.0
1031
0.0
1021
0.0
1031
0.0
1000
MAX
1011
523.0353982300885
1021
0.0
1031
0.0
1021
297.0
1031
0.0
1000
FLAGS
1070
     4
  0
ENDSEC
  0
EOF
