  0
SECTION
  2
HEADER
  9
$ACADVER
  1
AC1009
  9
$INSBASE
 10
0.0
 20
0.0
 30
0.0
  9
$EXTMIN
 10
-106.0439924314102
 20
-36.0
 30
0.0
  9
$EXTMAX
 10
99.0
 20
39.000000000000043
 30
0.0
  9
$LIMMIN
 10
0.0
 20
0.0
  9
$LIMMAX
 10
297.0
 20
210.0
  9
$ORTHOMODE
 70
     0
  9
$REGENMODE
 70
     1
  9
$FILLMODE
 70
     1
  9
$QTEXTMODE
 70
     0
  9
$MIRRTEXT
 70
     1
  9
$DRAGMODE
 70
     2
  9
$LTSCALE
 40
10.0
  9
$OSMODE
 70
     7
  9
$ATTMODE
 70
     1
  9
$TEXTSIZE
 40
3.0
  9
$TRACEWID
 40
1.0
  9
$TEXTSTYLE
  7
YOKO
  9
$CLAYER
  8
240
  9
$CELTYPE
  6
BYLAYER
  9
$CECOLOR
 62
   256
  9
$DIMSCALE
 40
1.0
  9
$DIMASZ
 40
2.2299999999999991
  9
$DIMEXO
 40
0.5
  9
$DIMDLI
 40
7.0
  9
$DIMRND
 40
0.0
  9
$DIMDLE
 40
0.0
  9
$DIMEXE
 40
1.0
  9
$DIMTP
 40
0.0
  9
$DIMTM
 40
0.01
  9
$DIMTXT
 40
2.7999999999999989
  9
$DIMCEN
 40
0.0
  9
$DIMTSZ
 40
0.0
  9
$DIMTOL
 70
     0
  9
$DIMLIM
 70
     0
  9
$DIMTIH
 70
     0
  9
$DIMTOH
 70
     0
  9
$DIMSE1
 70
     0
  9
$DIMSE2
 70
     0
  9
$DIMTAD
 70
     3
  9
$DIMZIN
 70
     9
  9
$DIMBLK
  1
OPEN
  9
$DIMASO
 70
     1
  9
$DIMSHO
 70
     1
  9
$DIMPOST
  1

  9
$DIMAPOST
  1

  9
$DIMALT
 70
     0
  9
$DIMALTD
 70
     2
  9
$DIMALTF
 40
25.399999999999999
  9
$DIMLFAC
 40
1.0
  9
$DIMTOFL
 70
     1
  9
$DIMTVP
 40
0.0
  9
$DIMTIX
 70
     1
  9
$DIMSOXD
 70
     0
  9
$DIMSAH
 70
     0
  9
$DIMBLK1
  1

  9
$DIMBLK2
  1

  9
$DIMSTYLE
  2
BIGT
  9
$DIMCLRD
 70
   256
  9
$DIMCLRE
 70
   256
  9
$DIMCLRT
 70
    40
  9
$DIMTFAC
 40
1.0
  9
$DIMGAP
 40
1.0
  9
$LUNITS
 70
     2
  9
$LUPREC
 70
     6
  9
$SKETCHINC
 40
1.0
  9
$FILLETRAD
 40
0.0
  9
$AUNITS
 70
     0
  9
$AUPREC
 70
     6
  9
$MENU
  1
.
  9
$ELEVATION
 40
0.0
  9
$PELEVATION
 40
0.0
  9
$THICKNESS
 40
0.0
  9
$LIMCHECK
 70
     0
  9
$BLIPMODE
 70
     0
  9
$CHAMFERA
 40
0.2
  9
$CHAMFERB
 40
0.2
  9
$SKPOLY
 70
     0
  9
$TDCREATE
 40
2460557.470365915
  9
$TDUPDATE
 40
2460557.4914326281
  9
$TDINDWG
 40
0.0082345602
  9
$TDUSRTIMER
 40
0.0082344792
  9
$USRTIMER
 70
     1
  9
$ANGBASE
 50
0.0
  9
$ANGDIR
 70
     0
  9
$PDMODE
 70
     1
  9
$PDSIZE
 40
0.0
  9
$PLINEWID
 40
0.0
  9
$COORDS
 70
     1
  9
$SPLFRAME
 70
     0
  9
$SPLINETYPE
 70
     6
  9
$SPLINESEGS
 70
     4
  9
$ATTDIA
 70
     1
  9
$ATTREQ
 70
     1
  9
$HANDLING
 70
     1
  9
$HANDSEED
  5
4972
  9
$SURFTAB1
 70
     6
  9
$SURFTAB2
 70
     6
  9
$SURFTYPE
 70
     6
  9
$SURFU
 70
     6
  9
$SURFV
 70
     6
  9
$UCSNAME
  2

  9
$UCSORG
 10
0.0
 20
0.0
 30
0.0
  9
$UCSXDIR
 10
1.0
 20
0.0
 30
0.0
  9
$UCSYDIR
 10
0.0
 20
1.0
 30
0.0
  9
$PUCSNAME
  2

  9
$PUCSORG
 10
0.0
 20
0.0
 30
0.0
  9
$PUCSXDIR
 10
1.0
 20
0.0
 30
0.0
  9
$PUCSYDIR
 10
0.0
 20
1.0
 30
0.0
  9
$USERI1
 70
     1
  9
$USERI2
 70
     0
  9
$USERI3
 70
     0
  9
$USERI4
 70
     0
  9
$USERI5
 70
     0
  9
$USERR1
 40
0.0
  9
$USERR2
 40
0.0
  9
$USERR3
 40
0.0
  9
$USERR4
 40
0.0
  9
$USERR5
 40
0.0
  9
$WORLDVIEW
 70
     1
  9
$SHADEDGE
 70
     3
  9
$SHADEDIF
 70
    70
  9
$TILEMODE
 70
     1
  9
$MAXACTVP
 70
    16
  9
$PLIMCHECK
 70
     0
  9
$PEXTMIN
 10
1.0000000000000000E+020
 20
1.0000000000000000E+020
 30
1.0000000000000000E+020
  9
$PEXTMAX
 10
-1.0000000000000000E+020
 20
-1.0000000000000000E+020
 30
-1.0000000000000000E+020
  9
$PLIMMIN
 10
0.0
 20
0.0
  9
$PLIMMAX
 10
420.0
 20
297.0
  9
$UNITMODE
 70
     0
  9
$VISRETAIN
 70
     1
  9
$PLINEGEN
 70
     0
  9
$PSLTSCALE
 70
     1
  0
ENDSEC
  0
SECTION
  2
TABLES
  0
TABLE
  2
VPORT
 70
     1
  0
VPORT
  2
*ACTIVE
 70
     0
 10
0.0
 20
0.0
 11
1.0
 21
1.0
 12
-8.8874418172808571
 22
-7.9314304500668831
 13
0.0
 23
0.0
 14
7.0
 24
7.0
 15
7.0
 25
7.0
 16
0.0
 26
0.0
 36
1.0
 17
0.0
 27
0.0
 37
0.0
 40
183.4996953959629
 41
1.495118549511854
 42
50.0
 43
0.0
 44
0.0
 50
0.0
 51
0.0
 71
     0
 72
  2000
 73
     1
 74
     0
 75
     1
 76
     1
 77
     0
 78
     0
  0
ENDTAB
  0
TABLE
  2
LTYPE
 70
    16
  0
LTYPE
  2
CONTINUOUS
 70
     0
  3
Solid line
 72
    65
 73
     0
 40
0.0
  0
LTYPE
  2
CENTER2
 70
     0
  3
___ _ ___ _ ___ _ ___ _ ___ _ ___ _ ___ _ ___ _
 72
    65
 73
     4
 40
1.125
 49
0.75
 49
-0.125
 49
0.125
 49
-0.125
  0
LTYPE
  2
HIDDEN2
 70
     0
  3
_ _ _ _ _ _ _ _ _ _ _ _ _ _ _ _ _ _ _ _ _ _ _ _
 72
    65
 73
     2
 40
0.1875
 49
0.125
 49
-0.0625
  0
LTYPE
  2
PHANTOM2
 70
     0
  3
___ _ _ ___ _ _ ___ _ _ ___ _ _ ___ _ _ ___ _ _
 72
    65
 73
     6
 40
1.25
 49
0.625
 49
-0.125
 49
0.125
 49
-0.125
 49
0.125
 49
-0.125
  0
LTYPE
  2
AM_ISO02W050
 70
     0
  3
__ __ __ __ __ __ __ __ __ __ __ __ __ __ __
 72
    65
 73
     2
 40
7.5
 49
6.0
 49
-1.5
  0
LTYPE
  2
AMCONSTR
 70
     0
  3
_______________________
 72
    65
 73
     2
 40
9999.0
 49
9999.0
 49
0.0
  0
LTYPE
  2
ACISOWELD
 70
     0
  3
_ _ _ _ _
 72
    65
 73
     2
 40
2.0
 49
2.0
 49
-1.0
  0
LTYPE
  2
ACISOTGB
 70
     0
  3
__ . . __ . .
 72
    65
 73
     6
 40
9.0
 49
4.0
 49
-1.0
 49
1.0
 49
-1.0
 49
1.0
 49
-1.0
  0
LTYPE
  2
ACISOTGL
 70
     0
  3
_ _ _ _ _
 72
    65
 73
     2
 40
3.0
 49
2.0
 49
-1.0
  0
LTYPE
  2
ACJISTGB
 70
     0
  3
__ . . __ . .
 72
    65
 73
     6
 40
9.0
 49
4.0
 49
-1.0
 49
1.0
 49
-1.0
 49
1.0
 49
-1.0
  0
LTYPE
  2
ACJISTGL
 70
     0
  3
_ _ _ _ _
 72
    65
 73
     2
 40
3.0
 49
2.0
 49
-1.0
  0
ENDTAB
  0
TABLE
  2
LAYER
 70
     9
  0
LAYER
  2
0
 70
     0
 62
     7
  6
CONTINUOUS
  0
LAYER
  2
DEFPOINTS
 70
     0
 62
     7
  6
CONTINUOUS
  0
LAYER
  2
245
 70
     0
 62
     2
  6
CENTER2
  0
LAYER
  2
240
 70
     0
 62
     4
  6
CONTINUOUS
  0
LAYER
  2
241
 70
     0
 62
   211
  6
CONTINUOUS
  0
LAYER
  2
242
 70
     0
 62
     3
  6
CONTINUOUS
  0
LAYER
  2
243
 70
     0
 62
   211
  6
HIDDEN2
  0
LAYER
  2
244
 70
     0
 62
     3
  6
HIDDEN2
  0
LAYER
  2
250
 70
     0
 62
     3
  6
CONTINUOUS
  0
ENDTAB
  0
TABLE
  2
STYLE
 70
     7
  0
STYLE
  2
STANDARD
 70
     0
 40
0.0
 41
1.0
 50
0.0
 71
     0
 42
3.0
  3
romans.shx
  4
extfont.shx
  0
STYLE
  2
ACISOTS
 70
     0
 40
1.0
 41
1.0
 50
0.0
 71
     0
 42
3.0
  3
amgdt.shx
  4
extfont.shx
  0
STYLE
  2
ACISOGDT
 70
     0
 40
0.0
 41
1.0
 50
0.0
 71
     0
 42
3.0
  3
amgdt.shx
  4
extfont.shx
  0
STYLE
  2
ACJISTS
 70
     0
 40
1.0
 41
1.0
 50
0.0
 71
     0
 42
3.0
  3
amgdt.shx
  4
extfont.shx
  0
STYLE
  2
ACJISGDT
 70
     0
 40
0.0
 41
1.0
 50
0.0
 71
     0
 42
3.0
  3
amgdt.shx
  4
extfont.shx
  0
STYLE
  2
YOKO
 70
     0
 40
0.0
 41
1.0
 50
0.0
 71
     0
 42
3.0
  3
romans.shx
  4
extfont.shx
  0
ENDTAB
  0
TABLE
  2
VIEW
 70
     0
  0
ENDTAB
  0
TABLE
  2
UCS
 70
     0
  0
ENDTAB
  0
TABLE
  2
APPID
 70
    39
  0
APPID
  2
ACAD
 70
     0
  0
APPID
  2
GLOBAL
 70
     0
  0
APPID
  2
DETAIL
 70
     0
  0
APPID
  2
GRPNAME
 70
     0
  0
APPID
  2
GPARA
 70
     0
  0
APPID
  2
MCAD_NO_VIS
 70
     0
  0
APPID
  2
ACAD_TEMP_GRAPHIC
 70
     0
  0
APPID
  2
ACATTRIBSERVICES
 70
     0
  0
APPID
  2
GENIUS_GENSCREG_15
 70
     0
  0
APPID
  2
GENIUS_GENODEF_13
 70
     0
  0
APPID
  2
GENIUS_GENOBJ-N-SDF_13
 70
     0
  0
APPID
  2
GENIUS_GENREC_14
 70
     0
  0
APPID
  2
GENIUS_GENOBJ-N-REC_13
 70
     0
  0
APPID
  2
GENIUS_GENDIMSH_14
 70
     0
  0
APPID
  2
GENIUS_GENOBJ-N-DIM_13
 70
     0
  0
APPID
  2
GENIUS_GENDIM_13
 70
     0
  0
APPID
  2
GENIUS_GENDTOL_13
 70
     0
  0
APPID
  2
GENIUS_GENOLIS_13
 70
     0
  0
APPID
  2
GENIUS_GENOENT_13
 70
     0
  0
APPID
  2
GENIUS_GENOBJ-F-FEM_13
 70
     0
  0
APPID
  2
GENIUS_GENOREF_13
 70
     0
  0
APPID
  2
GENIUS_GEFFEM_13
 70
     0
  0
APPID
  2
GENIUS_GEFFEMP_13
 70
     0
  0
APPID
  2
AD_DRAW
 70
     0
  0
APPID
  2
DESIGNERASSEMBLIES
 70
     0
  0
APPID
  2
ACADM_DIM_EDIT
 70
     0
  0
APPID
  2
AMDT_DM_ADJ
 70
     0
  0
APPID
  2
ITEMNAME
 70
     0
  0
APPID
  2
GENIUS_GENOBJ-N-FIL_13
 70
     0
  0
APPID
  2
GENIUS_GENFIL_13
 70
     0
  0
APPID
  2
GENIUS_GENOBJ-N-CHA_13
 70
     0
  0
APPID
  2
ACAD_NAV_VCDISPLAY
 70
     0
  0
APPID
  2
ACAECLAYERSTANDARD
 70
     0
  0
APPID
  2
ACAD_PSEXT
 70
     0
  0
APPID
  2
GENIUS_GENOBJ-N-ZOO_13
 70
     0
  0
APPID
  2
GENIUS_GENZOO_17
 70
     0
  0
APPID
  2
ACAD_EXEMPT_FROM_CAD_STANDARDS
 70
     0
  0
APPID
  2
ACAD_DSTYLE_DIMINSPECT
 70
     0
  0
APPID
  2
ACAD_MLEADERVER
 70
     0
  0
ENDTAB
  0
TABLE
  2
DIMSTYLE
 70
    29
  0
DIMSTYLE
  2
BIGT
 70
     0
  3

  4

  5
OPEN
  6

  7

 40
1.0
 41
2.2299999999999991
 42
0.5
 43
7.0
 44
1.0
 45
0.0
 46
0.0
 47
0.0
 48
0.01
140
2.7999999999999989
141
0.0
142
0.0
143
25.399999999999999
144
1.0
145
0.0
146
1.0
147
1.0
 71
     0
 72
     0
 73
     0
 74
     0
 75
     0
 76
     0
 77
     3
 78
     9
170
     0
171
     2
172
     1
173
     0
174
     1
175
     0
176
   256
177
   256
178
    40
  0
DIMSTYLE
  2
AM_ISO
 70
     0
  3

  4
"
  5

  6

  7

 40
1.0
 41
2.5
 42
1.0
 43
10.0
 44
1.0
 45
0.0
 46
0.0
 47
0.1
 48
0.1
140
3.5
141
0.0
142
0.0
143
0.0393701
144
1.0
145
0.0
146
0.71
147
1.5
 71
     0
 72
     0
 73
     0
 74
     0
 75
     0
 76
     0
 77
     1
 78
     8
170
     0
171
     2
172
     1
173
     0
174
     0
175
     0
176
   256
177
   256
178
     2
  0
DIMSTYLE
  2
AM_ISO$3
 70
     0
  3

  4
"
  5

  6

  7

 40
1.0
 41
2.5
 42
1.0
 43
10.0
 44
1.0
 45
0.0
 46
0.0
 47
0.1
 48
0.1
140
3.5
141
0.0
142
0.0
143
0.0393701
144
1.0
145
0.0
146
0.71
147
1.5
 71
     0
 72
     0
 73
     0
 74
     1
 75
     0
 76
     0
 77
     1
 78
     8
170
     0
171
     2
172
     0
173
     0
174
     0
175
     0
176
   256
177
   256
178
     2
  0
DIMSTYLE
  2
AM_ISO$4
 70
     0
  3

  4
"
  5

  6

  7

 40
1.0
 41
2.5
 42
1.0
 43
10.0
 44
1.0
 45
0.0
 46
0.0
 47
0.1
 48
0.1
140
3.5
141
0.0
142
0.0
143
0.0393701
144
1.0
145
0.0
146
0.71
147
1.5
 71
     0
 72
     0
 73
     0
 74
     1
 75
     0
 76
     0
 77
     1
 78
     8
170
     0
171
     2
172
     0
173
     0
174
     0
175
     0
176
   256
177
   256
178
     2
  0
DIMSTYLE
  2
AM_ISO$6
 70
     0
  3

  4
"
  5

  6

  7

 40
1.0
 41
2.5
 42
1.0
 43
10.0
 44
1.0
 45
0.0
 46
0.0
 47
0.1
 48
0.1
140
3.5
141
0.0
142
0.0
143
0.0393701
144
1.0
145
0.0
146
0.71
147
1.5
 71
     0
 72
     0
 73
     0
 74
     0
 75
     0
 76
     0
 77
     0
 78
     8
170
     0
171
     2
172
     1
173
     0
174
     0
175
     0
176
   256
177
   256
178
     2
  0
DIMSTYLE
  2
AM_ISO$7
 70
     0
  3

  4
"
  5

  6

  7

 40
1.0
 41
2.5
 42
1.0
 43
10.0
 44
1.0
 45
0.0
 46
0.0
 47
0.1
 48
0.1
140
5.0
141
0.0
142
0.0
143
0.0393701
144
1.0
145
0.0
146
0.71
147
1.5
 71
     0
 72
     0
 73
     0
 74
     0
 75
     0
 76
     0
 77
     1
 78
     8
170
     0
171
     2
172
     1
173
     0
174
     0
175
     0
176
   256
177
   256
178
     2
  0
DIMSTYLE
  2
AM_ISO$SF
 70
     0
  3

  4
"
  5

  6

  7

 40
1.0
 41
2.5
 42
1.0
 43
10.0
 44
1.0
 45
0.0
 46
0.0
 47
0.1
 48
0.1
140
3.5
141
0.0
142
0.0
143
0.0393701
144
1.0
145
0.0
146
0.71
147
1.5
 71
     0
 72
     0
 73
     0
 74
     0
 75
     1
 76
     1
 77
     1
 78
     8
170
     0
171
     2
172
     1
173
     0
174
     0
175
     0
176
   256
177
   256
178
     2
  0
DIMSTYLE
  2
AM_ISO$SH
 70
     0
  3

  4
"
  5

  6
GENAXEH
  7

 40
1.0
 41
2.5
 42
1.0
 43
10.0
 44
1.0
 45
0.0
 46
0.0
 47
0.1
 48
0.1
140
3.5
141
0.0
142
0.0
143
0.0393701
144
2.0
145
0.0
146
0.71
147
1.5
 71
     0
 72
     0
 73
     0
 74
     0
 75
     1
 76
     1
 77
     1
 78
     8
170
     0
171
     2
172
     1
173
     1
174
     0
175
     0
176
   256
177
   256
178
     2
  0
DIMSTYLE
  2
BIGT$2
 70
     0
  3

  4

  5
OPEN
  6

  7

 40
1.0
 41
2.2299999999999991
 42
0.5
 43
7.0
 44
1.0
 45
0.0
 46
0.0
 47
0.0
 48
0.01
140
2.7999999999999989
141
0.0
142
0.0
143
25.399999999999999
144
1.0
145
0.0
146
1.0
147
1.0
 71
     0
 72
     0
 73
     0
 74
     0
 75
     0
 76
     0
 77
     3
 78
     9
170
     0
171
     2
172
     1
173
     0
174
     0
175
     0
176
   256
177
   256
178
    40
  0
DIMSTYLE
  2
BIGT$3
 70
     0
  3

  4

  5
OPEN
  6

  7

 40
1.0
 41
2.2299999999999991
 42
0.5
 43
2.5
 44
1.0
 45
0.0
 46
0.0
 47
0.0
 48
0.01
140
2.7999999999999989
141
0.0
142
0.0
143
25.399999999999999
144
1.0
145
0.0
146
1.0
147
1.0
 71
     0
 72
     0
 73
     0
 74
     0
 75
     0
 76
     0
 77
     3
 78
     9
170
     0
171
     2
172
     1
173
     0
174
     0
175
     0
176
   256
177
   256
178
    40
  0
DIMSTYLE
  2
BIGT$7
 70
     0
  3

  4

  5
OPEN
  6

  7

 40
0.0
 41
2.2299999999999991
 42
0.5
 43
7.0
 44
1.0
 45
0.0
 46
0.0
 47
0.0
 48
0.01
140
2.7999999999999989
141
0.0
142
0.0
143
25.399999999999999
144
1.0
145
0.0
146
1.0
147
1.0
 71
     0
 72
     0
 73
     0
 74
     0
 75
     0
 76
     0
 77
     3
 78
     9
170
     0
171
     2
172
     0
173
     0
174
     0
175
     0
176
   256
177
   256
178
    40
  0
DIMSTYLE
  2
BIGT$6
 70
     0
  3

  4

  5
OPEN
  6

  7

 40
1.0
 41
2.2299999999999991
 42
0.5
 43
2.5
 44
1.0
 45
0.0
 46
0.0
 47
0.0
 48
0.01
140
2.7999999999999989
141
0.0
142
0.0
143
25.399999999999999
144
1.0
145
0.0
146
1.0
147
1.0
 71
     0
 72
     0
 73
     0
 74
     0
 75
     0
 76
     0
 77
     3
 78
     9
170
     0
171
     2
172
     1
173
     0
174
     0
175
     0
176
   256
177
   256
178
    40
  0
DIMSTYLE
  2
BIGT$0
 70
     0
  3

  4

  5
OPEN
  6

  7

 40
1.0
 41
2.2299999999999991
 42
0.5
 43
7.0
 44
1.0
 45
0.0
 46
0.0
 47
0.0
 48
0.01
140
2.7999999999999989
141
0.0
142
0.0
143
25.399999999999999
144
1.0
145
0.0
146
1.0
147
1.0
 71
     0
 72
     0
 73
     0
 74
     0
 75
     0
 76
     0
 77
     3
 78
     9
170
     0
171
     2
172
     1
173
     0
174
     1
175
     0
176
   256
177
   256
178
    40
  0
DIMSTYLE
  2
BIGT$4
 70
     0
  3

  4

  5
OPEN
  6

  7

 40
1.0
 41
2.2299999999999991
 42
0.5
 43
2.5
 44
1.0
 45
0.0
 46
0.0
 47
0.0
 48
0.01
140
2.7999999999999989
141
0.0
142
0.0
143
25.399999999999999
144
1.0
145
0.0
146
1.0
147
1.0
 71
     0
 72
     0
 73
     0
 74
     0
 75
     0
 76
     0
 77
     3
 78
     9
170
     0
171
     2
172
     1
173
     0
174
     0
175
     0
176
   256
177
   256
178
    40
  0
DIMSTYLE
  2
BIGT$SH
 70
     0
  3

  4

  5
OPEN
  6

  7

 40
1.0
 41
2.2299999999999991
 42
0.5
 43
7.0
 44
1.0
 45
0.0
 46
0.0
 47
0.0
 48
0.0
140
2.7999999999999989
141
0.0
142
0.0
143
25.399999999999999
144
1.0
145
0.0
146
1.0
147
1.0
 71
     0
 72
     0
 73
     0
 74
     0
 75
     0
 76
     0
 77
     3
 78
     9
170
     0
171
     2
172
     1
173
     0
174
     0
175
     0
176
   256
177
   256
178
    40
  0
DIMSTYLE
  2
BIGT$SF
 70
     0
  3

  4

  5
OPEN
  6

  7

 40
1.0
 41
2.2299999999999991
 42
0.5
 43
7.0
 44
1.0
 45
0.0
 46
0.0
 47
0.0
 48
0.0
140
2.7999999999999989
141
0.0
142
0.0
143
25.399999999999999
144
1.0
145
0.0
146
1.0
147
1.0
 71
     0
 72
     0
 73
     0
 74
     0
 75
     0
 76
     0
 77
     3
 78
     9
170
     0
171
     2
172
     1
173
     0
174
     0
175
     0
176
   256
177
   256
178
    40
  0
DIMSTYLE
  2
TECHNICAL_OSAKA
 70
     0
  3

  4
"
  5
OPEN30
  6

  7

 40
1.0
 41
2.5
 42
1.0
 43
10.0
 44
1.0
 45
0.0
 46
0.0
 47
0.1
 48
0.1
140
2.7999999999999989
141
0.0
142
0.0
143
0.0393701
144
1.0
145
0.0
146
0.71
147
1.5
 71
     0
 72
     0
 73
     0
 74
     0
 75
     0
 76
     0
 77
     3
 78
     8
170
     0
171
     2
172
     1
173
     0
174
     0
175
     0
176
   256
177
   256
178
    40
  0
DIMSTYLE
  2
TECHNICAL_OSAKA$3
 70
     0
  3

  4
"
  5
OPEN30
  6

  7

 40
1.0
 41
2.5
 42
1.0
 43
10.0
 44
1.0
 45
0.0
 46
0.0
 47
0.1
 48
0.1
140
2.7999999999999989
141
0.0
142
0.0
143
0.0393701
144
1.0
145
0.0
146
0.71
147
1.5
 71
     0
 72
     0
 73
     0
 74
     1
 75
     0
 76
     0
 77
     3
 78
     8
170
     0
171
     2
172
     0
173
     0
174
     0
175
     0
176
   256
177
   256
178
    40
  0
DIMSTYLE
  2
TECHNICAL_OSAKA$4
 70
     0
  3

  4
"
  5
OPEN30
  6

  7

 40
1.0
 41
2.5
 42
1.0
 43
10.0
 44
1.0
 45
0.0
 46
0.0
 47
0.1
 48
0.1
140
2.7999999999999989
141
0.0
142
0.0
143
0.0393701
144
1.0
145
0.0
146
0.71
147
1.5
 71
     0
 72
     0
 73
     0
 74
     1
 75
     0
 76
     0
 77
     3
 78
     8
170
     0
171
     2
172
     0
173
     0
174
     0
175
     0
176
   256
177
   256
178
    40
  0
DIMSTYLE
  2
TECHNICAL_OSAKA$6
 70
     0
  3

  4
"
  5
OPEN30
  6

  7

 40
1.0
 41
2.5
 42
1.0
 43
10.0
 44
1.0
 45
0.0
 46
0.0
 47
0.1
 48
0.1
140
2.7999999999999989
141
0.0
142
0.0
143
0.0393701
144
1.0
145
0.0
146
0.71
147
1.5
 71
     0
 72
     0
 73
     0
 74
     0
 75
     0
 76
     0
 77
     0
 78
     8
170
     0
171
     2
172
     1
173
     0
174
     0
175
     0
176
   256
177
   256
178
    40
  0
DIMSTYLE
  2
TECHNICAL_OSAKA$7
 70
     0
  3

  4
"
  5
OPEN30
  6

  7

 40
1.0
 41
2.5
 42
1.0
 43
10.0
 44
1.0
 45
0.0
 46
0.0
 47
0.1
 48
0.1
140
2.7999999999999989
141
0.0
142
0.0
143
0.0393701
144
1.0
145
0.0
146
0.71
147
1.5
 71
     0
 72
     0
 73
     0
 74
     0
 75
     0
 76
     0
 77
     3
 78
     8
170
     0
171
     2
172
     1
173
     0
174
     0
175
     0
176
   256
177
   256
178
    40
  0
DIMSTYLE
  2
TECHNICAL_OSAKA$SF
 70
     0
  3

  4
"
  5
OPEN30
  6
OPEN30
  7
OPEN30
 40
1.0
 41
2.5
 42
1.0
 43
10.0
 44
1.0
 45
0.0
 46
0.0
 47
0.1
 48
0.1
140
3.5
141
0.0
142
0.0
143
0.0393701
144
1.0
145
0.0
146
0.71
147
1.5
 71
     0
 72
     0
 73
     0
 74
     0
 75
     1
 76
     1
 77
     3
 78
     8
170
     0
171
     2
172
     1
173
     0
174
     0
175
     0
176
   256
177
   256
178
    40
  0
DIMSTYLE
  2
TECHNICAL_OSAKA$SH
 70
     0
  3

  4
"
  5
OPEN30
  6
GENAXEH
  7
OPEN30
 40
1.0
 41
2.5
 42
1.0
 43
10.0
 44
1.0
 45
0.0
 46
0.0
 47
0.1
 48
0.1
140
3.5
141
0.0
142
0.0
143
0.0393701
144
2.0
145
0.0
146
0.71
147
1.5
 71
     0
 72
     0
 73
     0
 74
     0
 75
     1
 76
     1
 77
     3
 78
     8
170
     0
171
     2
172
     1
173
     1
174
     0
175
     0
176
   256
177
   256
178
    40
  0
ENDTAB
  0
ENDSEC
  0
SECTION
  2
BLOCKS
  0
BLOCK
  8
0
  2
$MODEL_SPACE
 70
     0
 10
0.0
 20
0.0
 30
0.0
  3
$MODEL_SPACE
  1

  0
ENDBLK
  5
1C
  8
0
  0
BLOCK
 67
     1
  8
0
  2
$PAPER_SPACE
 70
     0
 10
0.0
 20
0.0
 30
0.0
  3
$PAPER_SPACE
  1

  0
ENDBLK
  5
19
 67
     1
  8
0
  0
BLOCK
  8
0
  2
_OPEN
 70
     0
 10
0.0
 20
0.0
 30
0.0
  3
_OPEN
  1

  0
LINE
  5
4879
  8
0
  6
BYBLOCK
 62
     0
 10
-1.0
 20
0.1666666666666666
 30
0.0
 11
0.0
 21
0.0
 31
0.0
  0
LINE
  5
487A
  8
0
  6
BYBLOCK
 62
     0
 10
-1.0
 20
-0.1666666666666666
 30
0.0
 11
0.0
 21
0.0
 31
0.0
  0
LINE
  5
487B
  8
0
  6
BYBLOCK
 62
     0
 10
0.0
 20
0.0
 30
0.0
 11
-1.0
 21
0.0
 31
0.0
  0
ENDBLK
  5
487C
  8
0
  0
BLOCK
  8
0
  2
GENAXEH
 70
     0
 10
0.0
 20
0.0
 30
0.0
  3
GENAXEH
  1

  0
LINE
  5
48B4
  8
0
 10
-1.0
 20
0.0
 30
0.0
 11
1.0
 21
0.0
 31
0.0
  0
ENDBLK
  5
48B5
  8
0
  0
BLOCK
  8
0
  2
_OPEN30
 70
     0
 10
0.0
 20
0.0
 30
0.0
  3
_OPEN30
  1

  0
LINE
  5
48F0
  8
0
  6
BYBLOCK
 62
     0
 10
-1.0
 20
0.26794919
 30
0.0
 11
0.0
 21
0.0
 31
0.0
  0
LINE
  5
48F1
  8
0
  6
BYBLOCK
 62
     0
 10
0.0
 20
0.0
 30
0.0
 11
-1.0
 21
-0.26794919
 31
0.0
  0
LINE
  5
48F2
  8
0
  6
BYBLOCK
 62
     0
 10
0.0
 20
0.0
 30
0.0
 11
-1.0
 21
0.0
 31
0.0
  0
ENDBLK
  5
48F3
  8
0
  0
ENDSEC
  0
SECTION
  2
ENTITIES
  0
ARC
  5
4545
  8
240
  6
CONTINUOUS
 10
-101.3
 20
11.5
 30
0.0
 40
1.0
 50
90.0
 51
180.0
  0
LINE
  5
4547
  8
243
  6
HIDDEN2
 10
-89.299999999999983
 20
6.0
 30
0.0
 11
-90.299999999999983
 21
7.0
 31
0.0
1001
GENIUS_GENFIL_13
1070
     0
1040
1.0
1040
1.0
1040
0.9999999999999715
1040
45.0
1000
~T
1001
GENIUS_GENOREF_13
1005
45A3
  0
LINE
  5
4548
  8
240
  6
CONTINUOUS
 10
-102.3
 20
-11.5
 30
0.0
 11
-102.3
 21
11.5
 31
0.0
  0
ARC
  5
4549
  8
240
  6
CONTINUOUS
 10
-101.3
 20
-11.5
 30
0.0
 40
1.0
 50
180.0
 51
270.0
  0
LINE
  5
454A
  8
240
  6
CONTINUOUS
 10
6.4999999999994591
 20
-16.333499999999589
 30
0.0
 11
6.4999999999994307
 21
-20.5
 31
0.0
  0
LINE
  5
454B
  8
240
  6
CONTINUOUS
 10
22.49999999999946
 20
-18.499999999999972
 30
0.0
 11
22.499999999999432
 21
-20.5
 31
0.0
  0
ARC
  5
454C
  8
240
  6
CONTINUOUS
 10
25.49999999999946
 20
-18.5
 30
0.0
 40
3.0
 50
90.0
 51
180.0
1001
GENIUS_GENODEF_13
1002
{
1000
HIER
1070
     0
1002
}
1002
{
1000
MANEDIT
1070
     0
1002
}
1002
{
1000
NOSEL
1070
     0
1002
}
1002
{
1000
BEHIND
1070
     0
1002
}
1002
{
1000
OTHER
1070
     0
1002
}
1002
{
1000
REACTOR
1002
}
1001
GENIUS_GENOBJ-N-FIL_13
1002
{
1000
OWNER
1000
GEN
1002
}
  0
LINE
  5
454D
  8
240
  6
CONTINUOUS
 10
21.499999999999432
 20
-21.5
 30
0.0
 11
22.499999999999432
 21
-20.5
 31
0.0
1001
GENIUS_GENFIL_13
1070
     0
1040
1.0
1040
1.0
1040
0.9999999999999715
1040
45.0
1000
~T
1001
GENIUS_GENOREF_13
1005
45A2
  0
LINE
  5
454E
  8
240
  6
CONTINUOUS
 10
-101.3
 20
-12.5
 30
0.0
 11
-94.300000000001319
 21
-12.5
 31
0.0
  0
LINE
  5
454F
  8
240
  6
CONTINUOUS
 10
-93.583930837731884
 20
-13.216069162269489
 30
0.0
 11
-94.300000000001319
 21
-12.5
 31
0.0
  0
LINE
  5
4550
  8
240
  6
CONTINUOUS
 10
-93.583930837731884
 20
-13.216069162269489
 30
0.0
 11
0.0
 21
-15.633499999999939
 31
0.0
  0
LINE
  5
4551
  8
243
  6
HIDDEN2
 10
-100.5679491924311
 20
8.5
 30
0.0
 11
-90.299999999999983
 21
8.5
 31
0.0
  0
LINE
  5
4552
  8
241
  6
CONTINUOUS
 10
6.4999999999994307
 20
16.333499999999159
 30
0.0
 11
6.4999999999994307
 21
-16.333499999999159
 31
0.0
  0
LINE
  5
4555
  8
243
  6
HIDDEN2
 10
-42.299999999999983
 20
6.0
 30
0.0
 11
-38.835898384861991
 21
0.0
 31
0.0
  0
LINE
  5
4556
  8
244
  6
HIDDEN2
 10
-52.299999999999983
 20
7.0
 30
0.0
 11
-50.567949192431023
 21
6.0
 31
0.0
  0
LINE
  5
4557
  8
245
  6
CENTER2
 10
0.0
 20
-19.80132450331126
 30
0.0
 11
0.0
 21
19.22421948912017
 31
0.0
  0
LINE
  5
4558
  8
240
  6
CONTINUOUS
 10
6.4999999999994591
 20
16.242750064302129
 30
0.0
 11
6.4999999999994307
 21
20.5
 31
0.0
  0
LINE
  5
4559
  8
241
  6
CONTINUOUS
 10
-94.299999999999983
 20
-12.5
 30
0.0
 11
-94.299999999999983
 21
12.5
 31
0.0
  0
LINE
  5
455A
  8
240
  6
CONTINUOUS
 10
-93.583930837731899
 20
13.216069162269489
 30
0.0
 11
-94.300000000001319
 21
12.5
 31
0.0
  0
LINE
  5
455B
  8
240
  6
CONTINUOUS
 10
-101.3
 20
12.5
 30
0.0
 11
-94.300000000001319
 21
12.5
 31
0.0
  0
LINE
  5
455C
  8
240
  6
CONTINUOUS
 10
-93.583930837731899
 20
13.216069162269489
 30
0.0
 11
-0.0000000000000284
 21
15.633499999999939
 31
0.0
  0
LINE
  5
455E
  8
245
  6
CENTER2
 10
-106.0439924314102
 20
0.0
 30
0.0
 11
88.520573085859553
 21
0.0
 31
0.0
  0
LINE
  5
4560
  8
244
  6
HIDDEN2
 10
-90.299999999999983
 20
7.0
 30
0.0
 11
-52.299999999999983
 21
7.0
 31
0.0
  0
LINE
  5
4561
  8
243
  6
HIDDEN2
 10
-89.299999999999983
 20
6.0
 30
0.0
 11
-42.299999999999983
 21
6.0
 31
0.0
  0
LINE
  5
4562
  8
240
  6
CONTINUOUS
 10
50.500000000000028
 20
-15.049999999999979
 30
0.0
 11
52.299999999999983
 21
-15.049999999999979
 31
0.0
  0
LINE
  5
4563
  8
240
  6
CONTINUOUS
 10
7.4999999999994307
 20
21.5
 30
0.0
 11
21.499999999999751
 21
21.5
 31
0.0
  0
LINE
  5
4564
  8
240
  6
CONTINUOUS
 10
22.499999999999751
 20
20.5
 30
0.0
 11
21.499999999999751
 21
21.5
 31
0.0
1001
GENIUS_GENFIL_13
1070
     0
1040
1.0
1040
1.0
1040
0.9999999999999715
1040
44.999999999999901
1000
~T
1001
GENIUS_GENOREF_13
1005
45A1
  0
ARC
  5
4565
  8
240
  6
CONTINUOUS
 10
7.4999999999994307
 20
20.5
 30
0.0
 40
1.0
 50
90.0
 51
180.0
1001
GENIUS_GENOBJ-N-FIL_13
1002
{
1000
OWNER
1000
GEN
1002
}
1001
GENIUS_GENODEF_13
1002
{
1000
HIER
1070
     0
1002
}
1002
{
1000
MANEDIT
1070
     0
1002
}
1002
{
1000
NOSEL
1070
     0
1002
}
1002
{
1000
BEHIND
1070
     0
1002
}
1002
{
1000
OTHER
1070
     0
1002
}
1002
{
1000
REACTOR
1002
}
  0
LINE
  5
4566
  8
240
  6
CONTINUOUS
 10
7.4999999999994307
 20
-21.5
 30
0.0
 11
21.499999999999432
 21
-21.5
 31
0.0
  0
ARC
  5
4567
  8
240
  6
CONTINUOUS
 10
7.4999999999994307
 20
-20.5
 30
0.0
 40
1.0
 50
180.0
 51
270.0
1001
GENIUS_GENODEF_13
1002
{
1000
HIER
1070
     0
1002
}
1002
{
1000
MANEDIT
1070
     0
1002
}
1002
{
1000
NOSEL
1070
     0
1002
}
1002
{
1000
BEHIND
1070
     0
1002
}
1002
{
1000
OTHER
1070
     0
1002
}
1002
{
1000
REACTOR
1002
}
1001
GENIUS_GENOBJ-N-FIL_13
1002
{
1000
OWNER
1000
GEN
1002
}
  0
LINE
  5
4569
  8
243
  6
HIDDEN2
 10
-102.3
 20
10.5
 30
0.0
 11
-101.43397459621551
 21
9.0
 31
0.0
  0
LINE
  5
456A
  8
243
  6
HIDDEN2
 10
-101.43397459621551
 20
9.0
 30
0.0
 11
-100.5679491924311
 21
8.5
 31
0.0
  0
LINE
  5
456E
  8
243
  6
HIDDEN2
 10
-89.300000000000011
 20
3.0
 30
0.0
 11
-89.300000000000026
 21
6.0
 31
0.0
  0
LINE
  5
4570
  8
240
  6
CONTINUOUS
 10
22.499999999999751
 20
20.5
 30
0.0
 11
22.499999999999751
 21
18.5
 31
0.0
  0
LINE
  5
4572
  8
240
  6
CONTINUOUS
 10
49.720577136594038
 20
-15.49999999999997
 30
0.0
 11
50.500000000000028
 21
-15.049999999999979
 31
0.0
  0
LINE
  5
4573
  8
240
  6
CONTINUOUS
 10
52.5
 20
-15.25
 30
0.0
 11
52.299999999999983
 21
-15.05000000000001
 31
0.0
  0
LINE
  5
4574
  8
241
  6
CONTINUOUS
 10
6.4999999999994307
 20
-14.36140661634508
 30
0.0
 11
22.499999999999488
 21
-14.36140661634508
 31
0.0
  0
LINE
  5
4577
  8
240
  6
CONTINUOUS
 10
49.720577136594017
 20
-15.5
 30
0.0
 11
25.49999999999946
 21
-15.5
 31
0.0
  0
LINE
  5
4578
  8
240
  6
CONTINUOUS
 10
85.500000000000057
 20
-14.75
 30
0.0
 11
85.500000000000057
 21
14.75
 31
0.0
  0
LINE
  5
4579
  8
240
  6
CONTINUOUS
 10
49.720577136594038
 20
15.49999999999997
 30
0.0
 11
25.499999999999741
 21
15.5
 31
0.0
  0
ARC
  5
457A
  8
240
  6
CONTINUOUS
 10
25.499999999999741
 20
18.5
 30
0.0
 40
3.0
 50
180.0
 51
270.0
1001
GENIUS_GENOBJ-N-FIL_13
1002
{
1000
OWNER
1000
GEN
1002
}
1001
GENIUS_GENODEF_13
1002
{
1000
HIER
1070
     0
1002
}
1002
{
1000
MANEDIT
1070
     0
1002
}
1002
{
1000
NOSEL
1070
     0
1002
}
1002
{
1000
BEHIND
1070
     0
1002
}
1002
{
1000
OTHER
1070
     0
1002
}
1002
{
1000
REACTOR
1002
}
  0
LINE
  5
458C
  8
240
  6
CONTINUOUS
 10
52.500000000000028
 20
-15.25
 30
0.0
 11
85.000000000000057
 21
-15.25
 31
0.0
  0
LINE
  5
458D
  8
240
  6
CONTINUOUS
 10
52.499999999999773
 20
15.25
 30
0.0
 11
85.000000000000057
 21
15.25
 31
0.0
  0
LINE
  5
458E
  8
240
  6
CONTINUOUS
 10
85.500000000000057
 20
-14.75
 30
0.0
 11
85.500000000000057
 21
14.75
 31
0.0
  0
LINE
  5
458F
  8
241
  6
CONTINUOUS
 10
50.500000000000028
 20
-15.049999999999979
 30
0.0
 11
50.500000000000028
 21
15.049999999999979
 31
0.0
  0
LINE
  5
4590
  8
240
  6
CONTINUOUS
 10
85.000000000000057
 20
15.25
 30
0.0
 11
85.500000000000057
 21
14.75
 31
0.0
  0
LINE
  5
4591
  8
240
  6
CONTINUOUS
 10
85.500000000000057
 20
-14.75
 30
0.0
 11
85.000000000000057
 21
-15.25
 31
0.0
  0
LINE
  5
4593
  8
241
  6
CONTINUOUS
 10
85.000000000000057
 20
-15.25
 30
0.0
 11
85.000000000000057
 21
-12.668777749360631
 31
0.0
  0
LINE
  5
4597
  8
240
  6
CONTINUOUS
 10
50.499999999999893
 20
15.05000000000007
 30
0.0
 11
52.299999999999841
 21
15.05000000000009
 31
0.0
  0
LINE
  5
4598
  8
240
  6
CONTINUOUS
 10
49.720577136593903
 20
15.50000000000006
 30
0.0
 11
50.499999999999893
 21
15.05000000000007
 31
0.0
  0
LINE
  5
4599
  8
240
  6
CONTINUOUS
 10
52.499999999999851
 20
15.25000000000011
 30
0.0
 11
52.299999999999841
 21
15.05000000000012
 31
0.0
  0
POINT
  5
45A1
  8
0
 10
0.0000000000000284
 20
9.4978682230453444
 30
0.0
1001
GENIUS_GENOLIS_13
1002
{
1000
ENT
1005
0
1005
4564
1002
}
1001
GENIUS_GENOENT_13
1002
{
1000
MYREF
1005
45A1
1002
}
1002
{
1000
GRP
1005
0
1002
}
1001
GENIUS_GENOBJ-N-CHA_13
1002
{
1000
OWNER
1000
GEN
1002
}
1001
GENIUS_GENODEF_13
1002
{
1000
HIER
1070
     1
1002
}
1002
{
1000
MANEDIT
1070
     1
1002
}
1002
{
1000
NOSEL
1070
     0
1002
}
1002
{
1000
BEHIND
1070
     0
1002
}
1002
{
1000
OTHER
1070
     0
1002
}
1002
{
1000
REACTOR
1002
}
  0
POINT
  5
45A2
  8
0
 10
0.0000000000000284
 20
9.4978682230453444
 30
0.0
1001
GENIUS_GENOENT_13
1002
{
1000
MYREF
1005
45A2
1002
}
1002
{
1000
GRP
1005
0
1002
}
1001
GENIUS_GENOLIS_13
1002
{
1000
ENT
1005
0
1005
454D
1002
}
1001
GENIUS_GENOBJ-N-CHA_13
1002
{
1000
OWNER
1000
GEN
1002
}
1001
GENIUS_GENODEF_13
1002
{
1000
HIER
1070
     1
1002
}
1002
{
1000
MANEDIT
1070
     1
1002
}
1002
{
1000
NOSEL
1070
     0
1002
}
1002
{
1000
BEHIND
1070
     0
1002
}
1002
{
1000
OTHER
1070
     0
1002
}
1002
{
1000
REACTOR
1002
}
  0
POINT
  5
45A3
  8
0
 10
0.0000000000000284
 20
9.4978682230453444
 30
0.0
1001
GENIUS_GENOENT_13
1002
{
1000
MYREF
1005
45A3
1002
}
1002
{
1000
GRP
1005
0
1002
}
1001
GENIUS_GENOLIS_13
1002
{
1000
ENT
1005
0
1005
4547
1002
}
1001
GENIUS_GENOBJ-N-CHA_13
1002
{
1000
OWNER
1000
GEN
1002
}
1001
GENIUS_GENODEF_13
1002
{
1000
HIER
1070
     1
1002
}
1002
{
1000
MANEDIT
1070
     1
1002
}
1002
{
1000
NOSEL
1070
     0
1002
}
1002
{
1000
BEHIND
1070
     0
1002
}
1002
{
1000
OTHER
1070
     0
1002
}
1002
{
1000
REACTOR
1002
}
  0
LINE
  5
45A8
  8
240
  6
CONTINUOUS
 10
-0.0000000000000284
 20
-15.6334999999996
 30
0.0
 11
0.3000000000009493
 21
-15.33350000000098
 31
0.0
  0
ARC
  5
45A9
  8
240
  6
CONTINUOUS
 10
5.4999999999989484
 20
-16.333499999999589
 30
0.0
 40
1.0
 50
0.0
 51
90.0
1001
GENIUS_GENODEF_13
1002
{
1000
HIER
1070
     0
1002
}
1002
{
1000
MANEDIT
1070
     0
1002
}
1002
{
1000
NOSEL
1070
     0
1002
}
1002
{
1000
BEHIND
1070
     0
1002
}
1002
{
1000
OTHER
1070
     0
1002
}
1002
{
1000
REACTOR
1002
}
1001
GENIUS_GENOBJ-N-FIL_13
1002
{
1000
OWNER
1000
GEN
1002
}
  0
LINE
  5
45AA
  8
241
  6
CONTINUOUS
 10
-0.0000000000000284
 20
-15.6334999999996
 30
0.0
 11
0.0
 21
15.633499999999909
 31
0.0
  0
LINE
  5
45AC
  8
240
  6
CONTINUOUS
 10
0.299999999999585
 20
-15.33349999999959
 30
0.0
 11
5.4999999999989484
 21
-15.33349999999959
 31
0.0
  0
LINE
  5
45AD
  8
240
  6
CONTINUOUS
 10
-0.0000000000002558
 20
15.63350000000017
 30
0.0
 11
0.3000000000007219
 21
15.33350000000155
 31
0.0
  0
ARC
  5
45AE
  8
240
  6
CONTINUOUS
 10
5.499999999998721
 20
16.333500000000271
 30
0.0
 40
1.0
 50
270.0
 51
0.0
1001
GENIUS_GENODEF_13
1002
{
1000
HIER
1070
     0
1002
}
1002
{
1000
MANEDIT
1070
     0
1002
}
1002
{
1000
NOSEL
1070
     0
1002
}
1002
{
1000
BEHIND
1070
     0
1002
}
1002
{
1000
OTHER
1070
     0
1002
}
1002
{
1000
REACTOR
1002
}
1001
GENIUS_GENOBJ-N-FIL_13
1002
{
1000
OWNER
1000
GEN
1002
}
  0
LINE
  5
45AF
  8
240
  6
CONTINUOUS
 10
0.299999999999244
 20
15.33350000000015
 30
0.0
 11
5.499999999998721
 21
15.333500000000271
 31
0.0
  0
LINE
  5
45B6
  8
243
  6
HIDDEN2
 10
-89.299999999999983
 20
-6.0
 30
0.0
 11
-90.299999999999983
 21
-7.0
 31
0.0
1001
GENIUS_GENFIL_13
1070
     0
1040
1.0
1040
1.0
1040
0.9999999999999715
1040
45.0
1000
~T
1001
GENIUS_GENOREF_13
1005
45CB
  0
LINE
  5
45B7
  8
243
  6
HIDDEN2
 10
-100.5679491924311
 20
-8.5
 30
0.0
 11
-90.299999999999983
 21
-8.5
 31
0.0
  0
LINE
  5
45B9
  8
243
  6
HIDDEN2
 10
-42.299999999999983
 20
-6.0
 30
0.0
 11
-42.299999999999983
 21
6.0
 31
0.0
  0
LINE
  5
45BA
  8
243
  6
HIDDEN2
 10
-42.299999999999983
 20
-6.0
 30
0.0
 11
-38.835898384861991
 21
0.0
 31
0.0
  0
LINE
  5
45BB
  8
244
  6
HIDDEN2
 10
-52.299999999999983
 20
-7.0
 30
0.0
 11
-50.567949192431023
 21
-6.0
 31
0.0
  0
LINE
  5
45BD
  8
244
  6
HIDDEN2
 10
-90.299999999999983
 20
-7.0
 30
0.0
 11
-52.299999999999983
 21
-7.0
 31
0.0
  0
LINE
  5
45BE
  8
243
  6
HIDDEN2
 10
-89.299999999999983
 20
-6.0
 30
0.0
 11
-42.299999999999983
 21
-6.0
 31
0.0
  0
LINE
  5
45BF
  8
243
  6
HIDDEN2
 10
-102.3
 20
-10.5
 30
0.0
 11
-101.43397459621551
 21
-9.0
 31
0.0
  0
LINE
  5
45C0
  8
243
  6
HIDDEN2
 10
-101.43397459621551
 20
-9.0
 30
0.0
 11
-100.5679491924311
 21
-8.5
 31
0.0
  0
LINE
  5
45C1
  8
243
  6
HIDDEN2
 10
-90.299999999999969
 20
8.5
 30
0.0
 11
-90.299999999999983
 21
-8.5
 31
0.0
  0
LINE
  5
45C2
  8
243
  6
HIDDEN2
 10
-52.299999999999983
 20
-7.0
 30
0.0
 11
-52.299999999999983
 21
7.0
 31
0.0
  0
LINE
  5
45C3
  8
243
  6
HIDDEN2
 10
-89.300000000000011
 20
-3.0
 30
0.0
 11
-89.300000000000026
 21
-6.0
 31
0.0
  0
LINE
  5
45C4
  8
241
  6
CONTINUOUS
 10
52.5
 20
-15.25
 30
0.0
 11
52.5
 21
15.25
 31
0.0
  0
LINE
  5
45C5
  8
241
  6
CONTINUOUS
 10
22.499999999999801
 20
-18.499999999999972
 30
0.0
 11
22.49999999999946
 21
18.499999999999972
 31
0.0
  0
LINE
  5
45C6
  8
241
  6
CONTINUOUS
 10
6.4999999999994307
 20
14.36140661634508
 30
0.0
 11
22.499999999999488
 21
14.36140661634508
 31
0.0
  0
LINE
  5
45C7
  8
242
  6
CONTINUOUS
 10
22.499999999999488
 20
14.36140661634508
 30
0.0
 11
6.4999999999994307
 21
-14.36140661634508
 31
0.0
  0
LINE
  5
45C8
  8
242
  6
CONTINUOUS
 10
22.499999999999488
 20
-14.36140661634508
 30
0.0
 11
6.4999999999994307
 21
14.36140661634508
 31
0.0
  0
LINE
  5
45CA
  8
241
  6
CONTINUOUS
 10
85.000000000000057
 20
15.25
 30
0.0
 11
85.000000000000057
 21
12.668777749360631
 31
0.0
  0
POINT
  5
45CB
  8
0
 10
0.0000000000000284
 20
-9.4978682230453444
 30
0.0
1001
GENIUS_GENOENT_13
1002
{
1000
MYREF
1005
45CB
1002
}
1002
{
1000
GRP
1005
0
1002
}
1001
GENIUS_GENOLIS_13
1002
{
1000
ENT
1005
0
1005
45B6
1002
}
1001
GENIUS_GENOBJ-N-CHA_13
1002
{
1000
OWNER
1000
GEN
1002
}
1001
GENIUS_GENODEF_13
1002
{
1000
HIER
1070
     1
1002
}
1002
{
1000
MANEDIT
1070
     1
1002
}
1002
{
1000
NOSEL
1070
     0
1002
}
1002
{
1000
BEHIND
1070
     0
1002
}
1002
{
1000
OTHER
1070
     0
1002
}
1002
{
1000
REACTOR
1002
}
  0
LINE
  5
4676
  8
243
  6
HIDDEN2
 10
63.450000000000067
 20
8.9999999999999716
 30
0.0
 11
85.500000000000057
 21
8.9999999999999716
 31
0.0
  0
LINE
  5
4677
  8
243
  6
HIDDEN2
 10
63.450000000000088
 20
-8.9999999999999805
 30
0.0
 11
85.500000000000071
 21
-8.9999999999999432
 31
0.0
  0
CIRCLE
  5
4678
  8
242
  6
CONTINUOUS
 10
77.499999999999275
 20
0.0
 30
0.0
 40
2.649999999999999
  0
CIRCLE
  5
4679
  8
241
  6
CONTINUOUS
 10
77.499999999999275
 20
0.0
 30
0.0
 40
3.1000000000000001
  0
LINE
  5
467A
  8
245
  6
CENTER2
 10
77.499999999999275
 20
4.0999999999999961
 30
0.0
 11
77.499999999999275
 21
-4.0999999999999961
 31
0.0
  0
LINE
  5
467B
  8
241
  6
CONTINUOUS
 10
75.999999999999275
 20
-0.8660254
 30
0.0
 11
77.499999999999275
 21
-1.7320508100000001
 31
0.0
  0
LINE
  5
467C
  8
241
  6
CONTINUOUS
 10
77.499999999999275
 20
-1.7320508100000001
 30
0.0
 11
78.999999999999261
 21
-0.8660254
 31
0.0
  0
LINE
  5
467D
  8
241
  6
CONTINUOUS
 10
78.999999999999261
 20
-0.8660254
 30
0.0
 11
78.999999999999261
 21
0.8660254
 31
0.0
  0
LINE
  5
467E
  8
241
  6
CONTINUOUS
 10
78.999999999999261
 20
0.8660254
 30
0.0
 11
77.499999999999275
 21
1.7320508100000001
 31
0.0
  0
LINE
  5
467F
  8
241
  6
CONTINUOUS
 10
77.499999999999275
 20
1.7320508100000001
 30
0.0
 11
75.999999999999275
 21
0.8660254
 31
0.0
  0
LINE
  5
4680
  8
241
  6
CONTINUOUS
 10
75.999999999999275
 20
0.8660254
 30
0.0
 11
75.999999999999275
 21
-0.8660254
 31
0.0
  0
LINE
  5
46A5
  8
250
  6
CONTINUOUS
 10
-46.391380197716899
 20
-24.52661016838562
 30
0.0
 11
-32.677094483431212
 21
-24.52661016838562
 31
0.0
1001
ITEMNAME
1000
LNSP2
  0
TEXT
  5
46A6
  8
241
  6
CONTINUOUS
 10
-98.000000000000014
 20
35.0
 30
0.0
 40
4.0
  1
MT4M-CKB3-86-M14
  7
YOKO
  0
LINE
  5
46A7
  8
250
  6
CONTINUOUS
 10
98.082949658728978
 20
-33.187808274051299
 30
0.0
 11
87.538983119061143
 21
-33.187808274051299
 31
0.0
  0
LINE
  5
46A8
  8
250
  6
CONTINUOUS
 10
87.538983119061143
 20
-33.187808274051299
 30
0.0
 11
75.534743275844221
 21
-10.96210198239106
 31
0.0
  0
LINE
  5
46A9
  8
250
  6
CONTINUOUS
 10
75.534743275844221
 20
-10.96210198239106
 30
0.0
 11
74.47500000000008
 21
-8.9999999999999591
 31
0.0
  0
LINE
  5
46AA
  8
250
  6
CONTINUOUS
 10
75.793058901194684
 20
-10.82258413394722
 30
0.0
 11
74.47500000000008
 21
-8.9999999999999591
 31
0.0
  0
LINE
  5
46AB
  8
250
  6
CONTINUOUS
 10
74.47500000000008
 20
-8.9999999999999591
 30
0.0
 11
75.276427650493801
 21
-11.101619830834901
 31
0.0
  0
LINE
  5
46AC
  8
250
  6
CONTINUOUS
 10
-54.881734198446132
 20
23.215276378274439
 30
0.0
 11
-76.593532985105753
 21
23.215276378274439
 31
0.0
  0
LINE
  5
46AD
  8
250
  6
CONTINUOUS
 10
-76.593532985105753
 20
23.215276378274439
 30
0.0
 11
-71.992048163969244
 21
9.1198984265164231
 31
0.0
  0
LINE
  5
46AE
  8
250
  6
CONTINUOUS
 10
-71.992048163969244
 20
9.1198984265164231
 30
0.0
 11
-71.299999999999983
 21
7.0
 31
0.0
  0
LINE
  5
46AF
  8
250
  6
CONTINUOUS
 10
-72.271138085206459
 20
9.0287885576856102
 30
0.0
 11
-71.299999999999983
 21
7.0
 31
0.0
  0
LINE
  5
46B0
  8
250
  6
CONTINUOUS
 10
-71.299999999999983
 20
7.0
 30
0.0
 11
-71.712958242731986
 21
9.2110082953472396
 31
0.0
  0
LINE
  5
46B1
  8
250
  6
CONTINUOUS
 10
-0.5000000000000142
 20
-15.275733333333269
 30
0.0
 11
-8.5000000000005844
 21
-9.5514666666666646
 31
0.0
  0
LINE
  5
46B2
  8
250
  6
CONTINUOUS
 10
-0.5000000000000142
 20
15.991266666666681
 30
0.0
 11
-8.5000000000005809
 21
21.715533333333301
 31
0.0
  0
LINE
  5
46B3
  8
250
  6
CONTINUOUS
 10
-7.5000000000005853
 20
-8.0369999999999369
 30
0.0
 11
-7.5000000000005818
 21
18.770000000000021
 31
0.0
  0
TEXT
  5
46B4
  8
250
  6
CONTINUOUS
 10
-43.962808769145482
 20
-23.526610168385609
 30
0.0
 40
3.0
  1
MT4
  7
YOKO
1001
ITEMNAME
1000
LNSP3
  0
TEXT
  5
46B5
  8
250
  6
CONTINUOUS
 10
88.216282992062247
 20
-31.787808274051301
 30
0.0
 40
2.799999999999998
  1
CK3
  7
ACJISTS
  0
TEXT
  5
46B6
  8
250
  6
CONTINUOUS
 10
-75.281734198446131
 20
24.615276378274441
 30
0.0
 40
2.799999999999998
  1
M14P2.0
  7
ACJISTS
  0
TEXT
  5
46B7
  8
250
  6
CONTINUOUS
 10
-8.5000000000005844
 20
-3.8477857142856702
 30
0.0
 40
3.0
  1
\U+220531.267
 50
90.0
  0
LINE
  5
46B8
  8
250
  6
CONTINUOUS
 10
-7.8716666666672452
 20
18.770000000000021
 30
0.0
 11
-7.5000000000005818
 21
21.000000000000021
 31
0.0
  0
LINE
  5
46B9
  8
250
  6
CONTINUOUS
 10
-7.1283333333339156
 20
18.770000000000021
 30
0.0
 11
-7.5000000000005818
 21
21.000000000000021
 31
0.0
  0
LINE
  5
46BA
  8
250
  6
CONTINUOUS
 10
-7.5000000000005818
 20
21.000000000000021
 30
0.0
 11
-7.5000000000005818
 21
18.770000000000021
 31
0.0
  0
LINE
  5
46BB
  8
250
  6
CONTINUOUS
 10
-7.1283333333339183
 20
-8.0369999999999369
 30
0.0
 11
-7.5000000000005853
 21
-10.266999999999941
 31
0.0
  0
LINE
  5
46BC
  8
250
  6
CONTINUOUS
 10
-7.871666666667255
 20
-8.0369999999999369
 30
0.0
 11
-7.5000000000005853
 21
-10.266999999999941
 31
0.0
  0
LINE
  5
46BD
  8
250
  6
CONTINUOUS
 10
-7.5000000000005853
 20
-10.266999999999941
 30
0.0
 11
-7.5000000000005853
 21
-8.0369999999999369
 31
0.0
  0
LINE
  5
46BE
  8
250
  6
CONTINUOUS
 10
-51.187494309386089
 20
-16.21949684807651
 30
0.0
 11
-46.391380197716899
 21
-24.52661016838562
 31
0.0
1001
ACAD
1000
DSTYLE
1002
{
1070
    76
1070
     1
1070
    78
1070
     8
1070
   140
1040
3.0
1070
   282
1070
     1
1002
}
  0
LINE
  5
46BF
  8
250
  6
CONTINUOUS
 10
-51.509367084459299
 20
-16.405330181409841
 30
0.0
 11
-52.302494309386091
 21
-14.288260197637211
 31
0.0
  0
LINE
  5
46C0
  8
250
  6
CONTINUOUS
 10
-50.865621534312872
 20
-16.033663514743179
 30
0.0
 11
-52.302494309386091
 21
-14.288260197637211
 31
0.0
  0
LINE
  5
46C1
  8
250
  6
CONTINUOUS
 10
-52.302494309386091
 20
-14.288260197637211
 30
0.0
 11
-51.187494309386089
 21
-16.21949684807651
 31
0.0
  0
LINE
  5
4734
  8
250
  6
CONTINUOUS
 10
0.0
 20
-20.301324503311271
 30
0.0
 11
-0.000000000000001
 21
-36.0
 31
0.0
  0
LINE
  5
4735
  8
250
  6
CONTINUOUS
 10
85.500000000000057
 20
-15.25
 30
0.0
 11
85.500000000000057
 21
-36.0
 31
0.0
  0
LINE
  5
4736
  8
250
  6
CONTINUOUS
 10
2.2299999999999991
 20
-35.0
 30
0.0
 11
83.270000000000053
 21
-35.0
 31
0.0
  0
LINE
  5
473A
  8
250
  6
CONTINUOUS
 10
85.500000000000057
 20
15.25
 30
0.0
 11
99.0
 21
15.25
 31
0.0
  0
LINE
  5
473B
  8
250
  6
CONTINUOUS
 10
85.500000000000057
 20
-15.25
 30
0.0
 11
99.0
 21
-15.25
 31
0.0
  0
LINE
  5
473C
  8
250
  6
CONTINUOUS
 10
98.0
 20
13.02
 30
0.0
 11
98.0
 21
-13.02
 31
0.0
  0
TEXT
  5
4740
  8
250
  6
CONTINUOUS
 10
96.999999999999986
 20
-5.9333333333333167
 30
0.0
 40
2.7999999999999989
  1
\U+220530.5
 50
90.0
  0
LINE
  5
4741
  8
250
  6
CONTINUOUS
 10
98.371666666666684
 20
-13.02
 30
0.0
 11
98.0
 21
-15.25
 31
0.0
  0
LINE
  5
4742
  8
250
  6
CONTINUOUS
 10
97.62833333333333
 20
-13.02
 30
0.0
 11
98.0
 21
-15.25
 31
0.0
  0
LINE
  5
4743
  8
250
  6
CONTINUOUS
 10
98.0
 20
-15.25
 30
0.0
 11
98.0
 21
-13.02
 31
0.0
  0
LINE
  5
4744
  8
250
  6
CONTINUOUS
 10
97.62833333333333
 20
13.02
 30
0.0
 11
98.0
 21
15.25
 31
0.0
  0
LINE
  5
4745
  8
250
  6
CONTINUOUS
 10
98.371666666666684
 20
13.02
 30
0.0
 11
98.0
 21
15.25
 31
0.0
  0
LINE
  5
4746
  8
250
  6
CONTINUOUS
 10
98.0
 20
15.25
 30
0.0
 11
98.0
 21
13.02
 31
0.0
  0
TEXT
  5
4747
  8
250
  6
CONTINUOUS
 10
38.083333333333371
 20
-34.0
 30
0.0
 40
2.7999999999999989
  1
85.5
  0
LINE
  5
4748
  8
250
  6
CONTINUOUS
 10
83.270000000000053
 20
-34.62833333333333
 30
0.0
 11
85.500000000000057
 21
-35.0
 31
0.0
  0
LINE
  5
4749
  8
250
  6
CONTINUOUS
 10
83.270000000000053
 20
-35.37166666666667
 30
0.0
 11
85.500000000000057
 21
-35.0
 31
0.0
  0
LINE
  5
474A
  8
250
  6
CONTINUOUS
 10
85.500000000000057
 20
-35.0
 30
0.0
 11
83.270000000000053
 21
-35.0
 31
0.0
  0
LINE
  5
474B
  8
250
  6
CONTINUOUS
 10
2.2299999999999991
 20
-35.37166666666667
 30
0.0
 11
-0.0000000000000009
 21
-35.0
 31
0.0
  0
LINE
  5
474C
  8
250
  6
CONTINUOUS
 10
2.2299999999999991
 20
-34.62833333333333
 30
0.0
 11
-0.0000000000000009
 21
-35.0
 31
0.0
  0
LINE
  5
474D
  8
250
  6
CONTINUOUS
 10
-0.0000000000000009
 20
-35.0
 30
0.0
 11
2.2299999999999991
 21
-35.0
 31
0.0
  0
VIEWPORT
  5
22
 67
     1
  8
0
 10
261.51769911504419
 20
148.5
 30
0.0
 40
523.0353982300885
 41
297.0
 68
     1
 69
     1
1001
ACAD
1000
MVIEW
1002
{
1070
    16
1010
0.0
1020
0.0
1030
0.0
1010
0.0
1020
0.0
1030
1.0
1040
0.0
1040
297.0
1040
261.51769911504419
1040
148.5
1040
50.0
1040
0.0
1040
0.0
1070
     0
1070
   100
1070
     1
1070
     1
1070
     0
1070
     0
1070
     0
1070
     0
1040
0.0
1040
0.0
1040
0.0
1040
1.0
1040
1.0
1040
10.0
1040
10.0
1070
     0
1002
{
1002
}
1002
}
1001
GENIUS_GENODEF_13
1002
{
1000
HIER
1070
     0
1002
}
1002
{
1000
MANEDIT
1070
     0
1002
}
1002
{
1000
NOSEL
1070
     0
1002
}
1002
{
1000
BEHIND
1070
     0
1002
}
1002
{
1000
OTHER
1070
     0
1002
}
1002
{
1000
REACTOR
1002
}
1001
GENIUS_GENOBJ-N-SDF_13
1002
{
1000
OWNER
1000
GEN
1002
}
1001
GENIUS_GENSCREG_15
1000
PF
1040
1.0
1000
DF
1040
1.0
1000
MIN
1011
0.0
1021
0.0
1031
0.0
1021
0.0
1031
0.0
1000
MAX
1011
523.0353982300885
1021
0.0
1031
0.0
1021
297.0
1031
0.0
1000
FLAGS
1070
     4
  0
ENDSEC
  0
EOF
