  0
SECTION
  2
HEADER
  9
$ACADVER
  1
AC1009
  9
$INSBASE
 10
0.0
 20
0.0
 30
0.0
  9
$EXTMIN
 10
-106.0439924314102
 20
-36.0
 30
0.0
  9
$EXTMAX
 10
106.0
 20
38.999999999999872
 30
0.0
  9
$LIMMIN
 10
0.0
 20
0.0
  9
$LIMMAX
 10
297.0
 20
210.0
  9
$ORTHOMODE
 70
     0
  9
$REGENMODE
 70
     1
  9
$FILLMODE
 70
     1
  9
$QTEXTMODE
 70
     0
  9
$MIRRTEXT
 70
     1
  9
$DRAGMODE
 70
     2
  9
$LTSCALE
 40
10.0
  9
$OSMODE
 70
     7
  9
$ATTMODE
 70
     1
  9
$TEXTSIZE
 40
3.0
  9
$TRACEWID
 40
1.0
  9
$TEXTSTYLE
  7
YOKO
  9
$CLAYER
  8
240
  9
$CELTYPE
  6
BYLAYER
  9
$CECOLOR
 62
   256
  9
$DIMSCALE
 40
1.0
  9
$DIMASZ
 40
2.2299999999999991
  9
$DIMEXO
 40
0.5
  9
$DIMDLI
 40
7.0
  9
$DIMRND
 40
0.0
  9
$DIMDLE
 40
0.0
  9
$DIMEXE
 40
1.0
  9
$DIMTP
 40
0.0
  9
$DIMTM
 40
0.01
  9
$DIMTXT
 40
2.7999999999999989
  9
$DIMCEN
 40
0.0
  9
$DIMTSZ
 40
0.0
  9
$DIMTOL
 70
     0
  9
$DIMLIM
 70
     0
  9
$DIMTIH
 70
     0
  9
$DIMTOH
 70
     0
  9
$DIMSE1
 70
     0
  9
$DIMSE2
 70
     0
  9
$DIMTAD
 70
     3
  9
$DIMZIN
 70
     9
  9
$DIMBLK
  1
OPEN
  9
$DIMASO
 70
     1
  9
$DIMSHO
 70
     1
  9
$DIMPOST
  1

  9
$DIMAPOST
  1

  9
$DIMALT
 70
     0
  9
$DIMALTD
 70
     2
  9
$DIMALTF
 40
25.399999999999999
  9
$DIMLFAC
 40
1.0
  9
$DIMTOFL
 70
     1
  9
$DIMTVP
 40
0.0
  9
$DIMTIX
 70
     1
  9
$DIMSOXD
 70
     0
  9
$DIMSAH
 70
     0
  9
$DIMBLK1
  1

  9
$DIMBLK2
  1

  9
$DIMSTYLE
  2
BIGT
  9
$DIMCLRD
 70
   256
  9
$DIMCLRE
 70
   256
  9
$DIMCLRT
 70
    40
  9
$DIMTFAC
 40
1.0
  9
$DIMGAP
 40
1.0
  9
$LUNITS
 70
     2
  9
$LUPREC
 70
     6
  9
$SKETCHINC
 40
1.0
  9
$FILLETRAD
 40
0.0
  9
$AUNITS
 70
     0
  9
$AUPREC
 70
     6
  9
$MENU
  1
.
  9
$ELEVATION
 40
0.0
  9
$PELEVATION
 40
0.0
  9
$THICKNESS
 40
0.0
  9
$LIMCHECK
 70
     0
  9
$BLIPMODE
 70
     0
  9
$CHAMFERA
 40
0.2
  9
$CHAMFERB
 40
0.2
  9
$SKPOLY
 70
     0
  9
$TDCREATE
 40
2460557.4568598848
  9
$TDUPDATE
 40
2460557.4911485771
  9
$TDINDWG
 40
0.0125403819
  9
$TDUSRTIMER
 40
0.0125402546
  9
$USRTIMER
 70
     1
  9
$ANGBASE
 50
0.0
  9
$ANGDIR
 70
     0
  9
$PDMODE
 70
     1
  9
$PDSIZE
 40
0.0
  9
$PLINEWID
 40
0.0
  9
$COORDS
 70
     1
  9
$SPLFRAME
 70
     0
  9
$SPLINETYPE
 70
     6
  9
$SPLINESEGS
 70
     4
  9
$ATTDIA
 70
     1
  9
$ATTREQ
 70
     1
  9
$HANDLING
 70
     1
  9
$HANDSEED
  5
494D
  9
$SURFTAB1
 70
     6
  9
$SURFTAB2
 70
     6
  9
$SURFTYPE
 70
     6
  9
$SURFU
 70
     6
  9
$SURFV
 70
     6
  9
$UCSNAME
  2

  9
$UCSORG
 10
0.0
 20
0.0
 30
0.0
  9
$UCSXDIR
 10
1.0
 20
0.0
 30
0.0
  9
$UCSYDIR
 10
0.0
 20
1.0
 30
0.0
  9
$PUCSNAME
  2

  9
$PUCSORG
 10
0.0
 20
0.0
 30
0.0
  9
$PUCSXDIR
 10
1.0
 20
0.0
 30
0.0
  9
$PUCSYDIR
 10
0.0
 20
1.0
 30
0.0
  9
$USERI1
 70
     1
  9
$USERI2
 70
     0
  9
$USERI3
 70
     0
  9
$USERI4
 70
     0
  9
$USERI5
 70
     0
  9
$USERR1
 40
0.0
  9
$USERR2
 40
0.0
  9
$USERR3
 40
0.0
  9
$USERR4
 40
0.0
  9
$USERR5
 40
0.0
  9
$WORLDVIEW
 70
     1
  9
$SHADEDGE
 70
     3
  9
$SHADEDIF
 70
    70
  9
$TILEMODE
 70
     1
  9
$MAXACTVP
 70
    16
  9
$PLIMCHECK
 70
     0
  9
$PEXTMIN
 10
1.0000000000000000E+020
 20
1.0000000000000000E+020
 30
1.0000000000000000E+020
  9
$PEXTMAX
 10
-1.0000000000000000E+020
 20
-1.0000000000000000E+020
 30
-1.0000000000000000E+020
  9
$PLIMMIN
 10
0.0
 20
0.0
  9
$PLIMMAX
 10
420.0
 20
297.0
  9
$UNITMODE
 70
     0
  9
$VISRETAIN
 70
     1
  9
$PLINEGEN
 70
     0
  9
$PSLTSCALE
 70
     1
  0
ENDSEC
  0
SECTION
  2
TABLES
  0
TABLE
  2
VPORT
 70
     1
  0
VPORT
  2
*ACTIVE
 70
     0
 10
0.0
 20
0.0
 11
1.0
 21
1.0
 12
6.4402540024726704
 22
-8.2245322208605813
 13
0.0
 23
0.0
 14
7.0
 24
7.0
 15
7.0
 25
7.0
 16
0.0
 26
0.0
 36
1.0
 17
0.0
 27
0.0
 37
0.0
 40
187.03826871565181
 41
1.495118549511854
 42
50.0
 43
0.0
 44
0.0
 50
0.0
 51
0.0
 71
     0
 72
  2000
 73
     1
 74
     0
 75
     0
 76
     1
 77
     0
 78
     0
  0
ENDTAB
  0
TABLE
  2
LTYPE
 70
    16
  0
LTYPE
  2
CONTINUOUS
 70
     0
  3
Solid line
 72
    65
 73
     0
 40
0.0
  0
LTYPE
  2
CENTER2
 70
     0
  3
___ _ ___ _ ___ _ ___ _ ___ _ ___ _ ___ _ ___ _
 72
    65
 73
     4
 40
1.125
 49
0.75
 49
-0.125
 49
0.125
 49
-0.125
  0
LTYPE
  2
HIDDEN2
 70
     0
  3
_ _ _ _ _ _ _ _ _ _ _ _ _ _ _ _ _ _ _ _ _ _ _ _
 72
    65
 73
     2
 40
0.1875
 49
0.125
 49
-0.0625
  0
LTYPE
  2
PHANTOM2
 70
     0
  3
___ _ _ ___ _ _ ___ _ _ ___ _ _ ___ _ _ ___ _ _
 72
    65
 73
     6
 40
1.25
 49
0.625
 49
-0.125
 49
0.125
 49
-0.125
 49
0.125
 49
-0.125
  0
LTYPE
  2
AM_ISO02W050
 70
     0
  3
__ __ __ __ __ __ __ __ __ __ __ __ __ __ __
 72
    65
 73
     2
 40
7.5
 49
6.0
 49
-1.5
  0
LTYPE
  2
AMCONSTR
 70
     0
  3
_______________________
 72
    65
 73
     2
 40
9999.0
 49
9999.0
 49
0.0
  0
LTYPE
  2
ACISOWELD
 70
     0
  3
_ _ _ _ _
 72
    65
 73
     2
 40
2.0
 49
2.0
 49
-1.0
  0
LTYPE
  2
ACISOTGB
 70
     0
  3
__ . . __ . .
 72
    65
 73
     6
 40
9.0
 49
4.0
 49
-1.0
 49
1.0
 49
-1.0
 49
1.0
 49
-1.0
  0
LTYPE
  2
ACISOTGL
 70
     0
  3
_ _ _ _ _
 72
    65
 73
     2
 40
3.0
 49
2.0
 49
-1.0
  0
LTYPE
  2
ACJISTGB
 70
     0
  3
__ . . __ . .
 72
    65
 73
     6
 40
9.0
 49
4.0
 49
-1.0
 49
1.0
 49
-1.0
 49
1.0
 49
-1.0
  0
LTYPE
  2
ACJISTGL
 70
     0
  3
_ _ _ _ _
 72
    65
 73
     2
 40
3.0
 49
2.0
 49
-1.0
  0
ENDTAB
  0
TABLE
  2
LAYER
 70
     9
  0
LAYER
  2
0
 70
     0
 62
     7
  6
CONTINUOUS
  0
LAYER
  2
DEFPOINTS
 70
     0
 62
     7
  6
CONTINUOUS
  0
LAYER
  2
245
 70
     0
 62
     2
  6
CENTER2
  0
LAYER
  2
240
 70
     0
 62
     4
  6
CONTINUOUS
  0
LAYER
  2
241
 70
     0
 62
   211
  6
CONTINUOUS
  0
LAYER
  2
242
 70
     0
 62
     3
  6
CONTINUOUS
  0
LAYER
  2
243
 70
     0
 62
   211
  6
HIDDEN2
  0
LAYER
  2
244
 70
     0
 62
     3
  6
HIDDEN2
  0
LAYER
  2
250
 70
     0
 62
     3
  6
CONTINUOUS
  0
ENDTAB
  0
TABLE
  2
STYLE
 70
     7
  0
STYLE
  2
STANDARD
 70
     0
 40
0.0
 41
1.0
 50
0.0
 71
     0
 42
3.0
  3
romans.shx
  4
extfont.shx
  0
STYLE
  2
ACISOTS
 70
     0
 40
1.0
 41
1.0
 50
0.0
 71
     0
 42
3.0
  3
amgdt.shx
  4
extfont.shx
  0
STYLE
  2
ACISOGDT
 70
     0
 40
0.0
 41
1.0
 50
0.0
 71
     0
 42
3.0
  3
amgdt.shx
  4
extfont.shx
  0
STYLE
  2
ACJISTS
 70
     0
 40
1.0
 41
1.0
 50
0.0
 71
     0
 42
3.0
  3
amgdt.shx
  4
extfont.shx
  0
STYLE
  2
ACJISGDT
 70
     0
 40
0.0
 41
1.0
 50
0.0
 71
     0
 42
3.0
  3
amgdt.shx
  4
extfont.shx
  0
STYLE
  2
YOKO
 70
     0
 40
0.0
 41
1.0
 50
0.0
 71
     0
 42
3.0
  3
romans.shx
  4
extfont.shx
  0
ENDTAB
  0
TABLE
  2
VIEW
 70
     0
  0
ENDTAB
  0
TABLE
  2
UCS
 70
     0
  0
ENDTAB
  0
TABLE
  2
APPID
 70
    37
  0
APPID
  2
ACAD
 70
     0
  0
APPID
  2
GLOBAL
 70
     0
  0
APPID
  2
DETAIL
 70
     0
  0
APPID
  2
GRPNAME
 70
     0
  0
APPID
  2
GPARA
 70
     0
  0
APPID
  2
MCAD_NO_VIS
 70
     0
  0
APPID
  2
ACAD_TEMP_GRAPHIC
 70
     0
  0
APPID
  2
ACATTRIBSERVICES
 70
     0
  0
APPID
  2
GENIUS_GENSCREG_15
 70
     0
  0
APPID
  2
GENIUS_GENODEF_13
 70
     0
  0
APPID
  2
GENIUS_GENOBJ-N-SDF_13
 70
     0
  0
APPID
  2
GENIUS_GENREC_14
 70
     0
  0
APPID
  2
GENIUS_GENOBJ-N-REC_13
 70
     0
  0
APPID
  2
GENIUS_GENDIMSH_14
 70
     0
  0
APPID
  2
GENIUS_GENOBJ-N-DIM_13
 70
     0
  0
APPID
  2
GENIUS_GENDIM_13
 70
     0
  0
APPID
  2
GENIUS_GENDTOL_13
 70
     0
  0
APPID
  2
GENIUS_GENOLIS_13
 70
     0
  0
APPID
  2
GENIUS_GENOENT_13
 70
     0
  0
APPID
  2
GENIUS_GENOBJ-F-FEM_13
 70
     0
  0
APPID
  2
GENIUS_GENOREF_13
 70
     0
  0
APPID
  2
GENIUS_GEFFEM_13
 70
     0
  0
APPID
  2
GENIUS_GEFFEMP_13
 70
     0
  0
APPID
  2
AD_DRAW
 70
     0
  0
APPID
  2
DESIGNERASSEMBLIES
 70
     0
  0
APPID
  2
ACADM_DIM_EDIT
 70
     0
  0
APPID
  2
AMDT_DM_ADJ
 70
     0
  0
APPID
  2
ITEMNAME
 70
     0
  0
APPID
  2
GENIUS_GENOBJ-N-FIL_13
 70
     0
  0
APPID
  2
GENIUS_GENFIL_13
 70
     0
  0
APPID
  2
GENIUS_GENOBJ-N-CHA_13
 70
     0
  0
APPID
  2
ACAD_NAV_VCDISPLAY
 70
     0
  0
APPID
  2
ACAECLAYERSTANDARD
 70
     0
  0
APPID
  2
ACAD_PSEXT
 70
     0
  0
APPID
  2
ACAD_EXEMPT_FROM_CAD_STANDARDS
 70
     0
  0
APPID
  2
ACAD_DSTYLE_DIMINSPECT
 70
     0
  0
APPID
  2
ACAD_MLEADERVER
 70
     0
  0
ENDTAB
  0
TABLE
  2
DIMSTYLE
 70
    29
  0
DIMSTYLE
  2
BIGT
 70
     0
  3

  4

  5
OPEN
  6

  7

 40
1.0
 41
2.2299999999999991
 42
0.5
 43
7.0
 44
1.0
 45
0.0
 46
0.0
 47
0.0
 48
0.01
140
2.7999999999999989
141
0.0
142
0.0
143
25.399999999999999
144
1.0
145
0.0
146
1.0
147
1.0
 71
     0
 72
     0
 73
     0
 74
     0
 75
     0
 76
     0
 77
     3
 78
     9
170
     0
171
     2
172
     1
173
     0
174
     1
175
     0
176
   256
177
   256
178
    40
  0
DIMSTYLE
  2
AM_ISO
 70
     0
  3

  4
"
  5

  6

  7

 40
1.0
 41
2.5
 42
1.0
 43
10.0
 44
1.0
 45
0.0
 46
0.0
 47
0.1
 48
0.1
140
3.5
141
0.0
142
0.0
143
0.0393701
144
1.0
145
0.0
146
0.71
147
1.5
 71
     0
 72
     0
 73
     0
 74
     0
 75
     0
 76
     0
 77
     1
 78
     8
170
     0
171
     2
172
     1
173
     0
174
     0
175
     0
176
   256
177
   256
178
     2
  0
DIMSTYLE
  2
AM_ISO$3
 70
     0
  3

  4
"
  5

  6

  7

 40
1.0
 41
2.5
 42
1.0
 43
10.0
 44
1.0
 45
0.0
 46
0.0
 47
0.1
 48
0.1
140
3.5
141
0.0
142
0.0
143
0.0393701
144
1.0
145
0.0
146
0.71
147
1.5
 71
     0
 72
     0
 73
     0
 74
     1
 75
     0
 76
     0
 77
     1
 78
     8
170
     0
171
     2
172
     0
173
     0
174
     0
175
     0
176
   256
177
   256
178
     2
  0
DIMSTYLE
  2
AM_ISO$4
 70
     0
  3

  4
"
  5

  6

  7

 40
1.0
 41
2.5
 42
1.0
 43
10.0
 44
1.0
 45
0.0
 46
0.0
 47
0.1
 48
0.1
140
3.5
141
0.0
142
0.0
143
0.0393701
144
1.0
145
0.0
146
0.71
147
1.5
 71
     0
 72
     0
 73
     0
 74
     1
 75
     0
 76
     0
 77
     1
 78
     8
170
     0
171
     2
172
     0
173
     0
174
     0
175
     0
176
   256
177
   256
178
     2
  0
DIMSTYLE
  2
AM_ISO$6
 70
     0
  3

  4
"
  5

  6

  7

 40
1.0
 41
2.5
 42
1.0
 43
10.0
 44
1.0
 45
0.0
 46
0.0
 47
0.1
 48
0.1
140
3.5
141
0.0
142
0.0
143
0.0393701
144
1.0
145
0.0
146
0.71
147
1.5
 71
     0
 72
     0
 73
     0
 74
     0
 75
     0
 76
     0
 77
     0
 78
     8
170
     0
171
     2
172
     1
173
     0
174
     0
175
     0
176
   256
177
   256
178
     2
  0
DIMSTYLE
  2
AM_ISO$7
 70
     0
  3

  4
"
  5

  6

  7

 40
1.0
 41
2.5
 42
1.0
 43
10.0
 44
1.0
 45
0.0
 46
0.0
 47
0.1
 48
0.1
140
5.0
141
0.0
142
0.0
143
0.0393701
144
1.0
145
0.0
146
0.71
147
1.5
 71
     0
 72
     0
 73
     0
 74
     0
 75
     0
 76
     0
 77
     1
 78
     8
170
     0
171
     2
172
     1
173
     0
174
     0
175
     0
176
   256
177
   256
178
     2
  0
DIMSTYLE
  2
AM_ISO$SF
 70
     0
  3

  4
"
  5

  6

  7

 40
1.0
 41
2.5
 42
1.0
 43
10.0
 44
1.0
 45
0.0
 46
0.0
 47
0.1
 48
0.1
140
3.5
141
0.0
142
0.0
143
0.0393701
144
1.0
145
0.0
146
0.71
147
1.5
 71
     0
 72
     0
 73
     0
 74
     0
 75
     1
 76
     1
 77
     1
 78
     8
170
     0
171
     2
172
     1
173
     0
174
     0
175
     0
176
   256
177
   256
178
     2
  0
DIMSTYLE
  2
AM_ISO$SH
 70
     0
  3

  4
"
  5

  6
GENAXEH
  7

 40
1.0
 41
2.5
 42
1.0
 43
10.0
 44
1.0
 45
0.0
 46
0.0
 47
0.1
 48
0.1
140
3.5
141
0.0
142
0.0
143
0.0393701
144
2.0
145
0.0
146
0.71
147
1.5
 71
     0
 72
     0
 73
     0
 74
     0
 75
     1
 76
     1
 77
     1
 78
     8
170
     0
171
     2
172
     1
173
     1
174
     0
175
     0
176
   256
177
   256
178
     2
  0
DIMSTYLE
  2
BIGT$2
 70
     0
  3

  4

  5
OPEN
  6

  7

 40
1.0
 41
2.2299999999999991
 42
0.5
 43
7.0
 44
1.0
 45
0.0
 46
0.0
 47
0.0
 48
0.01
140
2.7999999999999989
141
0.0
142
0.0
143
25.399999999999999
144
1.0
145
0.0
146
1.0
147
1.0
 71
     0
 72
     0
 73
     0
 74
     0
 75
     0
 76
     0
 77
     3
 78
     9
170
     0
171
     2
172
     1
173
     0
174
     0
175
     0
176
   256
177
   256
178
    40
  0
DIMSTYLE
  2
BIGT$3
 70
     0
  3

  4

  5
OPEN
  6

  7

 40
1.0
 41
2.2299999999999991
 42
0.5
 43
2.5
 44
1.0
 45
0.0
 46
0.0
 47
0.0
 48
0.01
140
2.7999999999999989
141
0.0
142
0.0
143
25.399999999999999
144
1.0
145
0.0
146
1.0
147
1.0
 71
     0
 72
     0
 73
     0
 74
     0
 75
     0
 76
     0
 77
     3
 78
     9
170
     0
171
     2
172
     1
173
     0
174
     0
175
     0
176
   256
177
   256
178
    40
  0
DIMSTYLE
  2
BIGT$7
 70
     0
  3

  4

  5
OPEN
  6

  7

 40
0.0
 41
2.2299999999999991
 42
0.5
 43
7.0
 44
1.0
 45
0.0
 46
0.0
 47
0.0
 48
0.01
140
2.7999999999999989
141
0.0
142
0.0
143
25.399999999999999
144
1.0
145
0.0
146
1.0
147
1.0
 71
     0
 72
     0
 73
     0
 74
     0
 75
     0
 76
     0
 77
     3
 78
     9
170
     0
171
     2
172
     0
173
     0
174
     0
175
     0
176
   256
177
   256
178
    40
  0
DIMSTYLE
  2
BIGT$6
 70
     0
  3

  4

  5
OPEN
  6

  7

 40
1.0
 41
2.2299999999999991
 42
0.5
 43
2.5
 44
1.0
 45
0.0
 46
0.0
 47
0.0
 48
0.01
140
2.7999999999999989
141
0.0
142
0.0
143
25.399999999999999
144
1.0
145
0.0
146
1.0
147
1.0
 71
     0
 72
     0
 73
     0
 74
     0
 75
     0
 76
     0
 77
     3
 78
     9
170
     0
171
     2
172
     1
173
     0
174
     0
175
     0
176
   256
177
   256
178
    40
  0
DIMSTYLE
  2
BIGT$0
 70
     0
  3

  4

  5
OPEN
  6

  7

 40
1.0
 41
2.2299999999999991
 42
0.5
 43
7.0
 44
1.0
 45
0.0
 46
0.0
 47
0.0
 48
0.01
140
2.7999999999999989
141
0.0
142
0.0
143
25.399999999999999
144
1.0
145
0.0
146
1.0
147
1.0
 71
     0
 72
     0
 73
     0
 74
     0
 75
     0
 76
     0
 77
     3
 78
     9
170
     0
171
     2
172
     1
173
     0
174
     1
175
     0
176
   256
177
   256
178
    40
  0
DIMSTYLE
  2
BIGT$4
 70
     0
  3

  4

  5
OPEN
  6

  7

 40
1.0
 41
2.2299999999999991
 42
0.5
 43
2.5
 44
1.0
 45
0.0
 46
0.0
 47
0.0
 48
0.01
140
2.7999999999999989
141
0.0
142
0.0
143
25.399999999999999
144
1.0
145
0.0
146
1.0
147
1.0
 71
     0
 72
     0
 73
     0
 74
     0
 75
     0
 76
     0
 77
     3
 78
     9
170
     0
171
     2
172
     1
173
     0
174
     0
175
     0
176
   256
177
   256
178
    40
  0
DIMSTYLE
  2
BIGT$SH
 70
     0
  3

  4

  5
OPEN
  6

  7

 40
1.0
 41
2.2299999999999991
 42
0.5
 43
7.0
 44
1.0
 45
0.0
 46
0.0
 47
0.0
 48
0.0
140
2.7999999999999989
141
0.0
142
0.0
143
25.399999999999999
144
1.0
145
0.0
146
1.0
147
1.0
 71
     0
 72
     0
 73
     0
 74
     0
 75
     0
 76
     0
 77
     3
 78
     9
170
     0
171
     2
172
     1
173
     0
174
     0
175
     0
176
   256
177
   256
178
    40
  0
DIMSTYLE
  2
BIGT$SF
 70
     0
  3

  4

  5
OPEN
  6

  7

 40
1.0
 41
2.2299999999999991
 42
0.5
 43
7.0
 44
1.0
 45
0.0
 46
0.0
 47
0.0
 48
0.0
140
2.7999999999999989
141
0.0
142
0.0
143
25.399999999999999
144
1.0
145
0.0
146
1.0
147
1.0
 71
     0
 72
     0
 73
     0
 74
     0
 75
     0
 76
     0
 77
     3
 78
     9
170
     0
171
     2
172
     1
173
     0
174
     0
175
     0
176
   256
177
   256
178
    40
  0
DIMSTYLE
  2
TECHNICAL_OSAKA
 70
     0
  3

  4
"
  5
OPEN30
  6

  7

 40
1.0
 41
2.5
 42
1.0
 43
10.0
 44
1.0
 45
0.0
 46
0.0
 47
0.1
 48
0.1
140
2.7999999999999989
141
0.0
142
0.0
143
0.0393701
144
1.0
145
0.0
146
0.71
147
1.5
 71
     0
 72
     0
 73
     0
 74
     0
 75
     0
 76
     0
 77
     3
 78
     8
170
     0
171
     2
172
     1
173
     0
174
     0
175
     0
176
   256
177
   256
178
    40
  0
DIMSTYLE
  2
TECHNICAL_OSAKA$3
 70
     0
  3

  4
"
  5
OPEN30
  6

  7

 40
1.0
 41
2.5
 42
1.0
 43
10.0
 44
1.0
 45
0.0
 46
0.0
 47
0.1
 48
0.1
140
2.7999999999999989
141
0.0
142
0.0
143
0.0393701
144
1.0
145
0.0
146
0.71
147
1.5
 71
     0
 72
     0
 73
     0
 74
     1
 75
     0
 76
     0
 77
     3
 78
     8
170
     0
171
     2
172
     0
173
     0
174
     0
175
     0
176
   256
177
   256
178
    40
  0
DIMSTYLE
  2
TECHNICAL_OSAKA$4
 70
     0
  3

  4
"
  5
OPEN30
  6

  7

 40
1.0
 41
2.5
 42
1.0
 43
10.0
 44
1.0
 45
0.0
 46
0.0
 47
0.1
 48
0.1
140
2.7999999999999989
141
0.0
142
0.0
143
0.0393701
144
1.0
145
0.0
146
0.71
147
1.5
 71
     0
 72
     0
 73
     0
 74
     1
 75
     0
 76
     0
 77
     3
 78
     8
170
     0
171
     2
172
     0
173
     0
174
     0
175
     0
176
   256
177
   256
178
    40
  0
DIMSTYLE
  2
TECHNICAL_OSAKA$6
 70
     0
  3

  4
"
  5
OPEN30
  6

  7

 40
1.0
 41
2.5
 42
1.0
 43
10.0
 44
1.0
 45
0.0
 46
0.0
 47
0.1
 48
0.1
140
2.7999999999999989
141
0.0
142
0.0
143
0.0393701
144
1.0
145
0.0
146
0.71
147
1.5
 71
     0
 72
     0
 73
     0
 74
     0
 75
     0
 76
     0
 77
     0
 78
     8
170
     0
171
     2
172
     1
173
     0
174
     0
175
     0
176
   256
177
   256
178
    40
  0
DIMSTYLE
  2
TECHNICAL_OSAKA$7
 70
     0
  3

  4
"
  5
OPEN30
  6

  7

 40
1.0
 41
2.5
 42
1.0
 43
10.0
 44
1.0
 45
0.0
 46
0.0
 47
0.1
 48
0.1
140
2.7999999999999989
141
0.0
142
0.0
143
0.0393701
144
1.0
145
0.0
146
0.71
147
1.5
 71
     0
 72
     0
 73
     0
 74
     0
 75
     0
 76
     0
 77
     3
 78
     8
170
     0
171
     2
172
     1
173
     0
174
     0
175
     0
176
   256
177
   256
178
    40
  0
DIMSTYLE
  2
TECHNICAL_OSAKA$SF
 70
     0
  3

  4
"
  5
OPEN30
  6
OPEN30
  7
OPEN30
 40
1.0
 41
2.5
 42
1.0
 43
10.0
 44
1.0
 45
0.0
 46
0.0
 47
0.1
 48
0.1
140
3.5
141
0.0
142
0.0
143
0.0393701
144
1.0
145
0.0
146
0.71
147
1.5
 71
     0
 72
     0
 73
     0
 74
     0
 75
     1
 76
     1
 77
     3
 78
     8
170
     0
171
     2
172
     1
173
     0
174
     0
175
     0
176
   256
177
   256
178
    40
  0
DIMSTYLE
  2
TECHNICAL_OSAKA$SH
 70
     0
  3

  4
"
  5
OPEN30
  6
GENAXEH
  7
OPEN30
 40
1.0
 41
2.5
 42
1.0
 43
10.0
 44
1.0
 45
0.0
 46
0.0
 47
0.1
 48
0.1
140
3.5
141
0.0
142
0.0
143
0.0393701
144
2.0
145
0.0
146
0.71
147
1.5
 71
     0
 72
     0
 73
     0
 74
     0
 75
     1
 76
     1
 77
     3
 78
     8
170
     0
171
     2
172
     1
173
     1
174
     0
175
     0
176
   256
177
   256
178
    40
  0
ENDTAB
  0
ENDSEC
  0
SECTION
  2
BLOCKS
  0
BLOCK
  8
0
  2
$MODEL_SPACE
 70
     0
 10
0.0
 20
0.0
 30
0.0
  3
$MODEL_SPACE
  1

  0
ENDBLK
  5
1C
  8
0
  0
BLOCK
 67
     1
  8
0
  2
$PAPER_SPACE
 70
     0
 10
0.0
 20
0.0
 30
0.0
  3
$PAPER_SPACE
  1

  0
ENDBLK
  5
19
 67
     1
  8
0
  0
BLOCK
  8
0
  2
_OPEN
 70
     0
 10
0.0
 20
0.0
 30
0.0
  3
_OPEN
  1

  0
LINE
  5
4854
  8
0
  6
BYBLOCK
 62
     0
 10
-1.0
 20
0.1666666666666666
 30
0.0
 11
0.0
 21
0.0
 31
0.0
  0
LINE
  5
4855
  8
0
  6
BYBLOCK
 62
     0
 10
-1.0
 20
-0.1666666666666666
 30
0.0
 11
0.0
 21
0.0
 31
0.0
  0
LINE
  5
4856
  8
0
  6
BYBLOCK
 62
     0
 10
0.0
 20
0.0
 30
0.0
 11
-1.0
 21
0.0
 31
0.0
  0
ENDBLK
  5
4857
  8
0
  0
BLOCK
  8
0
  2
GENAXEH
 70
     0
 10
0.0
 20
0.0
 30
0.0
  3
GENAXEH
  1

  0
LINE
  5
488F
  8
0
 10
-1.0
 20
0.0
 30
0.0
 11
1.0
 21
0.0
 31
0.0
  0
ENDBLK
  5
4890
  8
0
  0
BLOCK
  8
0
  2
_OPEN30
 70
     0
 10
0.0
 20
0.0
 30
0.0
  3
_OPEN30
  1

  0
LINE
  5
48CB
  8
0
  6
BYBLOCK
 62
     0
 10
-1.0
 20
0.26794919
 30
0.0
 11
0.0
 21
0.0
 31
0.0
  0
LINE
  5
48CC
  8
0
  6
BYBLOCK
 62
     0
 10
0.0
 20
0.0
 30
0.0
 11
-1.0
 21
-0.26794919
 31
0.0
  0
LINE
  5
48CD
  8
0
  6
BYBLOCK
 62
     0
 10
0.0
 20
0.0
 30
0.0
 11
-1.0
 21
0.0
 31
0.0
  0
ENDBLK
  5
48CE
  8
0
  0
ENDSEC
  0
SECTION
  2
ENTITIES
  0
ARC
  5
451F
  8
240
  6
CONTINUOUS
 10
-101.3
 20
11.499999999999879
 30
0.0
 40
1.0
 50
90.0
 51
180.0
  0
LINE
  5
4521
  8
243
  6
HIDDEN2
 10
-89.300000000000011
 20
5.9999999999998863
 30
0.0
 11
-90.300000000000011
 21
6.9999999999998863
 31
0.0
1001
GENIUS_GENFIL_13
1070
     0
1040
1.0
1040
1.0
1040
0.9999999999999715
1040
45.0
1000
~T
1001
GENIUS_GENOREF_13
1005
457E
  0
LINE
  5
4522
  8
240
  6
CONTINUOUS
 10
-102.3
 20
-11.50000000000011
 30
0.0
 11
-102.3
 21
11.499999999999879
 31
0.0
  0
ARC
  5
4523
  8
240
  6
CONTINUOUS
 10
-101.3
 20
-11.50000000000011
 30
0.0
 40
1.0
 50
180.0
 51
270.0
  0
LINE
  5
4524
  8
240
  6
CONTINUOUS
 10
6.4999999999994307
 20
-16.33349999999967
 30
0.0
 11
6.4999999999994307
 21
-20.50000000000011
 31
0.0
  0
LINE
  5
4525
  8
240
  6
CONTINUOUS
 10
22.499999999999432
 20
-15.000000000000171
 30
0.0
 11
22.499999999999432
 21
-20.50000000000011
 31
0.0
  0
ARC
  5
4526
  8
240
  6
CONTINUOUS
 10
25.499999999999432
 20
-15.000000000000171
 30
0.0
 40
3.0
 50
90.0
 51
180.0
1001
GENIUS_GENODEF_13
1002
{
1000
HIER
1070
     0
1002
}
1002
{
1000
MANEDIT
1070
     0
1002
}
1002
{
1000
NOSEL
1070
     0
1002
}
1002
{
1000
BEHIND
1070
     0
1002
}
1002
{
1000
OTHER
1070
     0
1002
}
1002
{
1000
REACTOR
1002
}
1001
GENIUS_GENOBJ-N-FIL_13
1002
{
1000
OWNER
1000
GEN
1002
}
  0
LINE
  5
4527
  8
240
  6
CONTINUOUS
 10
21.499999999999432
 20
-21.50000000000011
 30
0.0
 11
22.499999999999432
 21
-20.50000000000011
 31
0.0
1001
GENIUS_GENFIL_13
1070
     1
1040
1.000000000000028
1040
1.000000000000056
1040
1.000000000000028
1040
45.0
1000
~T
1001
GENIUS_GENOREF_13
1005
0
  0
LINE
  5
4528
  8
240
  6
CONTINUOUS
 10
-101.3
 20
-12.50000000000011
 30
0.0
 11
-94.300000000001319
 21
-12.50000000000011
 31
0.0
  0
LINE
  5
4529
  8
240
  6
CONTINUOUS
 10
-93.583930837731884
 20
-13.2160691622696
 30
0.0
 11
-94.300000000001319
 21
-12.50000000000011
 31
0.0
  0
LINE
  5
452A
  8
240
  6
CONTINUOUS
 10
-93.583930837731884
 20
-13.2160691622696
 30
0.0
 11
0.0
 21
-15.63350000000008
 31
0.0
  0
LINE
  5
452B
  8
243
  6
HIDDEN2
 10
-100.5679491924311
 20
8.4999999999998863
 30
0.0
 11
-90.300000000000011
 21
8.4999999999998863
 31
0.0
  0
LINE
  5
452C
  8
241
  6
CONTINUOUS
 10
6.4999999999994307
 20
16.33349999999945
 30
0.0
 11
6.4999999999994307
 21
-16.33349999999967
 31
0.0
  0
LINE
  5
452D
  8
241
  6
CONTINUOUS
 10
-93.583930837731884
 20
-13.2160691622696
 30
0.0
 11
-93.583930837731884
 21
-8.3466157151619313
 31
0.0
  0
LINE
  5
452F
  8
243
  6
HIDDEN2
 10
-42.300000000000011
 20
5.9999999999998863
 30
0.0
 11
-38.835898384861991
 21
-0.0000000000001137
 31
0.0
  0
LINE
  5
4530
  8
244
  6
HIDDEN2
 10
-52.299999999999947
 20
6.9999999999998863
 30
0.0
 11
-50.567949192431001
 21
5.9999999999998863
 31
0.0
  0
LINE
  5
4531
  8
245
  6
CENTER2
 10
0.0
 20
-19.801324503311381
 30
0.0
 11
0.0
 21
19.22421948912006
 31
0.0
  0
LINE
  5
4532
  8
240
  6
CONTINUOUS
 10
6.4999999999994307
 20
16.333500000000129
 30
0.0
 11
6.4999999999994307
 21
20.49999999999989
 31
0.0
  0
LINE
  5
4533
  8
241
  6
CONTINUOUS
 10
-94.300000000000011
 20
-12.50000000000011
 30
0.0
 11
-94.300000000000011
 21
12.499999999999879
 31
0.0
  0
LINE
  5
4534
  8
240
  6
CONTINUOUS
 10
-93.583930837731884
 20
13.216069162269379
 30
0.0
 11
-94.300000000001319
 21
12.499999999999879
 31
0.0
  0
LINE
  5
4535
  8
240
  6
CONTINUOUS
 10
-101.3
 20
12.499999999999879
 30
0.0
 11
-94.300000000001319
 21
12.499999999999879
 31
0.0
  0
LINE
  5
4536
  8
240
  6
CONTINUOUS
 10
-93.583930837731884
 20
13.216069162269379
 30
0.0
 11
-0.0000000000002274
 21
15.633499999999801
 31
0.0
  0
LINE
  5
4539
  8
244
  6
HIDDEN2
 10
-90.300000000000011
 20
6.9999999999998863
 30
0.0
 11
-52.299999999999947
 21
6.9999999999998863
 31
0.0
  0
LINE
  5
453A
  8
243
  6
HIDDEN2
 10
-89.300000000000011
 20
5.9999999999998863
 30
0.0
 11
-42.300000000000011
 21
5.9999999999998863
 31
0.0
  0
LINE
  5
453B
  8
240
  6
CONTINUOUS
 10
65.0
 20
-11.55000000000018
 30
0.0
 11
66.800000000000011
 21
-11.55000000000018
 31
0.0
  0
LINE
  5
453C
  8
240
  6
CONTINUOUS
 10
7.4999999999994307
 20
21.49999999999989
 30
0.0
 11
21.499999999999769
 21
21.49999999999989
 31
0.0
  0
LINE
  5
453D
  8
240
  6
CONTINUOUS
 10
22.499999999999719
 20
20.49999999999989
 30
0.0
 11
21.499999999999769
 21
21.49999999999989
 31
0.0
1001
GENIUS_GENFIL_13
1070
     0
1040
1.0
1040
1.0
1040
0.9999999999999715
1040
44.999999999999901
1000
~T
1001
GENIUS_GENOREF_13
1005
457D
  0
ARC
  5
453E
  8
240
  6
CONTINUOUS
 10
7.4999999999994307
 20
20.49999999999989
 30
0.0
 40
1.0
 50
90.0
 51
180.0
1001
GENIUS_GENOBJ-N-FIL_13
1002
{
1000
OWNER
1000
GEN
1002
}
1001
GENIUS_GENODEF_13
1002
{
1000
HIER
1070
     0
1002
}
1002
{
1000
MANEDIT
1070
     0
1002
}
1002
{
1000
NOSEL
1070
     0
1002
}
1002
{
1000
BEHIND
1070
     0
1002
}
1002
{
1000
OTHER
1070
     0
1002
}
1002
{
1000
REACTOR
1002
}
  0
LINE
  5
453F
  8
240
  6
CONTINUOUS
 10
7.4999999999994307
 20
-21.50000000000011
 30
0.0
 11
21.499999999999432
 21
-21.50000000000011
 31
0.0
  0
ARC
  5
4540
  8
240
  6
CONTINUOUS
 10
7.4999999999994307
 20
-20.50000000000011
 30
0.0
 40
1.0
 50
180.0
 51
270.0
1001
GENIUS_GENODEF_13
1002
{
1000
HIER
1070
     0
1002
}
1002
{
1000
MANEDIT
1070
     0
1002
}
1002
{
1000
NOSEL
1070
     0
1002
}
1002
{
1000
BEHIND
1070
     0
1002
}
1002
{
1000
OTHER
1070
     0
1002
}
1002
{
1000
REACTOR
1002
}
1001
GENIUS_GENOBJ-N-FIL_13
1002
{
1000
OWNER
1000
GEN
1002
}
  0
LINE
  5
4542
  8
243
  6
HIDDEN2
 10
-102.3
 20
10.499999999999879
 30
0.0
 11
-101.43397459621551
 21
8.9999999999998863
 31
0.0
  0
LINE
  5
4543
  8
243
  6
HIDDEN2
 10
-101.43397459621551
 20
8.9999999999998863
 30
0.0
 11
-100.5679491924311
 21
8.4999999999998863
 31
0.0
  0
LINE
  5
4546
  8
243
  6
HIDDEN2
 10
-89.300000000000011
 20
2.9999999999998859
 30
0.0
 11
-89.300000000000011
 21
5.9999999999998863
 31
0.0
  0
LINE
  5
4547
  8
240
  6
CONTINUOUS
 10
64.220577136594045
 20
11.999999999999829
 30
0.0
 11
25.499999999999719
 21
11.999999999999829
 31
0.0
  0
LINE
  5
4548
  8
240
  6
CONTINUOUS
 10
64.220577136593974
 20
-12.000000000000171
 30
0.0
 11
25.499999999999432
 21
-12.000000000000171
 31
0.0
  0
LINE
  5
4549
  8
241
  6
CONTINUOUS
 10
67.0
 20
11.750000000000369
 30
0.0
 11
67.0
 21
-11.750000000000171
 31
0.0
  0
LINE
  5
454A
  8
240
  6
CONTINUOUS
 10
22.499999999999719
 20
20.49999999999989
 30
0.0
 11
22.499999999999719
 21
14.999999999999829
 31
0.0
  0
ARC
  5
454B
  8
240
  6
CONTINUOUS
 10
25.499999999999719
 20
14.999999999999829
 30
0.0
 40
3.0
 50
180.0
 51
270.0
1001
GENIUS_GENODEF_13
1002
{
1000
HIER
1070
     0
1002
}
1002
{
1000
MANEDIT
1070
     0
1002
}
1002
{
1000
NOSEL
1070
     0
1002
}
1002
{
1000
BEHIND
1070
     0
1002
}
1002
{
1000
OTHER
1070
     0
1002
}
1002
{
1000
REACTOR
1002
}
1001
GENIUS_GENOBJ-N-FIL_13
1002
{
1000
OWNER
1000
GEN
1002
}
  0
LINE
  5
454C
  8
241
  6
CONTINUOUS
 10
22.499999999999829
 20
14.36140661634505
 30
0.0
 11
22.499999999999488
 21
-14.36140661634516
 31
0.0
  0
LINE
  5
454D
  8
241
  6
CONTINUOUS
 10
6.4999999999994307
 20
-0.0000000000001137
 30
0.0
 11
6.4999999999994307
 21
-0.0000000000001137
 31
0.0
  0
LINE
  5
454E
  8
240
  6
CONTINUOUS
 10
64.220577136593974
 20
-12.000000000000171
 30
0.0
 11
65.0
 21
-11.55000000000018
 31
0.0
  0
LINE
  5
454F
  8
240
  6
CONTINUOUS
 10
67.0
 20
-11.750000000000171
 30
0.0
 11
66.800000000000011
 21
-11.55000000000018
 31
0.0
  0
LINE
  5
4550
  8
241
  6
CONTINUOUS
 10
6.4999999999994307
 20
-14.36140661634516
 30
0.0
 11
22.499999999999488
 21
-14.36140661634516
 31
0.0
  0
LINE
  5
4551
  8
242
  6
CONTINUOUS
 10
22.499999999999488
 20
-14.36140661634516
 30
0.0
 11
6.4999999999993276
 21
14.36140661634494
 31
0.0
  0
LINE
  5
4552
  8
242
  6
CONTINUOUS
 10
22.499999999999389
 20
14.36140661634505
 30
0.0
 11
6.4999999999994307
 21
-14.36140661634516
 31
0.0
  0
LINE
  5
4553
  8
240
  6
CONTINUOUS
 10
90.0
 20
-11.250000000000171
 30
0.0
 11
90.0
 21
11.249999999999829
 31
0.0
  0
LINE
  5
4554
  8
240
  6
CONTINUOUS
 10
89.500000000000014
 20
11.749999999999829
 30
0.0
 11
90.0
 21
11.249999999999829
 31
0.0
  0
LINE
  5
4555
  8
240
  6
CONTINUOUS
 10
89.500000000000014
 20
11.749999999999829
 30
0.0
 11
66.75
 21
11.749999999999829
 31
0.0
  0
LINE
  5
4556
  8
240
  6
CONTINUOUS
 10
90.0
 20
-11.250000000000171
 30
0.0
 11
89.500000000000014
 21
-11.750000000000171
 31
0.0
  0
LINE
  5
4557
  8
240
  6
CONTINUOUS
 10
89.500000000000014
 20
-11.750000000000171
 30
0.0
 11
67.0
 21
-11.750000000000171
 31
0.0
  0
LINE
  5
4560
  8
241
  6
CONTINUOUS
 10
89.500000000000014
 20
-11.750000000000171
 30
0.0
 11
89.500000000000014
 21
-8.0166020691551125
 31
0.0
  0
LINE
  5
4568
  8
245
  6
CENTER2
 10
91.172105233808907
 20
-0.0000000000001705
 30
0.0
 11
-106.0439924314102
 21
-0.0000000000001705
 31
0.0
  0
LINE
  5
456C
  8
241
  6
CONTINUOUS
 10
65.0
 20
-11.55000000000018
 30
0.0
 11
65.0
 21
11.55000000000037
 31
0.0
  0
LINE
  5
456F
  8
240
  6
CONTINUOUS
 10
65.0
 20
11.549999999999841
 30
0.0
 11
66.550000000000011
 21
11.549999999999841
 31
0.0
  0
LINE
  5
4570
  8
240
  6
CONTINUOUS
 10
64.220577136593974
 20
11.999999999999829
 30
0.0
 11
65.0
 21
11.549999999999841
 31
0.0
  0
LINE
  5
4571
  8
240
  6
CONTINUOUS
 10
66.75
 20
11.749999999999829
 30
0.0
 11
66.550000000000011
 21
11.549999999999841
 31
0.0
  0
POINT
  5
457D
  8
0
 10
14.0
 20
13.999999999999829
 30
0.0
1001
GENIUS_GENOLIS_13
1002
{
1000
ENT
1005
0
1005
453D
1002
}
1001
GENIUS_GENOENT_13
1002
{
1000
MYREF
1005
457D
1002
}
1002
{
1000
GRP
1005
0
1002
}
1001
GENIUS_GENOBJ-N-CHA_13
1002
{
1000
OWNER
1000
GEN
1002
}
1001
GENIUS_GENODEF_13
1002
{
1000
HIER
1070
     1
1002
}
1002
{
1000
MANEDIT
1070
     1
1002
}
1002
{
1000
NOSEL
1070
     0
1002
}
1002
{
1000
BEHIND
1070
     0
1002
}
1002
{
1000
OTHER
1070
     0
1002
}
1002
{
1000
REACTOR
1002
}
  0
POINT
  5
457E
  8
0
 10
14.0
 20
13.999999999999829
 30
0.0
1001
GENIUS_GENOENT_13
1002
{
1000
MYREF
1005
457E
1002
}
1002
{
1000
GRP
1005
0
1002
}
1001
GENIUS_GENOLIS_13
1002
{
1000
ENT
1005
0
1005
4521
1002
}
1001
GENIUS_GENOBJ-N-CHA_13
1002
{
1000
OWNER
1000
GEN
1002
}
1001
GENIUS_GENODEF_13
1002
{
1000
HIER
1070
     1
1002
}
1002
{
1000
MANEDIT
1070
     1
1002
}
1002
{
1000
NOSEL
1070
     0
1002
}
1002
{
1000
BEHIND
1070
     0
1002
}
1002
{
1000
OTHER
1070
     0
1002
}
1002
{
1000
REACTOR
1002
}
  0
LINE
  5
4629
  8
243
  6
HIDDEN2
 10
72.449999999999932
 20
6.9999999999998286
 30
0.0
 11
90.0
 21
6.9999999999998286
 31
0.0
  0
LINE
  5
462A
  8
243
  6
HIDDEN2
 10
72.449999999999932
 20
-7.0000000000001696
 30
0.0
 11
90.0
 21
-7.0000000000001696
 31
0.0
  0
CIRCLE
  5
462B
  8
241
  6
CONTINUOUS
 10
83.499999999999943
 20
-0.0000000000001705
 30
0.0
 40
2.6000000000000001
  0
CIRCLE
  5
462C
  8
242
  6
CONTINUOUS
 10
83.499999999999943
 20
-0.0000000000001705
 30
0.0
 40
2.25
  0
LINE
  5
462D
  8
245
  6
CENTER2
 10
83.499999999999943
 20
3.5999999999998291
 30
0.0
 11
83.499999999999943
 21
-3.6000000000001702
 31
0.0
  0
LINE
  5
462E
  8
241
  6
CONTINUOUS
 10
82.249999999999943
 20
-0.7216878400001705
 30
0.0
 11
83.499999999999943
 21
-1.4433756700001681
 31
0.0
  0
LINE
  5
462F
  8
241
  6
CONTINUOUS
 10
83.499999999999943
 20
-1.4433756700001681
 30
0.0
 11
84.749999999999972
 21
-0.7216878400001705
 31
0.0
  0
LINE
  5
4630
  8
241
  6
CONTINUOUS
 10
84.749999999999972
 20
-0.7216878400001705
 30
0.0
 11
84.749999999999972
 21
0.7216878399998296
 31
0.0
  0
LINE
  5
4631
  8
241
  6
CONTINUOUS
 10
84.749999999999972
 20
0.7216878399998296
 30
0.0
 11
83.499999999999943
 21
1.443375669999827
 31
0.0
  0
LINE
  5
4632
  8
241
  6
CONTINUOUS
 10
83.499999999999943
 20
1.443375669999827
 30
0.0
 11
82.249999999999943
 21
0.7216878399998296
 31
0.0
  0
LINE
  5
4633
  8
241
  6
CONTINUOUS
 10
82.249999999999943
 20
0.7216878399998296
 30
0.0
 11
82.249999999999943
 21
-0.7216878400001705
 31
0.0
  0
LINE
  5
4637
  8
241
  6
CONTINUOUS
 10
6.4999999999993294
 20
14.36140661634494
 30
0.0
 11
22.499999999999389
 21
14.36140661634505
 31
0.0
  0
LINE
  5
463A
  8
241
  6
CONTINUOUS
 10
89.499999999999915
 20
11.750000000000529
 30
0.0
 11
89.499999999999929
 21
8.0166020691554731
 31
0.0
  0
LINE
  5
463D
  8
240
  6
CONTINUOUS
 10
0.0
 20
-15.63349999999974
 30
0.0
 11
0.3000000000009777
 21
-15.33350000000112
 31
0.0
  0
ARC
  5
463E
  8
240
  6
CONTINUOUS
 10
5.4999999999989759
 20
-16.333499999999731
 30
0.0
 40
1.0
 50
0.0
 51
90.0
1001
GENIUS_GENODEF_13
1002
{
1000
HIER
1070
     0
1002
}
1002
{
1000
MANEDIT
1070
     0
1002
}
1002
{
1000
NOSEL
1070
     0
1002
}
1002
{
1000
BEHIND
1070
     0
1002
}
1002
{
1000
OTHER
1070
     0
1002
}
1002
{
1000
REACTOR
1002
}
1001
GENIUS_GENOBJ-N-FIL_13
1002
{
1000
OWNER
1000
GEN
1002
}
  0
LINE
  5
463F
  8
241
  6
CONTINUOUS
 10
0.0
 20
-15.63349999999974
 30
0.0
 11
0.0
 21
15.633499999999801
 31
0.0
  0
LINE
  5
4641
  8
240
  6
CONTINUOUS
 10
0.2999999999996135
 20
-15.333499999999731
 30
0.0
 11
5.4999999999989759
 21
-15.333499999999731
 31
0.0
  0
LINE
  5
4642
  8
240
  6
CONTINUOUS
 10
-0.0000000000002274
 20
15.633500000000019
 30
0.0
 11
0.3000000000007503
 21
15.333500000001401
 31
0.0
  0
ARC
  5
4643
  8
240
  6
CONTINUOUS
 10
5.4999999999987486
 20
16.333500000000129
 30
0.0
 40
1.0
 50
270.0
 51
0.0
1001
GENIUS_GENODEF_13
1002
{
1000
HIER
1070
     0
1002
}
1002
{
1000
MANEDIT
1070
     0
1002
}
1002
{
1000
NOSEL
1070
     0
1002
}
1002
{
1000
BEHIND
1070
     0
1002
}
1002
{
1000
OTHER
1070
     0
1002
}
1002
{
1000
REACTOR
1002
}
1001
GENIUS_GENOBJ-N-FIL_13
1002
{
1000
OWNER
1000
GEN
1002
}
  0
LINE
  5
4644
  8
240
  6
CONTINUOUS
 10
0.2999999999992724
 20
15.33350000000001
 30
0.0
 11
5.4999999999987486
 21
15.33350000000013
 31
0.0
  0
LINE
  5
4646
  8
243
  6
HIDDEN2
 10
-89.300000000000011
 20
-6.0000000000001128
 30
0.0
 11
-90.300000000000011
 21
-7.0000000000001128
 31
0.0
1001
GENIUS_GENFIL_13
1070
     0
1040
1.0
1040
1.0
1040
0.9999999999999715
1040
45.0
1000
~T
1001
GENIUS_GENOREF_13
1005
4652
  0
LINE
  5
4647
  8
243
  6
HIDDEN2
 10
-100.5679491924311
 20
-8.5000000000001137
 30
0.0
 11
-90.300000000000011
 21
-8.5000000000001137
 31
0.0
  0
LINE
  5
4648
  8
241
  6
CONTINUOUS
 10
-93.583930837731884
 20
13.216069162269379
 30
0.0
 11
-93.583930837731884
 21
8.3466157151617022
 31
0.0
  0
LINE
  5
4649
  8
243
  6
HIDDEN2
 10
-42.300000000000011
 20
-6.0000000000001128
 30
0.0
 11
-42.300000000000011
 21
5.9999999999998863
 31
0.0
  0
LINE
  5
464A
  8
243
  6
HIDDEN2
 10
-42.300000000000011
 20
-6.0000000000001128
 30
0.0
 11
-38.835898384861991
 21
-0.0000000000001137
 31
0.0
  0
LINE
  5
464B
  8
244
  6
HIDDEN2
 10
-52.299999999999947
 20
-7.0000000000001128
 30
0.0
 11
-50.567949192431001
 21
-6.0000000000001128
 31
0.0
  0
LINE
  5
464D
  8
244
  6
HIDDEN2
 10
-90.300000000000011
 20
-7.0000000000001128
 30
0.0
 11
-52.299999999999947
 21
-7.0000000000001128
 31
0.0
  0
LINE
  5
464E
  8
243
  6
HIDDEN2
 10
-89.300000000000011
 20
-6.0000000000001128
 30
0.0
 11
-42.300000000000011
 21
-6.0000000000001128
 31
0.0
  0
LINE
  5
464F
  8
243
  6
HIDDEN2
 10
-90.300000000000011
 20
8.4999999999998863
 30
0.0
 11
-90.300000000000011
 21
-8.5000000000001137
 31
0.0
  0
LINE
  5
4650
  8
243
  6
HIDDEN2
 10
-52.299999999999947
 20
-7.0000000000001128
 30
0.0
 11
-52.299999999999947
 21
6.9999999999998863
 31
0.0
  0
LINE
  5
4651
  8
243
  6
HIDDEN2
 10
-89.300000000000011
 20
-3.0000000000001128
 30
0.0
 11
-89.300000000000011
 21
-6.0000000000001128
 31
0.0
  0
POINT
  5
4652
  8
0
 10
14.0
 20
-14.00000000000005
 30
0.0
1001
GENIUS_GENOENT_13
1002
{
1000
MYREF
1005
4652
1002
}
1002
{
1000
GRP
1005
0
1002
}
1001
GENIUS_GENOLIS_13
1002
{
1000
ENT
1005
0
1005
4646
1002
}
1001
GENIUS_GENOBJ-N-CHA_13
1002
{
1000
OWNER
1000
GEN
1002
}
1001
GENIUS_GENODEF_13
1002
{
1000
HIER
1070
     1
1002
}
1002
{
1000
MANEDIT
1070
     1
1002
}
1002
{
1000
NOSEL
1070
     0
1002
}
1002
{
1000
BEHIND
1070
     0
1002
}
1002
{
1000
OTHER
1070
     0
1002
}
1002
{
1000
REACTOR
1002
}
  0
LINE
  5
46D7
  8
243
  6
HIDDEN2
 10
-102.3
 20
-10.50000000000022
 30
0.0
 11
-101.43397459621551
 21
-9.0000000000002274
 31
0.0
  0
LINE
  5
46D8
  8
243
  6
HIDDEN2
 10
-101.43397459621551
 20
-9.0000000000002274
 30
0.0
 11
-100.5679491924311
 21
-8.5000000000002274
 31
0.0
  0
LINE
  5
46FC
  8
250
  6
CONTINUOUS
 10
-46.391380197716892
 20
-24.52661016838579
 30
0.0
 11
-32.67709448343119
 21
-24.52661016838579
 31
0.0
1001
ITEMNAME
1000
LNSP2
  0
TEXT
  5
46FD
  8
241
  6
CONTINUOUS
 10
-98.0
 20
34.999999999999829
 30
0.0
 40
4.0
  1
MT4M-CKB2-90-M14
  7
YOKO
  0
LINE
  5
46FE
  8
250
  6
CONTINUOUS
 10
104.24783980218611
 20
-28.0934955831869
 30
0.0
 11
92.617725917890013
 21
-28.0934955831869
 31
0.0
  0
LINE
  5
46FF
  8
250
  6
CONTINUOUS
 10
92.617725917890013
 20
-28.0934955831869
 30
0.0
 11
82.284743275844107
 21
-8.9621019823912746
 31
0.0
  0
LINE
  5
4700
  8
250
  6
CONTINUOUS
 10
82.284743275844107
 20
-8.9621019823912693
 30
0.0
 11
81.224999999999966
 21
-7.0000000000001688
 31
0.0
  0
LINE
  5
4701
  8
250
  6
CONTINUOUS
 10
82.54305890119457
 20
-8.8225841339474282
 30
0.0
 11
81.224999999999966
 21
-7.0000000000001688
 31
0.0
  0
LINE
  5
4702
  8
250
  6
CONTINUOUS
 10
81.224999999999966
 20
-7.0000000000001688
 30
0.0
 11
82.026427650493673
 21
-9.1016198308351157
 31
0.0
  0
LINE
  5
4703
  8
250
  6
CONTINUOUS
 10
-54.881734198446111
 20
23.215276378274272
 30
0.0
 11
-76.593532985105725
 21
23.215276378274272
 31
0.0
  0
LINE
  5
4704
  8
250
  6
CONTINUOUS
 10
-76.593532985105725
 20
23.215276378274272
 30
0.0
 11
-71.99204816396923
 21
9.1198984265162526
 31
0.0
  0
LINE
  5
4705
  8
250
  6
CONTINUOUS
 10
-71.99204816396923
 20
9.1198984265162526
 30
0.0
 11
-71.299999999999983
 21
6.9999999999998286
 31
0.0
  0
LINE
  5
4706
  8
250
  6
CONTINUOUS
 10
-72.271138085206445
 20
9.0287885576854396
 30
0.0
 11
-71.299999999999983
 21
6.9999999999998286
 31
0.0
  0
LINE
  5
4707
  8
250
  6
CONTINUOUS
 10
-71.299999999999983
 20
6.9999999999998286
 30
0.0
 11
-71.712958242731972
 21
9.2110082953470691
 31
0.0
  0
LINE
  5
4708
  8
250
  6
CONTINUOUS
 10
-0.5
 20
-15.27573333333344
 30
0.0
 11
-8.5000000000005702
 21
-9.5514666666668351
 31
0.0
  0
LINE
  5
4709
  8
250
  6
CONTINUOUS
 10
-0.5
 20
15.991266666666499
 30
0.0
 11
-8.5000000000005667
 21
21.715533333333131
 31
0.0
  0
LINE
  5
470A
  8
250
  6
CONTINUOUS
 10
-7.5000000000005711
 20
-8.0370000000001074
 30
0.0
 11
-7.5000000000005684
 21
18.76999999999984
 31
0.0
  0
TEXT
  5
470B
  8
250
  6
CONTINUOUS
 10
-43.962808769145468
 20
-23.52661016838578
 30
0.0
 40
3.0
  1
MT4
  7
YOKO
1001
ITEMNAME
1000
LNSP3
  0
TEXT
  5
470C
  8
250
  6
CONTINUOUS
 10
94.381173135519404
 20
-26.693495583186891
 30
0.0
 40
2.799999999999998
  1
CK2
  7
ACJISTS
  0
TEXT
  5
470D
  8
250
  6
CONTINUOUS
 10
-75.281734198446117
 20
24.61527637827427
 30
0.0
 40
2.799999999999998
  1
M14P2.0
  7
ACJISTS
  0
TEXT
  5
470E
  8
250
  6
CONTINUOUS
 10
-8.5000000000005702
 20
-3.8477857142858412
 30
0.0
 40
3.0
  1
\U+220531.267
 50
90.0
  0
LINE
  5
470F
  8
250
  6
CONTINUOUS
 10
-7.871666666667231
 20
18.76999999999984
 30
0.0
 11
-7.5000000000005684
 21
20.999999999999851
 31
0.0
  0
LINE
  5
4710
  8
250
  6
CONTINUOUS
 10
-7.1283333333339023
 20
18.76999999999984
 30
0.0
 11
-7.5000000000005684
 21
20.999999999999851
 31
0.0
  0
LINE
  5
4711
  8
250
  6
CONTINUOUS
 10
-7.5000000000005684
 20
20.999999999999851
 30
0.0
 11
-7.5000000000005684
 21
18.76999999999984
 31
0.0
  0
LINE
  5
4712
  8
250
  6
CONTINUOUS
 10
-7.1283333333339041
 20
-8.0370000000001074
 30
0.0
 11
-7.5000000000005711
 21
-10.26700000000011
 31
0.0
  0
LINE
  5
4713
  8
250
  6
CONTINUOUS
 10
-7.8716666666672408
 20
-8.0370000000001074
 30
0.0
 11
-7.5000000000005711
 21
-10.26700000000011
 31
0.0
  0
LINE
  5
4714
  8
250
  6
CONTINUOUS
 10
-7.5000000000005711
 20
-10.26700000000011
 30
0.0
 11
-7.5000000000005711
 21
-8.0370000000001074
 31
0.0
  0
LINE
  5
4715
  8
250
  6
CONTINUOUS
 10
-51.187494309386068
 20
-16.21949684807668
 30
0.0
 11
-46.391380197716892
 21
-24.52661016838579
 31
0.0
1001
ACAD
1000
DSTYLE
1002
{
1070
    76
1070
     1
1070
    78
1070
     8
1070
   140
1040
3.0
1070
   282
1070
     1
1002
}
  0
LINE
  5
4716
  8
250
  6
CONTINUOUS
 10
-51.509367084459292
 20
-16.405330181410012
 30
0.0
 11
-52.302494309386077
 21
-14.28826019763738
 31
0.0
  0
LINE
  5
4717
  8
250
  6
CONTINUOUS
 10
-52.302494309386077
 20
-14.28826019763738
 30
0.0
 11
-51.187494309386068
 21
-16.21949684807668
 31
0.0
  0
LINE
  5
4793
  8
250
  6
CONTINUOUS
 10
90.0
 20
-11.750000000000171
 30
0.0
 11
106.0
 21
-11.750000000000171
 31
0.0
  0
LINE
  5
4794
  8
250
  6
CONTINUOUS
 10
90.0
 20
11.749999999999829
 30
0.0
 11
106.0
 21
11.749999999999821
 31
0.0
  0
LINE
  5
4795
  8
250
  6
CONTINUOUS
 10
105.0
 20
-9.5200000000001754
 30
0.0
 11
105.0
 21
9.5199999999998237
 31
0.0
  0
LINE
  5
4799
  8
250
  6
CONTINUOUS
 10
0.0
 20
-20.301324503311381
 30
0.0
 11
-0.000000000000001
 21
-36.0
 31
0.0
  0
LINE
  5
479A
  8
250
  6
CONTINUOUS
 10
90.0
 20
-11.750000000000171
 30
0.0
 11
90.0
 21
-36.0
 31
0.0
  0
LINE
  5
479B
  8
250
  6
CONTINUOUS
 10
2.2299999999999991
 20
-35.0
 30
0.0
 11
87.769999999999996
 21
-35.0
 31
0.0
  0
TEXT
  5
479F
  8
250
  6
CONTINUOUS
 10
104.0
 20
-5.9333333333334908
 30
0.0
 40
2.7999999999999989
  1
\U+220523.5
 50
90.0
  0
LINE
  5
47A0
  8
250
  6
CONTINUOUS
 10
104.6283333333333
 20
9.5199999999998237
 30
0.0
 11
105.0
 21
11.749999999999821
 31
0.0
  0
LINE
  5
47A1
  8
250
  6
CONTINUOUS
 10
105.3716666666666
 20
9.5199999999998237
 30
0.0
 11
105.0
 21
11.749999999999821
 31
0.0
  0
LINE
  5
47A2
  8
250
  6
CONTINUOUS
 10
105.0
 20
11.749999999999821
 30
0.0
 11
105.0
 21
9.5199999999998237
 31
0.0
  0
LINE
  5
47A3
  8
250
  6
CONTINUOUS
 10
105.3716666666666
 20
-9.5200000000001754
 30
0.0
 11
105.0
 21
-11.750000000000171
 31
0.0
  0
LINE
  5
47A4
  8
250
  6
CONTINUOUS
 10
104.6283333333333
 20
-9.5200000000001754
 30
0.0
 11
105.0
 21
-11.750000000000171
 31
0.0
  0
LINE
  5
47A5
  8
250
  6
CONTINUOUS
 10
105.0
 20
-11.750000000000171
 30
0.0
 11
105.0
 21
-9.5200000000001754
 31
0.0
  0
TEXT
  5
47A6
  8
250
  6
CONTINUOUS
 10
42.333333333333329
 20
-34.0
 30
0.0
 40
2.7999999999999989
  1
90
  0
LINE
  5
47A7
  8
250
  6
CONTINUOUS
 10
87.769999999999996
 20
-34.62833333333333
 30
0.0
 11
90.0
 21
-35.0
 31
0.0
  0
LINE
  5
47A8
  8
250
  6
CONTINUOUS
 10
87.769999999999996
 20
-35.37166666666667
 30
0.0
 11
90.0
 21
-35.0
 31
0.0
  0
LINE
  5
47A9
  8
250
  6
CONTINUOUS
 10
90.0
 20
-35.0
 30
0.0
 11
87.769999999999996
 21
-35.0
 31
0.0
  0
LINE
  5
47AA
  8
250
  6
CONTINUOUS
 10
2.2299999999999991
 20
-35.37166666666667
 30
0.0
 11
-0.0000000000000009
 21
-35.0
 31
0.0
  0
LINE
  5
47AB
  8
250
  6
CONTINUOUS
 10
2.2299999999999991
 20
-34.62833333333333
 30
0.0
 11
-0.0000000000000009
 21
-35.0
 31
0.0
  0
LINE
  5
47AC
  8
250
  6
CONTINUOUS
 10
-0.0000000000000009
 20
-35.0
 30
0.0
 11
2.2299999999999991
 21
-35.0
 31
0.0
  0
VIEWPORT
  5
22
 67
     1
  8
0
 10
261.51769911504419
 20
148.5
 30
0.0
 40
523.0353982300885
 41
297.0
 68
     1
 69
     1
1001
ACAD
1000
MVIEW
1002
{
1070
    16
1010
0.0
1020
0.0
1030
0.0
1010
0.0
1020
0.0
1030
1.0
1040
0.0
1040
297.0
1040
261.51769911504419
1040
148.5
1040
50.0
1040
0.0
1040
0.0
1070
     0
1070
   100
1070
     1
1070
     1
1070
     0
1070
     0
1070
     0
1070
     0
1040
0.0
1040
0.0
1040
0.0
1040
1.0
1040
1.0
1040
10.0
1040
10.0
1070
     0
1002
{
1002
}
1002
}
1001
GENIUS_GENODEF_13
1002
{
1000
HIER
1070
     0
1002
}
1002
{
1000
MANEDIT
1070
     0
1002
}
1002
{
1000
NOSEL
1070
     0
1002
}
1002
{
1000
BEHIND
1070
     0
1002
}
1002
{
1000
OTHER
1070
     0
1002
}
1002
{
1000
REACTOR
1002
}
1001
GENIUS_GENOBJ-N-SDF_13
1002
{
1000
OWNER
1000
GEN
1002
}
1001
GENIUS_GENSCREG_15
1000
PF
1040
1.0
1000
DF
1040
1.0
1000
MIN
1011
0.0
1021
0.0
1031
0.0
1021
0.0
1031
0.0
1000
MAX
1011
523.0353982300885
1021
0.0
1031
0.0
1021
297.0
1031
0.0
1000
FLAGS
1070
     4
  0
ENDSEC
  0
EOF
