  0
SECTION
  2
HEADER
  9
$ACADVER
  1
AC1009
  9
$INSBASE
 10
0.0
 20
0.0
 30
0.0
  9
$EXTMIN
 10
-106.0439924314104
 20
-36.0
 30
0.0
  9
$EXTMAX
 10
183.3078558158503
 20
74.836850616263746
 30
0.0
  9
$LIMMIN
 10
0.0
 20
0.0
  9
$LIMMAX
 10
297.0
 20
210.0
  9
$ORTHOMODE
 70
     0
  9
$REGENMODE
 70
     1
  9
$FILLMODE
 70
     1
  9
$QTEXTMODE
 70
     0
  9
$MIRRTEXT
 70
     1
  9
$DRAGMODE
 70
     2
  9
$LTSCALE
 40
10.0
  9
$OSMODE
 70
     7
  9
$ATTMODE
 70
     1
  9
$TEXTSIZE
 40
4.0
  9
$TRACEWID
 40
1.0
  9
$TEXTSTYLE
  7
YOKO
  9
$CLAYER
  8
241
  9
$CELTYPE
  6
BYLAYER
  9
$CECOLOR
 62
   256
  9
$DIMSCALE
 40
1.0
  9
$DIMASZ
 40
2.2299999999999991
  9
$DIMEXO
 40
0.5
  9
$DIMDLI
 40
7.0
  9
$DIMRND
 40
0.0
  9
$DIMDLE
 40
0.0
  9
$DIMEXE
 40
1.0
  9
$DIMTP
 40
0.0
  9
$DIMTM
 40
0.01
  9
$DIMTXT
 40
2.799999999999998
  9
$DIMCEN
 40
0.0
  9
$DIMTSZ
 40
0.0
  9
$DIMTOL
 70
     0
  9
$DIMLIM
 70
     0
  9
$DIMTIH
 70
     0
  9
$DIMTOH
 70
     0
  9
$DIMSE1
 70
     0
  9
$DIMSE2
 70
     0
  9
$DIMTAD
 70
     3
  9
$DIMZIN
 70
     9
  9
$DIMBLK
  1
OPEN
  9
$DIMASO
 70
     1
  9
$DIMSHO
 70
     1
  9
$DIMPOST
  1

  9
$DIMAPOST
  1

  9
$DIMALT
 70
     0
  9
$DIMALTD
 70
     2
  9
$DIMALTF
 40
25.399999999999999
  9
$DIMLFAC
 40
1.0
  9
$DIMTOFL
 70
     1
  9
$DIMTVP
 40
0.0
  9
$DIMTIX
 70
     1
  9
$DIMSOXD
 70
     0
  9
$DIMSAH
 70
     0
  9
$DIMBLK1
  1

  9
$DIMBLK2
  1

  9
$DIMSTYLE
  2
BIGT
  9
$DIMCLRD
 70
   256
  9
$DIMCLRE
 70
   256
  9
$DIMCLRT
 70
    40
  9
$DIMTFAC
 40
1.0
  9
$DIMGAP
 40
1.0
  9
$LUNITS
 70
     2
  9
$LUPREC
 70
     6
  9
$SKETCHINC
 40
1.0
  9
$FILLETRAD
 40
4.0
  9
$AUNITS
 70
     0
  9
$AUPREC
 70
     6
  9
$MENU
  1
.
  9
$ELEVATION
 40
0.0
  9
$PELEVATION
 40
0.0
  9
$THICKNESS
 40
0.0
  9
$LIMCHECK
 70
     0
  9
$BLIPMODE
 70
     0
  9
$CHAMFERA
 40
1.0
  9
$CHAMFERB
 40
1.0
  9
$SKPOLY
 70
     0
  9
$TDCREATE
 40
2457003.6314283679
  9
$TDUPDATE
 40
2460557.4630276971
  9
$TDINDWG
 40
0.1282147106
  9
$TDUSRTIMER
 40
0.1282145833
  9
$USRTIMER
 70
     1
  9
$ANGBASE
 50
0.0
  9
$ANGDIR
 70
     0
  9
$PDMODE
 70
     1
  9
$PDSIZE
 40
0.0
  9
$PLINEWID
 40
0.0
  9
$COORDS
 70
     1
  9
$SPLFRAME
 70
     0
  9
$SPLINETYPE
 70
     6
  9
$SPLINESEGS
 70
     4
  9
$ATTDIA
 70
     1
  9
$ATTREQ
 70
     1
  9
$HANDLING
 70
     1
  9
$HANDSEED
  5
5457
  9
$SURFTAB1
 70
     6
  9
$SURFTAB2
 70
     6
  9
$SURFTYPE
 70
     6
  9
$SURFU
 70
     6
  9
$SURFV
 70
     6
  9
$UCSNAME
  2

  9
$UCSORG
 10
0.0
 20
0.0
 30
0.0
  9
$UCSXDIR
 10
1.0
 20
0.0
 30
0.0
  9
$UCSYDIR
 10
0.0
 20
1.0
 30
0.0
  9
$PUCSNAME
  2

  9
$PUCSORG
 10
0.0
 20
0.0
 30
0.0
  9
$PUCSXDIR
 10
1.0
 20
0.0
 30
0.0
  9
$PUCSYDIR
 10
0.0
 20
1.0
 30
0.0
  9
$USERI1
 70
     1
  9
$USERI2
 70
     0
  9
$USERI3
 70
     0
  9
$USERI4
 70
     0
  9
$USERI5
 70
     0
  9
$USERR1
 40
0.0
  9
$USERR2
 40
0.0
  9
$USERR3
 40
0.0
  9
$USERR4
 40
0.0
  9
$USERR5
 40
0.0
  9
$WORLDVIEW
 70
     1
  9
$SHADEDGE
 70
     3
  9
$SHADEDIF
 70
    70
  9
$TILEMODE
 70
     1
  9
$MAXACTVP
 70
    16
  9
$PLIMCHECK
 70
     0
  9
$PEXTMIN
 10
1.0000000000000000E+020
 20
1.0000000000000000E+020
 30
1.0000000000000000E+020
  9
$PEXTMAX
 10
-1.0000000000000000E+020
 20
-1.0000000000000000E+020
 30
-1.0000000000000000E+020
  9
$PLIMMIN
 10
0.0
 20
0.0
  9
$PLIMMAX
 10
420.0
 20
297.0
  9
$UNITMODE
 70
     0
  9
$VISRETAIN
 70
     1
  9
$PLINEGEN
 70
     0
  9
$PSLTSCALE
 70
     1
  0
ENDSEC
  0
SECTION
  2
TABLES
  0
TABLE
  2
VPORT
 70
     1
  0
VPORT
  2
*ACTIVE
 70
     0
 10
0.0
 20
0.0
 11
1.0
 21
1.0
 12
-24.9281975187765
 22
-5.1713807519768693
 13
0.0
 23
0.0
 14
7.0
 24
7.0
 15
7.0
 25
7.0
 16
0.0
 26
0.0
 36
1.0
 17
0.0
 27
0.0
 37
0.0
 40
214.0047212599375
 41
1.495118549511854
 42
50.0
 43
0.0
 44
0.0
 50
0.0
 51
0.0
 71
     0
 72
  2000
 73
     1
 74
     0
 75
     0
 76
     1
 77
     0
 78
     0
  0
ENDTAB
  0
TABLE
  2
LTYPE
 70
    19
  0
LTYPE
  2
CONTINUOUS
 70
     0
  3
Solid line
 72
    65
 73
     0
 40
0.0
  0
LTYPE
  2
CENTER2
 70
     0
  3
___ _ ___ _ ___ _ ___ _ ___ _ ___ _ ___ _ ___ _
 72
    65
 73
     4
 40
1.125
 49
0.75
 49
-0.125
 49
0.125
 49
-0.125
  0
LTYPE
  2
HIDDEN2
 70
     0
  3
_ _ _ _ _ _ _ _ _ _ _ _ _ _ _ _ _ _ _ _ _ _ _ _
 72
    65
 73
     2
 40
0.1875
 49
0.125
 49
-0.0625
  0
LTYPE
  2
PHANTOM2
 70
     0
  3
___ _ _ ___ _ _ ___ _ _ ___ _ _ ___ _ _ ___ _ _
 72
    65
 73
     6
 40
1.25
 49
0.625
 49
-0.125
 49
0.125
 49
-0.125
 49
0.125
 49
-0.125
  0
LTYPE
  2
AMCONSTR
 70
     0
  3
_______________________
 72
    65
 73
     2
 40
9999.0
 49
9999.0
 49
0.0
  0
LTYPE
  2
HIDDEN
 70
     0
  3
Hidden __ __ __ __ __ __ __ __ __ __ __ __ __ _
 72
    65
 73
     2
 40
0.375
 49
0.25
 49
-0.125
  0
LTYPE
  2
CENTER
 70
     0
  3
Center ____ _ ____ _ ____ _ ____ _ ____ _ ____
 72
    65
 73
     4
 40
2.0
 49
1.25
 49
-0.25
 49
0.25
 49
-0.25
  0
LTYPE
  2
AMZIGZAG2
 70
     0
  3
/\/-/\/-/\/-/\/-/\/-/\/
 72
    65
 73
     2
 40
0.4401
 49
0.0001
 49
-0.4400000000000003
  0
LTYPE
  2
ACANSTGB
 70
     0
  3
__ . . __ . .
 72
    65
 73
     6
 40
0.35433070866
 49
0.15748031496
 49
-0.03937007874
 49
0.03937007874
 49
-0.03937007874
 49
0.03937007874
 49
-0.03937007874
  0
LTYPE
  2
ACANSTGL
 70
     0
  3
_ _ _ _ _
 72
    65
 73
     2
 40
0.11811023622
 49
0.07874015748
 49
-0.03937007874
  0
LTYPE
  2
AM_ISO02W050
 70
     0
  3
__ __ __ __ __ __ __ __ __ __ __ __ __ __ __
 72
    65
 73
     2
 40
7.5
 49
6.0
 49
-1.5
  0
LTYPE
  2
ACJISTGB
 70
     0
  3
__ . . __ . .
 72
    65
 73
     6
 40
9.0
 49
4.0
 49
-1.0
 49
1.0
 49
-1.0
 49
1.0
 49
-1.0
  0
LTYPE
  2
ACJISTGL
 70
     0
  3
_ _ _ _ _
 72
    65
 73
     2
 40
3.0
 49
2.0
 49
-1.0
  0
ENDTAB
  0
TABLE
  2
LAYER
 70
    10
  0
LAYER
  2
0
 70
     0
 62
     7
  6
CONTINUOUS
  0
LAYER
  2
240
 70
     0
 62
     4
  6
CONTINUOUS
  0
LAYER
  2
DEFPOINTS
 70
     0
 62
     7
  6
CONTINUOUS
  0
LAYER
  2
245
 70
     0
 62
     2
  6
CENTER2
  0
LAYER
  2
241
 70
     0
 62
   211
  6
CONTINUOUS
  0
LAYER
  2
242
 70
     0
 62
     3
  6
CONTINUOUS
  0
LAYER
  2
243
 70
     0
 62
   211
  6
HIDDEN2
  0
LAYER
  2
244
 70
     0
 62
     3
  6
HIDDEN2
  0
LAYER
  2
250
 70
     0
 62
     3
  6
CONTINUOUS
  0
ENDTAB
  0
TABLE
  2
STYLE
 70
     9
  0
STYLE
  2
STANDARD
 70
     0
 40
0.0
 41
1.0
 50
0.0
 71
     0
 42
3.0
  3
romans.shx
  4
extfont.shx
  0
STYLE
  2
YOKO
 70
     0
 40
0.0
 41
1.0
 50
0.0
 71
     0
 42
4.0
  3
romans.shx
  4
extfont.shx
  0
STYLE
  2
ACJISTS
 70
     0
 40
1.0
 41
1.0
 50
0.0
 71
     0
 42
3.0
  3
amgdt.shx
  4
extfont.shx
  0
STYLE
  2
ACANSGDT
 70
     0
 40
0.0
 41
1.0
 50
0.0
 71
     0
 42
4.0
  3
amgdt.shx
  4

  0
STYLE
  2
ACJISGDT
 70
     0
 40
0.0
 41
1.0
 50
0.0
 71
     0
 42
3.0
  3
amgdt.shx
  4
extfont.shx
  0
ENDTAB
  0
TABLE
  2
VIEW
 70
     0
  0
ENDTAB
  0
TABLE
  2
UCS
 70
     0
  0
ENDTAB
  0
TABLE
  2
APPID
 70
    42
  0
APPID
  2
ACAD
 70
     0
  0
APPID
  2
ACADANNOTATIVE
 70
     0
  0
APPID
  2
GLOBAL
 70
     0
  0
APPID
  2
DETAIL
 70
     0
  0
APPID
  2
GRPNAME
 70
     0
  0
APPID
  2
GPARA
 70
     0
  0
APPID
  2
MCAD_NO_VIS
 70
     0
  0
APPID
  2
ACAD_TEMP_GRAPHIC
 70
     0
  0
APPID
  2
ACATTRIBSERVICES
 70
     0
  0
APPID
  2
GENIUS_GENSCREG_15
 70
     0
  0
APPID
  2
GENIUS_GENODEF_13
 70
     0
  0
APPID
  2
GENIUS_GENOBJ-N-SDF_13
 70
     0
  0
APPID
  2
GENIUS_GENREC_14
 70
     0
  0
APPID
  2
GENIUS_GENOBJ-N-REC_13
 70
     0
  0
APPID
  2
GENIUS_GENDIMSH_14
 70
     0
  0
APPID
  2
GENIUS_GENOBJ-N-DIM_13
 70
     0
  0
APPID
  2
GENIUS_GENDIM_13
 70
     0
  0
APPID
  2
GENIUS_GENDTOL_13
 70
     0
  0
APPID
  2
GENIUS_GENOLIS_13
 70
     0
  0
APPID
  2
GENIUS_GENOENT_13
 70
     0
  0
APPID
  2
GENIUS_GENOBJ-F-FEM_13
 70
     0
  0
APPID
  2
GENIUS_GENOREF_13
 70
     0
  0
APPID
  2
GENIUS_GEFFEM_13
 70
     0
  0
APPID
  2
GENIUS_GEFFEMP_13
 70
     0
  0
APPID
  2
AD_DRAW
 70
     0
  0
APPID
  2
DESIGNERASSEMBLIES
 70
     0
  0
APPID
  2
ACADM_DIM_EDIT
 70
     0
  0
APPID
  2
AMDT_DM_ADJ
 70
     0
  0
APPID
  2
ITEMNAME
 70
     0
  0
APPID
  2
GENIUS_GENOBJ-N-FIL_13
 70
     0
  0
APPID
  2
GENIUS_GENFIL_13
 70
     0
  0
APPID
  2
GENIUS_GENOBJ-N-CHA_13
 70
     0
  0
APPID
  2
ACAD_NAV_VCDISPLAY
 70
     0
  0
APPID
  2
ACAD_PSEXT
 70
     0
  0
APPID
  2
GRADE_0
 70
     0
  0
APPID
  2
ACAECLAYERSTANDARD
 70
     0
  0
APPID
  2
ACAD_EXEMPT_FROM_CAD_STANDARDS
 70
     0
  0
APPID
  2
ACAD_DSTYLE_DIMINSPECT
 70
     0
  0
APPID
  2
ACAD_DSTYLE_DIMRADIAL_EXTENSION
 70
     0
  0
APPID
  2
ACAD_MLEADERVER
 70
     0
  0
APPID
  2
ACAD_DSTYLE_DIMJAG
 70
     0
  0
APPID
  2
ACAD_DSTYLE_DIMBREAK
 70
     0
  0
ENDTAB
  0
TABLE
  2
DIMSTYLE
 70
    20
  0
DIMSTYLE
  2
STANDARD
 70
     0
  3

  4

  5

  6

  7

 40
1.0
 41
0.18
 42
0.0625
 43
0.38
 44
0.18
 45
0.0
 46
0.0
 47
0.0
 48
0.0
140
0.18
141
0.09
142
0.0
143
25.399999999999999
144
1.0
145
0.0
146
1.0
147
0.09
 71
     0
 72
     0
 73
     1
 74
     1
 75
     0
 76
     0
 77
     0
 78
     0
170
     0
171
     2
172
     0
173
     0
174
     0
175
     0
176
     0
177
     0
178
     0
  0
DIMSTYLE
  2
BIGT
 70
     0
  3

  4

  5

  6

  7

 40
1.0
 41
2.2299999999999991
 42
0.5
 43
7.0
 44
1.0
 45
0.0
 46
0.0
 47
0.0
 48
0.01
140
2.799999999999998
141
0.0
142
0.0
143
25.399999999999999
144
1.0
145
0.0
146
1.0
147
1.0
 71
     0
 72
     0
 73
     0
 74
     0
 75
     0
 76
     0
 77
     3
 78
     9
170
     0
171
     2
172
     1
173
     0
174
     1
175
     0
176
   256
177
   256
178
    40
  0
DIMSTYLE
  2
AM_ANSI
 70
     0
  3

  4
mm
  5

  6

  7

 40
1.0
 41
0.12
 42
0.05
 43
0.5
 44
0.1
 45
0.0
 46
0.0
 47
0.1
 48
0.1
140
0.12
141
0.0
142
0.0
143
25.399999999999999
144
1.0
145
0.0
146
0.71
147
0.06
 71
     0
 72
     0
 73
     1
 74
     1
 75
     0
 76
     0
 77
     0
 78
     7
170
     0
171
     2
172
     0
173
     0
174
     0
175
     0
176
   256
177
   256
178
     2
  0
DIMSTYLE
  2
AM_ANSI$3
 70
     0
  3

  4
mm
  5

  6

  7

 40
1.0
 41
0.12
 42
0.05
 43
0.5
 44
0.1
 45
0.0
 46
0.0
 47
0.1
 48
0.1
140
0.12
141
0.0
142
0.0
143
25.399999999999999
144
1.0
145
0.0
146
0.71
147
0.06
 71
     0
 72
     0
 73
     1
 74
     1
 75
     0
 76
     0
 77
     0
 78
     7
170
     0
171
     2
172
     0
173
     0
174
     0
175
     0
176
   256
177
   256
178
     2
  0
DIMSTYLE
  2
AM_ANSI$4
 70
     0
  3

  4
mm
  5

  6

  7

 40
1.0
 41
0.12
 42
0.05
 43
0.5
 44
0.1
 45
0.0
 46
0.0
 47
0.1
 48
0.1
140
0.12
141
0.0
142
0.0
143
25.399999999999999
144
1.0
145
0.0
146
0.71
147
0.06
 71
     0
 72
     0
 73
     1
 74
     1
 75
     0
 76
     0
 77
     0
 78
     7
170
     0
171
     2
172
     0
173
     0
174
     0
175
     0
176
   256
177
   256
178
     2
  0
DIMSTYLE
  2
AM_ANSI$7
 70
     0
  3

  4
mm
  5

  6

  7

 40
1.0
 41
0.12
 42
0.05
 43
0.5
 44
0.1
 45
0.0
 46
0.0
 47
0.1
 48
0.1
140
0.12
141
0.0
142
0.0
143
25.399999999999999
144
1.0
145
0.0
146
0.71
147
0.06
 71
     0
 72
     0
 73
     1
 74
     1
 75
     0
 76
     0
 77
     0
 78
     7
170
     0
171
     2
172
     0
173
     0
174
     0
175
     0
176
   256
177
   256
178
     2
  0
DIMSTYLE
  2
AM_ANSI$SF
 70
     0
  3

  4
mm
  5

  6

  7

 40
1.0
 41
0.12
 42
0.05
 43
0.5
 44
0.1
 45
0.0
 46
0.0
 47
0.1
 48
0.1
140
0.12
141
0.0
142
0.0
143
25.399999999999999
144
1.0
145
0.0
146
0.71
147
0.06
 71
     0
 72
     0
 73
     1
 74
     1
 75
     1
 76
     1
 77
     0
 78
     7
170
     0
171
     2
172
     0
173
     0
174
     0
175
     0
176
   256
177
   256
178
     2
  0
DIMSTYLE
  2
AM_ANSI$SH
 70
     0
  3

  4
mm
  5

  6

  7

 40
1.0
 41
0.12
 42
0.05
 43
0.5
 44
0.1
 45
0.0
 46
0.0
 47
0.1
 48
0.1
140
0.12
141
0.0
142
0.0
143
25.399999999999999
144
1.0
145
0.0
146
0.71
147
0.06
 71
     0
 72
     0
 73
     1
 74
     1
 75
     1
 76
     1
 77
     0
 78
     7
170
     0
171
     2
172
     0
173
     1
174
     0
175
     0
176
   256
177
   256
178
     2
  0
DIMSTYLE
  2
BIGT$2
 70
     0
  3

  4

  5
OPEN
  6

  7

 40
1.0
 41
2.2299999999999991
 42
0.5
 43
7.0
 44
1.0
 45
0.0
 46
0.0
 47
0.0
 48
0.01
140
2.7999999999999989
141
0.0
142
0.0
143
25.399999999999999
144
1.0
145
0.0
146
1.0
147
1.0
 71
     0
 72
     0
 73
     0
 74
     0
 75
     0
 76
     0
 77
     3
 78
     9
170
     0
171
     2
172
     1
173
     0
174
     0
175
     0
176
   256
177
   256
178
    40
  0
DIMSTYLE
  2
BIGT$3
 70
     0
  3

  4

  5
OPEN
  6

  7

 40
1.0
 41
2.2299999999999991
 42
0.5
 43
2.5
 44
1.0
 45
0.0
 46
0.0
 47
0.0
 48
0.01
140
2.7999999999999989
141
0.0
142
0.0
143
25.399999999999999
144
1.0
145
0.0
146
1.0
147
1.0
 71
     0
 72
     0
 73
     0
 74
     0
 75
     0
 76
     0
 77
     3
 78
     9
170
     0
171
     2
172
     1
173
     0
174
     0
175
     0
176
   256
177
   256
178
    40
  0
DIMSTYLE
  2
BIGT$7
 70
     0
  3

  4

  5
OPEN
  6

  7

 40
0.0
 41
2.2299999999999991
 42
0.5
 43
7.0
 44
1.0
 45
0.0
 46
0.0
 47
0.0
 48
0.01
140
2.7999999999999989
141
0.0
142
0.0
143
25.399999999999999
144
1.0
145
0.0
146
1.0
147
1.0
 71
     0
 72
     0
 73
     0
 74
     0
 75
     0
 76
     0
 77
     3
 78
     9
170
     0
171
     2
172
     0
173
     0
174
     0
175
     0
176
   256
177
   256
178
    40
  0
DIMSTYLE
  2
BIGT$6
 70
     0
  3

  4

  5
OPEN
  6

  7

 40
1.0
 41
2.2299999999999991
 42
0.5
 43
2.5
 44
1.0
 45
0.0
 46
0.0
 47
0.0
 48
0.01
140
2.7999999999999989
141
0.0
142
0.0
143
25.399999999999999
144
1.0
145
0.0
146
1.0
147
1.0
 71
     0
 72
     0
 73
     0
 74
     0
 75
     0
 76
     0
 77
     3
 78
     9
170
     0
171
     2
172
     1
173
     0
174
     0
175
     0
176
   256
177
   256
178
    40
  0
DIMSTYLE
  2
BIGT$0
 70
     0
  3

  4

  5
OPEN
  6

  7

 40
1.0
 41
2.2299999999999991
 42
0.5
 43
7.0
 44
1.0
 45
0.0
 46
0.0
 47
0.0
 48
0.01
140
2.7999999999999989
141
0.0
142
0.0
143
25.399999999999999
144
1.0
145
0.0
146
1.0
147
1.0
 71
     0
 72
     0
 73
     0
 74
     0
 75
     0
 76
     0
 77
     3
 78
     9
170
     0
171
     2
172
     1
173
     0
174
     1
175
     0
176
   256
177
   256
178
    40
  0
DIMSTYLE
  2
BIGT$4
 70
     0
  3

  4

  5
OPEN
  6

  7

 40
1.0
 41
2.2299999999999991
 42
0.5
 43
2.5
 44
1.0
 45
0.0
 46
0.0
 47
0.0
 48
0.01
140
2.7999999999999989
141
0.0
142
0.0
143
25.399999999999999
144
1.0
145
0.0
146
1.0
147
1.0
 71
     0
 72
     0
 73
     0
 74
     0
 75
     0
 76
     0
 77
     3
 78
     9
170
     0
171
     2
172
     1
173
     0
174
     0
175
     0
176
   256
177
   256
178
    40
  0
DIMSTYLE
  2
BIGT$SH
 70
     0
  3

  4

  5
OPEN
  6

  7

 40
1.0
 41
2.2299999999999991
 42
0.5
 43
7.0
 44
1.0
 45
0.0
 46
0.0
 47
0.0
 48
0.0
140
2.7999999999999989
141
0.0
142
0.0
143
25.399999999999999
144
1.0
145
0.0
146
1.0
147
1.0
 71
     0
 72
     0
 73
     0
 74
     0
 75
     0
 76
     0
 77
     3
 78
     9
170
     0
171
     2
172
     1
173
     0
174
     0
175
     0
176
   256
177
   256
178
    40
  0
DIMSTYLE
  2
BIGT$SF
 70
     0
  3

  4

  5
OPEN
  6

  7

 40
1.0
 41
2.2299999999999991
 42
0.5
 43
7.0
 44
1.0
 45
0.0
 46
0.0
 47
0.0
 48
0.0
140
2.7999999999999989
141
0.0
142
0.0
143
25.399999999999999
144
1.0
145
0.0
146
1.0
147
1.0
 71
     0
 72
     0
 73
     0
 74
     0
 75
     0
 76
     0
 77
     3
 78
     9
170
     0
171
     2
172
     1
173
     0
174
     0
175
     0
176
   256
177
   256
178
    40
  0
ENDTAB
  0
ENDSEC
  0
SECTION
  2
BLOCKS
  0
BLOCK
  8
0
  2
$MODEL_SPACE
 70
     0
 10
0.0
 20
0.0
 30
0.0
  3
$MODEL_SPACE
  1

  0
ENDBLK
  5
50BC
  8
0
  0
BLOCK
 67
     1
  8
0
  2
$PAPER_SPACE
 70
     0
 10
0.0
 20
0.0
 30
0.0
  3
$PAPER_SPACE
  1

  0
ENDBLK
  5
50B8
 67
     1
  8
0
  0
BLOCK
  8
0
  2
_OPEN
 70
     0
 10
0.0
 20
0.0
 30
0.0
  3
_OPEN
  1

  0
LINE
  5
48E3
  8
0
  6
BYBLOCK
 62
     0
 10
-1.0
 20
0.1666666666666666
 30
0.0
 11
0.0
 21
0.0
 31
0.0
  0
LINE
  5
48E4
  8
0
  6
BYBLOCK
 62
     0
 10
-1.0
 20
-0.1666666666666666
 30
0.0
 11
0.0
 21
0.0
 31
0.0
  0
LINE
  5
48E5
  8
0
  6
BYBLOCK
 62
     0
 10
0.0
 20
0.0
 30
0.0
 11
-1.0
 21
0.0
 31
0.0
  0
ENDBLK
  5
48E6
  8
0
  0
BLOCK
  8
0
  2
_ACMFILLEDHALF
 70
     0
 10
0.0
 20
0.0
 30
0.0
  3
_ACMFILLEDHALF
  1

  0
TRACE
  5
4B06
  8
240
 62
     0
 10
-0.8
 20
0.0
 30
0.0
 11
-1.0
 21
0.166666666
 31
0.0
 12
0.0
 22
0.0
 32
0.0
 13
0.0
 23
0.0
 33
0.0
  0
LINE
  5
4B07
  8
240
 62
     0
 10
-1.0
 20
0.0
 30
0.0
 11
-0.8
 21
0.0
 31
0.0
  0
ENDBLK
  5
4B05
  8
0
  0
ENDSEC
  0
SECTION
  2
ENTITIES
  0
ARC
  5
4256
  8
240
  6
CONTINUOUS
 10
-101.3
 20
11.500000000000011
 30
0.0
 40
1.0
 50
90.0
 51
180.0
  0
LINE
  5
4257
  8
240
  6
CONTINUOUS
 10
-102.3
 20
11.500000000000011
 30
0.0
 11
-102.3
 21
0.0000000000000063
 31
0.0
  0
LINE
  5
4258
  8
240
  6
CONTINUOUS
 10
-102.3
 20
-11.499999999999989
 30
0.0
 11
-102.3
 21
0.0000000000000063
 31
0.0
  0
ARC
  5
4259
  8
240
  6
CONTINUOUS
 10
-101.3
 20
-11.499999999999989
 30
0.0
 40
1.0
 50
180.0
 51
270.0
  0
LINE
  5
425B
  8
240
  6
CONTINUOUS
 10
6.4999999999991473
 20
-16.33349999999993
 30
0.0
 11
6.4999999999994307
 21
-20.499999999999989
 31
0.0
  0
LINE
  5
425C
  8
240
  6
CONTINUOUS
 10
-101.3
 20
-12.499999999999989
 30
0.0
 11
-94.300000000001319
 21
-12.499999999999989
 31
0.0
  0
LINE
  5
425D
  8
240
  6
CONTINUOUS
 10
-93.58393083773187
 20
-13.216069162269489
 30
0.0
 11
-94.300000000001319
 21
-12.499999999999989
 31
0.0
  0
LINE
  5
425E
  8
240
  6
CONTINUOUS
 10
-93.58393083773187
 20
-13.216069162269489
 30
0.0
 11
0.0000000000001847
 21
-15.63349999999993
 31
0.0
  0
LINE
  5
4263
  8
243
  6
HIDDEN2
 10
-100.5679491924311
 20
8.5000000000000071
 30
0.0
 11
-90.299999999999983
 21
8.5000000000000071
 31
0.0
  0
LINE
  5
4266
  8
241
  6
CONTINUOUS
 10
6.4999999999989191
 20
16.33349999999993
 30
0.0
 11
6.4999999999991473
 21
-16.33349999999993
 31
0.0
  0
LINE
  5
4267
  8
241
  6
CONTINUOUS
 10
-93.58393083773187
 20
-13.216069162269489
 30
0.0
 11
-93.58393083773187
 21
-8.3466157151618212
 31
0.0
  0
LINE
  5
4268
  8
243
  6
HIDDEN2
 10
-42.29999999999999
 20
6.0
 30
0.0
 11
-42.29999999999999
 21
0.0
 31
0.0
  0
LINE
  5
4269
  8
243
  6
HIDDEN2
 10
-42.29999999999999
 20
6.0
 30
0.0
 11
-38.835898384861991
 21
0.0
 31
0.0
  0
LINE
  5
426D
  8
244
  6
HIDDEN2
 10
-52.29999999999999
 20
7.0
 30
0.0
 11
-50.567949192431023
 21
6.0
 31
0.0
  0
LINE
  5
426E
  8
245
  6
CENTER2
 10
0.0
 20
-19.80132450331126
 30
0.0
 11
0.0
 21
-0.0000000000000568
 31
0.0
  0
LINE
  5
427D
  8
250
  6
CONTINUOUS
 10
-46.391380197716892
 20
-24.52661016838562
 30
0.0
 11
-32.67709448343119
 21
-24.52661016838562
 31
0.0
1001
ITEMNAME
1000
LNSP2
  0
LINE
  5
4283
  8
240
  6
CONTINUOUS
 10
6.4999999999989191
 20
16.33349999999993
 30
0.0
 11
6.4999999999994307
 21
20.499999999999989
 31
0.0
  0
LINE
  5
4286
  8
241
  6
CONTINUOUS
 10
-94.299999999999969
 20
-12.499999999999989
 30
0.0
 11
-94.299999999999969
 21
0.0000000000000063
 31
0.0
  0
LINE
  5
4288
  8
240
  6
CONTINUOUS
 10
-93.58393083773187
 20
13.216069162269489
 30
0.0
 11
-94.300000000001319
 21
12.500000000000011
 31
0.0
  0
LINE
  5
4289
  8
240
  6
CONTINUOUS
 10
-101.3
 20
12.500000000000011
 30
0.0
 11
-94.300000000001319
 21
12.500000000000011
 31
0.0
  0
LINE
  5
428A
  8
240
  6
CONTINUOUS
 10
-93.58393083773187
 20
13.216069162269489
 30
0.0
 11
-0.0000000000001421
 21
15.63349999999992
 31
0.0
  0
LINE
  5
428C
  8
245
  6
CENTER2
 10
-106.0439924314102
 20
0.0
 30
0.0
 11
73.431706722661374
 21
0.0
 31
0.0
  0
LINE
  5
428D
  8
245
  6
CENTER2
 10
0.0
 20
19.22421948912017
 30
0.0
 11
0.0
 21
-0.0000000000000568
 31
0.0
  0
LINE
  5
4361
  8
243
  6
HIDDEN2
 10
-102.3
 20
10.5
 30
0.0
 11
-101.43397459621551
 21
8.9999999999999964
 31
0.0
  0
LINE
  5
4362
  8
243
  6
HIDDEN2
 10
-101.43397459621551
 20
8.9999999999999964
 30
0.0
 11
-100.5679491924311
 21
8.5000000000000071
 31
0.0
  0
LINE
  5
4363
  8
244
  6
HIDDEN2
 10
-90.299999999999983
 20
7.0
 30
0.0
 11
-52.29999999999999
 21
7.0
 31
0.0
  0
LINE
  5
4364
  8
243
  6
HIDDEN2
 10
-89.299999999999969
 20
6.0
 30
0.0
 11
-42.29999999999999
 21
6.0
 31
0.0
  0
LINE
  5
4368
  8
243
  6
HIDDEN2
 10
-89.299999999999969
 20
6.0
 30
0.0
 11
-90.299999999999983
 21
7.0
 31
0.0
1001
GENIUS_GENFIL_13
1070
     0
1040
1.0
1040
1.0
1040
0.9999999999999715
1040
45.0
1000
~T
1001
GENIUS_GENOREF_13
1005
436E
  0
POINT
  5
436E
  8
0
 10
0.0
 20
0.0
 30
0.0
1001
GENIUS_GENOENT_13
1002
{
1000
MYREF
1005
436E
1002
}
1002
{
1000
GRP
1005
0
1002
}
1001
GENIUS_GENOLIS_13
1002
{
1000
ENT
1005
4369
1005
4368
1002
}
1001
GENIUS_GENOBJ-N-CHA_13
1002
{
1000
OWNER
1000
GEN
1002
}
1001
GENIUS_GENODEF_13
1002
{
1000
HIER
1070
     1
1002
}
1002
{
1000
MANEDIT
1070
     1
1002
}
1002
{
1000
NOSEL
1070
     0
1002
}
1002
{
1000
BEHIND
1070
     0
1002
}
1002
{
1000
OTHER
1070
     0
1002
}
1002
{
1000
REACTOR
1002
}
  0
LINE
  5
4371
  8
240
  6
CONTINUOUS
 10
7.4999999999994333
 20
-21.5
 30
0.0
 11
21.499999999999432
 21
-21.5
 31
0.0
  0
LINE
  5
4372
  8
240
  6
CONTINUOUS
 10
7.4999999999994333
 20
21.5
 30
0.0
 11
21.499999999999741
 21
21.5
 31
0.0
  0
LINE
  5
438F
  8
243
  6
HIDDEN2
 10
-90.299999999999983
 20
-8.5000000000000071
 30
0.0
 11
-90.299999999999983
 21
8.5000000000000071
 31
0.0
  0
LINE
  5
4390
  8
243
  6
HIDDEN2
 10
-89.299999999999969
 20
-6.0
 30
0.0
 11
-90.299999999999983
 21
-7.0
 31
0.0
1001
GENIUS_GENFIL_13
1070
     0
1040
1.0
1040
1.0
1040
0.9999999999999715
1040
45.0
1000
~T
1001
GENIUS_GENOREF_13
1005
439C
  0
LINE
  5
4391
  8
243
  6
HIDDEN2
 10
-52.29999999999999
 20
7.0
 30
0.0
 11
-52.29999999999999
 21
-7.0
 31
0.0
  0
LINE
  5
4392
  8
243
  6
HIDDEN2
 10
-100.5679491924311
 20
-8.5000000000000071
 30
0.0
 11
-90.299999999999983
 21
-8.5000000000000071
 31
0.0
  0
LINE
  5
4393
  8
243
  6
HIDDEN2
 10
-42.29999999999999
 20
-6.0
 30
0.0
 11
-42.29999999999999
 21
0.0
 31
0.0
  0
LINE
  5
4394
  8
243
  6
HIDDEN2
 10
-42.29999999999999
 20
-6.0
 30
0.0
 11
-38.835898384861991
 21
0.0
 31
0.0
  0
LINE
  5
4395
  8
244
  6
HIDDEN2
 10
-52.29999999999999
 20
-7.0
 30
0.0
 11
-50.567949192431023
 21
-6.0
 31
0.0
  0
LINE
  5
4396
  8
244
  6
HIDDEN2
 10
-90.299999999999983
 20
-7.0
 30
0.0
 11
-52.29999999999999
 21
-7.0
 31
0.0
  0
LINE
  5
4397
  8
243
  6
HIDDEN2
 10
-89.299999999999969
 20
-6.0
 30
0.0
 11
-42.29999999999999
 21
-6.0
 31
0.0
  0
LINE
  5
4398
  8
243
  6
HIDDEN2
 10
-102.3
 20
-10.5
 30
0.0
 11
-101.43397459621551
 21
-8.9999999999999964
 31
0.0
  0
LINE
  5
4399
  8
243
  6
HIDDEN2
 10
-101.43397459621551
 20
-8.9999999999999964
 30
0.0
 11
-100.5679491924311
 21
-8.5000000000000071
 31
0.0
  0
LINE
  5
439A
  8
243
  6
HIDDEN2
 10
-100.5679491924311
 20
-8.5000000000000071
 30
0.0
 11
-100.5679491924311
 21
8.5000000000000071
 31
0.0
  0
LINE
  5
439B
  8
243
  6
HIDDEN2
 10
-89.299999999999969
 20
-6.0
 30
0.0
 11
-89.300000000000026
 21
6.0
 31
0.0
  0
POINT
  5
439C
  8
0
 10
0.0
 20
0.0
 30
0.0
1001
GENIUS_GENOENT_13
1002
{
1000
MYREF
1005
439C
1002
}
1002
{
1000
GRP
1005
0
1002
}
1001
GENIUS_GENOLIS_13
1002
{
1000
ENT
1005
4369
1005
4390
1002
}
1001
GENIUS_GENOBJ-N-CHA_13
1002
{
1000
OWNER
1000
GEN
1002
}
1001
GENIUS_GENODEF_13
1002
{
1000
HIER
1070
     1
1002
}
1002
{
1000
MANEDIT
1070
     1
1002
}
1002
{
1000
NOSEL
1070
     0
1002
}
1002
{
1000
BEHIND
1070
     0
1002
}
1002
{
1000
OTHER
1070
     0
1002
}
1002
{
1000
REACTOR
1002
}
  0
LINE
  5
439D
  8
241
  6
CONTINUOUS
 10
-93.58393083773187
 20
13.216069162269489
 30
0.0
 11
-93.58393083773187
 21
8.3466157151618212
 31
0.0
  0
LINE
  5
439E
  8
241
  6
CONTINUOUS
 10
-94.299999999999969
 20
12.499999999999989
 30
0.0
 11
-94.299999999999969
 21
-0.0000000000000063
 31
0.0
  0
LINE
  5
43CB
  8
240
  6
CONTINUOUS
 10
67.0
 20
9.25
 30
0.0
 11
67.5
 21
8.75
 31
0.0
  0
LINE
  5
43CC
  8
240
  6
CONTINUOUS
 10
47.5
 20
9.5
 30
0.0
 11
26.49999999999973
 21
9.5
 31
0.0
  0
LINE
  5
43CD
  8
240
  6
CONTINUOUS
 10
47.5
 20
-9.5
 30
0.0
 11
26.499999999999488
 21
-9.5
 31
0.0
  0
LINE
  5
43CE
  8
240
  6
CONTINUOUS
 10
67.5
 20
0.0
 30
0.0
 11
67.5
 21
8.75
 31
0.0
  0
LINE
  5
43CF
  8
240
  6
CONTINUOUS
 10
67.5
 20
-8.75
 30
0.0
 11
66.999999999999986
 21
-9.25
 31
0.0
  0
LINE
  5
43D0
  8
240
  6
CONTINUOUS
 10
67.5
 20
0.0
 30
0.0
 11
67.5
 21
-8.75
 31
0.0
  0
CIRCLE
  5
43D1
  8
241
  6
CONTINUOUS
 10
62.450000000000038
 20
0.0
 30
0.0
 40
1.749999999998948
  0
LINE
  5
43D2
  8
241
  6
CONTINUOUS
 10
62.450000000000038
 20
1.154700538379245
 30
0.0
 11
63.450000000000053
 21
0.5773502691896228
 31
0.0
  0
LINE
  5
43D3
  8
241
  6
CONTINUOUS
 10
63.450000000000053
 20
0.5773502691896228
 30
0.0
 11
63.450000000000053
 21
-0.5773502691896512
 31
0.0
  0
LINE
  5
43D4
  8
241
  6
CONTINUOUS
 10
63.450000000000053
 20
-0.5773502691896512
 30
0.0
 11
62.450000000000038
 21
-1.154700538379245
 31
0.0
  0
LINE
  5
43D5
  8
241
  6
CONTINUOUS
 10
62.450000000000038
 20
-1.154700538379245
 30
0.0
 11
61.450000000000038
 21
-0.5773502691895942
 31
0.0
  0
LINE
  5
43D6
  8
241
  6
CONTINUOUS
 10
61.450000000000038
 20
-0.5773502691895942
 30
0.0
 11
61.450000000000038
 21
0.5773502691896228
 31
0.0
  0
LINE
  5
43D7
  8
241
  6
CONTINUOUS
 10
61.450000000000038
 20
0.5773502691896228
 30
0.0
 11
62.450000000000038
 21
1.154700538379245
 31
0.0
  0
LINE
  5
43D8
  8
241
  6
CONTINUOUS
 10
67.0
 20
9.25
 30
0.0
 11
67.0
 21
7.3898205511642914
 31
0.0
  0
LINE
  5
43D9
  8
241
  6
CONTINUOUS
 10
67.0
 20
-9.25
 30
0.0
 11
67.0
 21
-7.3898205511642914
 31
0.0
  0
CIRCLE
  5
43DA
  8
242
  6
CONTINUOUS
 10
62.450000000000038
 20
0.0
 30
0.0
 40
2.0999999999991101
  0
LINE
  5
43DE
  8
243
  6
HIDDEN2
 10
55.883012701892312
 20
5.5
 30
0.0
 11
67.5
 21
5.500000000000056
 31
0.0
  0
LINE
  5
43E5
  8
243
  6
HIDDEN2
 10
55.883012701892312
 20
-5.5
 30
0.0
 11
67.5
 21
-5.500000000000056
 31
0.0
  0
LINE
  5
43EA
  8
245
  6
CENTER2
 10
62.450000000000038
 20
3.099999999999111
 30
0.0
 11
62.450000000000038
 21
-3.099999999999111
 31
0.0
  0
LINE
  5
43EF
  8
240
  6
CONTINUOUS
 10
22.499999999999488
 20
-13.49999999999997
 30
0.0
 11
22.499999999999439
 21
-20.5
 31
0.0
  0
ARC
  5
43F0
  8
240
  6
CONTINUOUS
 10
7.4999999999994333
 20
-20.5
 30
0.0
 40
1.0
 50
179.9999999999994
 51
270.0
1001
GENIUS_GENODEF_13
1002
{
1000
HIER
1070
     0
1002
}
1002
{
1000
MANEDIT
1070
     0
1002
}
1002
{
1000
NOSEL
1070
     0
1002
}
1002
{
1000
BEHIND
1070
     0
1002
}
1002
{
1000
OTHER
1070
     0
1002
}
1002
{
1000
REACTOR
1002
}
1001
GENIUS_GENOBJ-N-FIL_13
1002
{
1000
OWNER
1000
GEN
1002
}
  0
ARC
  5
43F1
  8
240
  6
CONTINUOUS
 10
7.4999999999994333
 20
20.5
 30
0.0
 40
1.0
 50
90.0
 51
180.00000000000051
1001
GENIUS_GENOBJ-N-FIL_13
1002
{
1000
OWNER
1000
GEN
1002
}
1001
GENIUS_GENODEF_13
1002
{
1000
HIER
1070
     0
1002
}
1002
{
1000
MANEDIT
1070
     0
1002
}
1002
{
1000
NOSEL
1070
     0
1002
}
1002
{
1000
BEHIND
1070
     0
1002
}
1002
{
1000
OTHER
1070
     0
1002
}
1002
{
1000
REACTOR
1002
}
  0
LINE
  5
43F3
  8
240
  6
CONTINUOUS
 10
21.499999999999432
 20
-21.5
 30
0.0
 11
22.499999999999439
 21
-20.5
 31
0.0
1001
GENIUS_GENFIL_13
1070
     0
1040
1.0
1040
1.0
1040
0.9999999999999715
1040
45.0
1000
~T
1001
GENIUS_GENOREF_13
1005
43F5
  0
POINT
  5
43F5
  8
0
 10
0.0
 20
0.0
 30
0.0
1001
GENIUS_GENOENT_13
1002
{
1000
MYREF
1005
43F5
1002
}
1002
{
1000
GRP
1005
0
1002
}
1001
GENIUS_GENOLIS_13
1002
{
1000
ENT
1005
43F4
1005
43F3
1002
}
1001
GENIUS_GENOBJ-N-CHA_13
1002
{
1000
OWNER
1000
GEN
1002
}
1001
GENIUS_GENODEF_13
1002
{
1000
HIER
1070
     1
1002
}
1002
{
1000
MANEDIT
1070
     1
1002
}
1002
{
1000
NOSEL
1070
     0
1002
}
1002
{
1000
BEHIND
1070
     0
1002
}
1002
{
1000
OTHER
1070
     0
1002
}
1002
{
1000
REACTOR
1002
}
  0
LINE
  5
43F6
  8
240
  6
CONTINUOUS
 10
22.49999999999973
 20
20.5
 30
0.0
 11
21.499999999999741
 21
21.5
 31
0.0
1001
GENIUS_GENFIL_13
1070
     0
1040
1.0
1040
1.0
1040
0.9999999999999715
1040
44.999999999999908
1000
~T
1001
GENIUS_GENOREF_13
1005
43F8
  0
POINT
  5
43F8
  8
0
 10
0.0
 20
0.0
 30
0.0
1001
GENIUS_GENOLIS_13
1002
{
1000
ENT
1005
43F7
1005
43F6
1002
}
1001
GENIUS_GENOENT_13
1002
{
1000
MYREF
1005
43F8
1002
}
1002
{
1000
GRP
1005
0
1002
}
1001
GENIUS_GENOBJ-N-CHA_13
1002
{
1000
OWNER
1000
GEN
1002
}
1001
GENIUS_GENODEF_13
1002
{
1000
HIER
1070
     1
1002
}
1002
{
1000
MANEDIT
1070
     1
1002
}
1002
{
1000
NOSEL
1070
     0
1002
}
1002
{
1000
BEHIND
1070
     0
1002
}
1002
{
1000
OTHER
1070
     0
1002
}
1002
{
1000
REACTOR
1002
}
  0
ARC
  5
43F9
  8
240
  6
CONTINUOUS
 10
26.499999999999488
 20
-13.5
 30
0.0
 40
4.0
 50
90.0
 51
179.9999999999996
1001
GENIUS_GENODEF_13
1002
{
1000
HIER
1070
     0
1002
}
1002
{
1000
MANEDIT
1070
     0
1002
}
1002
{
1000
NOSEL
1070
     0
1002
}
1002
{
1000
BEHIND
1070
     0
1002
}
1002
{
1000
OTHER
1070
     0
1002
}
1002
{
1000
REACTOR
1002
}
1001
GENIUS_GENOBJ-N-FIL_13
1002
{
1000
OWNER
1000
GEN
1002
}
  0
LINE
  5
43FA
  8
240
  6
CONTINUOUS
 10
22.49999999999973
 20
20.5
 30
0.0
 11
22.49999999999973
 21
13.5
 31
0.0
  0
ARC
  5
43FB
  8
240
  6
CONTINUOUS
 10
26.49999999999973
 20
13.5
 30
0.0
 40
4.0
 50
180.0
 51
270.0
1001
GENIUS_GENODEF_13
1002
{
1000
HIER
1070
     0
1002
}
1002
{
1000
MANEDIT
1070
     0
1002
}
1002
{
1000
NOSEL
1070
     0
1002
}
1002
{
1000
BEHIND
1070
     0
1002
}
1002
{
1000
OTHER
1070
     0
1002
}
1002
{
1000
REACTOR
1002
}
1001
GENIUS_GENOBJ-N-FIL_13
1002
{
1000
OWNER
1000
GEN
1002
}
  0
LINE
  5
43FC
  8
241
  6
CONTINUOUS
 10
22.49999999999973
 20
13.5
 30
0.0
 11
22.499999999999488
 21
-13.5
 31
0.0
  0
LINE
  5
44A6
  8
241
  6
CONTINUOUS
 10
47.5
 20
-9.5
 30
0.0
 11
47.5
 21
9.5
 31
0.0
  0
LINE
  5
44AA
  8
240
  6
CONTINUOUS
 10
49.5
 20
-9.25
 30
0.0
 11
66.999999999999986
 21
-9.25
 31
0.0
  0
LINE
  5
44EE
  8
240
  6
CONTINUOUS
 10
48.279422863405991
 20
-9.0500000000000007
 30
0.0
 11
49.29999999999999
 21
-9.0500000000000007
 31
0.0
  0
LINE
  5
44EF
  8
240
  6
CONTINUOUS
 10
47.5
 20
-9.5
 30
0.0
 11
48.279422863405991
 21
-9.0500000000000007
 31
0.0
  0
LINE
  5
44F0
  8
240
  6
CONTINUOUS
 10
49.5
 20
-9.25
 30
0.0
 11
49.29999999999999
 21
-9.0500000000000007
 31
0.0
  0
LINE
  5
44F1
  8
240
  6
CONTINUOUS
 10
49.5
 20
9.25
 30
0.0
 11
66.999999999999986
 21
9.25
 31
0.0
  0
LINE
  5
44F2
  8
240
  6
CONTINUOUS
 10
48.279422863405991
 20
9.0500000000000007
 30
0.0
 11
49.29999999999999
 21
9.0500000000000007
 31
0.0
  0
LINE
  5
44F3
  8
241
  6
CONTINUOUS
 10
49.500000000000007
 20
-9.25
 30
0.0
 11
49.5
 21
9.25
 31
0.0
  0
LINE
  5
44F4
  8
240
  6
CONTINUOUS
 10
47.5
 20
9.5
 30
0.0
 11
48.279422863405991
 21
9.0500000000000007
 31
0.0
  0
LINE
  5
44F5
  8
240
  6
CONTINUOUS
 10
49.5
 20
9.25
 30
0.0
 11
49.29999999999999
 21
9.0500000000000007
 31
0.0
  0
LINE
  5
4525
  8
241
  6
CONTINUOUS
 10
6.4999999999994307
 20
14.36140661634507
 30
0.0
 11
22.49999999999973
 21
14.36140661634507
 31
0.0
  0
LINE
  5
4526
  8
241
  6
CONTINUOUS
 10
6.4999999999994307
 20
-14.36140661634507
 30
0.0
 11
22.499999999999481
 21
-14.36140661634507
 31
0.0
  0
LINE
  5
4527
  8
242
  6
CONTINUOUS
 10
22.499999999999488
 20
-14.36140661634507
 30
0.0
 11
6.4999999999994307
 21
14.36140661634507
 31
0.0
  0
LINE
  5
4528
  8
242
  6
CONTINUOUS
 10
22.499999999999719
 20
14.36140661634507
 30
0.0
 11
6.4999999999994307
 21
-14.36140661634507
 31
0.0
  0
TEXT
  5
4544
  8
241
  6
CONTINUOUS
 10
-98.0
 20
35.0
 30
0.0
 40
4.0
  1
MT4M-CKB1-68-M14
  7
YOKO
  0
LINE
  5
455F
  8
250
  6
CONTINUOUS
 10
82.607452424665098
 20
-29.687808274051349
 30
0.0
 11
72.063485884997263
 21
-29.687808274051349
 31
0.0
  0
LINE
  5
4560
  8
250
  6
CONTINUOUS
 10
72.063485884997263
 20
-29.687808274051349
 30
0.0
 11
60.059246041780341
 21
-7.4621019823911183
 31
0.0
  0
LINE
  5
4561
  8
250
  6
CONTINUOUS
 10
60.059246041780341
 20
-7.4621019823911139
 30
0.0
 11
58.999502765936199
 21
-5.5000000000000151
 31
0.0
  0
LINE
  5
4562
  8
250
  6
CONTINUOUS
 10
60.317561667130803
 20
-7.3225841339472728
 30
0.0
 11
58.999502765936199
 21
-5.5000000000000151
 31
0.0
  0
LINE
  5
4563
  8
250
  6
CONTINUOUS
 10
58.999502765936199
 20
-5.5000000000000151
 30
0.0
 11
59.800930416429921
 21
-7.6016198308349603
 31
0.0
  0
LINE
  5
4565
  8
250
  6
CONTINUOUS
 10
-54.881734198446111
 20
23.215276378274439
 30
0.0
 11
-76.593532985105725
 21
23.215276378274439
 31
0.0
  0
LINE
  5
4566
  8
250
  6
CONTINUOUS
 10
-76.593532985105725
 20
23.215276378274439
 30
0.0
 11
-71.99204816396923
 21
9.1198984265164231
 31
0.0
  0
LINE
  5
4567
  8
250
  6
CONTINUOUS
 10
-71.99204816396923
 20
9.1198984265164231
 30
0.0
 11
-71.299999999999983
 21
7.0
 31
0.0
  0
LINE
  5
4568
  8
250
  6
CONTINUOUS
 10
-72.271138085206445
 20
9.0287885576856102
 30
0.0
 11
-71.299999999999983
 21
7.0
 31
0.0
  0
LINE
  5
4569
  8
250
  6
CONTINUOUS
 10
-71.299999999999983
 20
7.0
 30
0.0
 11
-71.712958242731972
 21
9.2110082953472396
 31
0.0
  0
LINE
  5
4571
  8
250
  6
CONTINUOUS
 10
67.5
 20
9.25
 30
0.0
 11
81.431707722661343
 21
9.2499999999999964
 31
0.0
  0
LINE
  5
4572
  8
250
  6
CONTINUOUS
 10
67.499999999999986
 20
-9.25
 30
0.0
 11
81.431707722661343
 21
-9.2500000000000036
 31
0.0
  0
LINE
  5
4573
  8
250
  6
CONTINUOUS
 10
80.431707722661372
 20
7.019999999999996
 30
0.0
 11
80.431707722661372
 21
-7.0200000000000031
 31
0.0
  0
LINE
  5
457D
  8
250
  6
CONTINUOUS
 10
0.0
 20
-20.301324503311271
 30
0.0
 11
-0.0000000000000014
 21
-36.0
 31
0.0
  0
LINE
  5
457E
  8
250
  6
CONTINUOUS
 10
67.5
 20
-9.5
 30
0.0
 11
67.5
 21
-36.0
 31
0.0
  0
LINE
  5
457F
  8
250
  6
CONTINUOUS
 10
2.2299999999999982
 20
-35.0
 30
0.0
 11
65.269999999999996
 21
-35.0
 31
0.0
  0
LINE
  5
4583
  8
250
  6
CONTINUOUS
 10
-0.5
 20
-15.275733333333269
 30
0.0
 11
-8.5000000000005702
 21
-9.5514666666666646
 31
0.0
  0
LINE
  5
4584
  8
250
  6
CONTINUOUS
 10
-0.5
 20
15.991266666666681
 30
0.0
 11
-8.5000000000005667
 21
21.715533333333301
 31
0.0
  0
LINE
  5
4585
  8
250
  6
CONTINUOUS
 10
-7.5000000000005711
 20
-8.0369999999999369
 30
0.0
 11
-7.5000000000005684
 21
18.770000000000021
 31
0.0
  0
TEXT
  5
4589
  8
250
  6
CONTINUOUS
 10
-43.962808769145468
 20
-23.526610168385609
 30
0.0
 40
3.0
  1
MT4
  7
YOKO
1001
ITEMNAME
1000
LNSP3
  0
TEXT
  5
4592
  8
250
  6
CONTINUOUS
 10
72.740785757998367
 20
-28.287808274051351
 30
0.0
 40
2.799999999999998
  1
CK1
  7
ACJISTS
  0
TEXT
  5
4593
  8
250
  6
CONTINUOUS
 10
-75.281734198446117
 20
24.615276378274441
 30
0.0
 40
2.799999999999998
  1
M14P2.0
  7
ACJISTS
  0
TEXT
  5
459B
  8
250
  6
CONTINUOUS
 10
79.431707722661343
 20
-5.933333333333322
 30
0.0
 40
2.799999999999998
  1
\U+220518.5
 50
90.0
  0
LINE
  5
459C
  8
250
  6
CONTINUOUS
 10
80.803374389328013
 20
-7.0200000000000031
 30
0.0
 11
80.431707722661372
 21
-9.2500000000000036
 31
0.0
  0
LINE
  5
459D
  8
250
  6
CONTINUOUS
 10
80.060041055994716
 20
-7.0200000000000031
 30
0.0
 11
80.431707722661372
 21
-9.2500000000000036
 31
0.0
  0
LINE
  5
459E
  8
250
  6
CONTINUOUS
 10
80.431707722661372
 20
-9.2500000000000036
 30
0.0
 11
80.431707722661372
 21
-7.0200000000000031
 31
0.0
  0
LINE
  5
459F
  8
250
  6
CONTINUOUS
 10
80.060041055994716
 20
7.019999999999996
 30
0.0
 11
80.431707722661372
 21
9.2499999999999964
 31
0.0
  0
LINE
  5
45A0
  8
250
  6
CONTINUOUS
 10
80.803374389328013
 20
7.019999999999996
 30
0.0
 11
80.431707722661372
 21
9.2499999999999964
 31
0.0
  0
LINE
  5
45A1
  8
250
  6
CONTINUOUS
 10
80.431707722661372
 20
9.2499999999999964
 30
0.0
 11
80.431707722661372
 21
7.019999999999996
 31
0.0
  0
TEXT
  5
45A9
  8
250
  6
CONTINUOUS
 10
29.016666666666669
 20
-34.0
 30
0.0
 40
2.799999999999998
  1
67.5
  0
LINE
  5
45AA
  8
250
  6
CONTINUOUS
 10
65.269999999999996
 20
-34.62833333333333
 30
0.0
 11
67.5
 21
-35.0
 31
0.0
  0
LINE
  5
45AB
  8
250
  6
CONTINUOUS
 10
65.269999999999996
 20
-35.371666666666663
 30
0.0
 11
67.5
 21
-35.0
 31
0.0
  0
LINE
  5
45AC
  8
250
  6
CONTINUOUS
 10
67.5
 20
-35.0
 30
0.0
 11
65.269999999999996
 21
-35.0
 31
0.0
  0
LINE
  5
45AD
  8
250
  6
CONTINUOUS
 10
2.2299999999999982
 20
-35.371666666666663
 30
0.0
 11
-0.0000000000000014
 21
-35.0
 31
0.0
  0
LINE
  5
45AE
  8
250
  6
CONTINUOUS
 10
2.2299999999999982
 20
-34.62833333333333
 30
0.0
 11
-0.0000000000000014
 21
-35.0
 31
0.0
  0
LINE
  5
45AF
  8
250
  6
CONTINUOUS
 10
-0.0000000000000014
 20
-35.0
 30
0.0
 11
2.2299999999999982
 21
-35.0
 31
0.0
  0
TEXT
  5
45B0
  8
250
  6
CONTINUOUS
 10
-8.5000000000005702
 20
-3.8477857142856702
 30
0.0
 40
3.0
  1
\U+220531.267
 50
90.0
  0
LINE
  5
45B1
  8
250
  6
CONTINUOUS
 10
-7.871666666667231
 20
18.770000000000021
 30
0.0
 11
-7.5000000000005684
 21
21.000000000000021
 31
0.0
  0
LINE
  5
45B2
  8
250
  6
CONTINUOUS
 10
-7.1283333333339023
 20
18.770000000000021
 30
0.0
 11
-7.5000000000005684
 21
21.000000000000021
 31
0.0
  0
LINE
  5
45B3
  8
250
  6
CONTINUOUS
 10
-7.5000000000005684
 20
21.000000000000021
 30
0.0
 11
-7.5000000000005684
 21
18.770000000000021
 31
0.0
  0
LINE
  5
45B4
  8
250
  6
CONTINUOUS
 10
-7.1283333333339041
 20
-8.0369999999999369
 30
0.0
 11
-7.5000000000005711
 21
-10.266999999999941
 31
0.0
  0
LINE
  5
45B5
  8
250
  6
CONTINUOUS
 10
-7.8716666666672408
 20
-8.0369999999999369
 30
0.0
 11
-7.5000000000005711
 21
-10.266999999999941
 31
0.0
  0
LINE
  5
45B6
  8
250
  6
CONTINUOUS
 10
-7.5000000000005711
 20
-10.266999999999941
 30
0.0
 11
-7.5000000000005711
 21
-8.0369999999999369
 31
0.0
  0
LINE
  5
45B7
  8
250
  6
CONTINUOUS
 10
-51.187494309386068
 20
-16.21949684807651
 30
0.0
 11
-46.391380197716892
 21
-24.52661016838562
 31
0.0
1001
ACAD
1000
DSTYLE
1002
{
1070
    76
1070
     1
1070
    78
1070
     8
1070
   140
1040
3.0
1070
   282
1070
     1
1002
}
  0
LINE
  5
45B8
  8
250
  6
CONTINUOUS
 10
-51.509367084459292
 20
-16.405330181409841
 30
0.0
 11
-52.302494309386077
 21
-14.288260197637211
 31
0.0
  0
LINE
  5
45B9
  8
250
  6
CONTINUOUS
 10
-50.865621534312872
 20
-16.033663514743179
 30
0.0
 11
-52.302494309386077
 21
-14.288260197637211
 31
0.0
  0
LINE
  5
45BA
  8
250
  6
CONTINUOUS
 10
-52.302494309386077
 20
-14.288260197637211
 30
0.0
 11
-51.187494309386068
 21
-16.21949684807651
 31
0.0
  0
LINE
  5
53C6
  8
240
  6
CONTINUOUS
 10
0.0000000000001827
 20
-15.63349999999993
 30
0.0
 11
0.3000000000011482
 21
-15.333500000001321
 31
0.0
  0
ARC
  5
53C7
  8
240
  6
CONTINUOUS
 10
5.4999999999991473
 20
-16.33349999999993
 30
0.0
 40
1.0
 50
0.0
 51
90.0
1001
GENIUS_GENODEF_13
1002
{
1000
HIER
1070
     0
1002
}
1002
{
1000
MANEDIT
1070
     0
1002
}
1002
{
1000
NOSEL
1070
     0
1002
}
1002
{
1000
BEHIND
1070
     0
1002
}
1002
{
1000
OTHER
1070
     0
1002
}
1002
{
1000
REACTOR
1002
}
1001
GENIUS_GENOBJ-N-FIL_13
1002
{
1000
OWNER
1000
GEN
1002
}
  0
LINE
  5
53C8
  8
240
  6
CONTINUOUS
 10
0.299999999999784
 20
-15.33349999999993
 30
0.0
 11
5.4999999999991473
 21
-15.33349999999993
 31
0.0
  0
LINE
  5
53C9
  8
240
  6
CONTINUOUS
 10
-0.0000000000001421
 20
15.63349999999992
 30
0.0
 11
0.3000000000009209
 21
15.33350000000121
 31
0.0
  0
ARC
  5
53CA
  8
240
  6
CONTINUOUS
 10
5.4999999999989191
 20
16.33349999999993
 30
0.0
 40
1.0
 50
270.0
 51
0.0
1001
GENIUS_GENODEF_13
1002
{
1000
HIER
1070
     0
1002
}
1002
{
1000
MANEDIT
1070
     0
1002
}
1002
{
1000
NOSEL
1070
     0
1002
}
1002
{
1000
BEHIND
1070
     0
1002
}
1002
{
1000
OTHER
1070
     0
1002
}
1002
{
1000
REACTOR
1002
}
1001
GENIUS_GENOBJ-N-FIL_13
1002
{
1000
OWNER
1000
GEN
1002
}
  0
LINE
  5
53CB
  8
240
  6
CONTINUOUS
 10
0.2999999999994429
 20
15.333499999999811
 30
0.0
 11
5.4999999999989191
 21
15.33349999999993
 31
0.0
  0
LINE
  5
53F2
  8
241
  6
CONTINUOUS
 10
-0.0000000000001421
 20
15.63349999999992
 30
0.0
 11
0.0000000000001827
 21
-15.63349999999993
 31
0.0
  0
VIEWPORT
  5
22
 67
     1
  8
0
 10
261.51769911504419
 20
148.5
 30
0.0
 40
523.0353982300885
 41
297.0
 68
     1
 69
     1
1001
ACAD
1000
MVIEW
1002
{
1070
    16
1010
0.0
1020
0.0
1030
0.0
1010
0.0
1020
0.0
1030
1.0
1040
0.0
1040
297.0
1040
261.51769911504419
1040
148.5
1040
50.0
1040
0.0
1040
0.0
1070
     0
1070
   100
1070
     1
1070
     1
1070
     0
1070
     0
1070
     0
1070
     0
1040
0.0
1040
0.0
1040
0.0
1040
1.0
1040
1.0
1040
10.0
1040
10.0
1070
     0
1002
{
1002
}
1002
}
1001
GENIUS_GENODEF_13
1002
{
1000
HIER
1070
     0
1002
}
1002
{
1000
MANEDIT
1070
     0
1002
}
1002
{
1000
NOSEL
1070
     0
1002
}
1002
{
1000
BEHIND
1070
     0
1002
}
1002
{
1000
OTHER
1070
     0
1002
}
1002
{
1000
REACTOR
1002
}
1001
GENIUS_GENOBJ-N-SDF_13
1002
{
1000
OWNER
1000
GEN
1002
}
1001
GENIUS_GENSCREG_15
1000
PF
1040
1.0
1000
DF
1040
1.0
1000
MIN
1011
0.0
1021
0.0
1031
0.0
1021
0.0
1031
0.0
1000
MAX
1011
523.0353982300885
1021
0.0
1031
0.0
1021
297.0
1031
0.0
1000
FLAGS
1070
     4
  0
ENDSEC
  0
EOF
