  0
SECTION
  2
HEADER
  9
$ACADVER
  1
AC1009
  9
$INSBASE
 10
0.0
 20
0.0
 30
0.0
  9
$EXTMIN
 10
-118.5
 20
-24.047383400000001
 30
0.0
  9
$EXTMAX
 10
79.749622959999996
 20
54.000000000000007
 30
0.0
  9
$LIMMIN
 10
0.0
 20
0.0
  9
$LIMMAX
 10
420.0
 20
297.0
  9
$ORTHOMODE
 70
     1
  9
$REGENMODE
 70
     1
  9
$FILLMODE
 70
     1
  9
$QTEXTMODE
 70
     0
  9
$MIRRTEXT
 70
     1
  9
$DRAGMODE
 70
     2
  9
$LTSCALE
 40
10.0
  9
$OSMODE
 70
    37
  9
$ATTMODE
 70
     1
  9
$TEXTSIZE
 40
3.0
  9
$TRACEWID
 40
1.0
  9
$TEXTSTYLE
  7
YOKO
  9
$CLAYER
  8
240
  9
$CELTYPE
  6
BYLAYER
  9
$CECOLOR
 62
   256
  9
$DIMSCALE
 40
1.0
  9
$DIMASZ
 40
2.0
  9
$DIMEXO
 40
2.0
  9
$DIMDLI
 40
2.5
  9
$DIMRND
 40
0.0
  9
$DIMDLE
 40
0.0
  9
$DIMEXE
 40
2.0
  9
$DIMTP
 40
0.0
  9
$DIMTM
 40
0.0
  9
$DIMTXT
 40
4.0
  9
$DIMCEN
 40
0.0
  9
$DIMTSZ
 40
0.0
  9
$DIMTOL
 70
     0
  9
$DIMLIM
 70
     0
  9
$DIMTIH
 70
     0
  9
$DIMTOH
 70
     0
  9
$DIMSE1
 70
     0
  9
$DIMSE2
 70
     0
  9
$DIMTAD
 70
     3
  9
$DIMZIN
 70
     8
  9
$DIMBLK
  1

  9
$DIMASO
 70
     1
  9
$DIMSHO
 70
     1
  9
$DIMPOST
  1

  9
$DIMAPOST
  1

  9
$DIMALT
 70
     0
  9
$DIMALTD
 70
     2
  9
$DIMALTF
 40
25.399999999999999
  9
$DIMLFAC
 40
1.0
  9
$DIMTOFL
 70
     1
  9
$DIMTVP
 40
0.0
  9
$DIMTIX
 70
     1
  9
$DIMSOXD
 70
     0
  9
$DIMSAH
 70
     1
  9
$DIMBLK1
  1
OPEN
  9
$DIMBLK2
  1
OPEN
  9
$DIMSTYLE
  2
BIGT
  9
$DIMCLRD
 70
   256
  9
$DIMCLRE
 70
   256
  9
$DIMCLRT
 70
    40
  9
$DIMTFAC
 40
1.0
  9
$DIMGAP
 40
1.0
  9
$LUNITS
 70
     2
  9
$LUPREC
 70
     3
  9
$SKETCHINC
 40
1.0
  9
$FILLETRAD
 40
1.0
  9
$AUNITS
 70
     0
  9
$AUPREC
 70
     3
  9
$MENU
  1
.
  9
$ELEVATION
 40
0.0
  9
$PELEVATION
 40
0.0
  9
$THICKNESS
 40
0.0
  9
$LIMCHECK
 70
     0
  9
$BLIPMODE
 70
     0
  9
$CHAMFERA
 40
10.0
  9
$CHAMFERB
 40
10.0
  9
$SKPOLY
 70
     0
  9
$TDCREATE
 40
2455061.686155417
  9
$TDUPDATE
 40
2459839.4769039471
  9
$TDINDWG
 40
0.0134964931
  9
$TDUSRTIMER
 40
0.0134963079
  9
$USRTIMER
 70
     1
  9
$ANGBASE
 50
0.0
  9
$ANGDIR
 70
     0
  9
$PDMODE
 70
     1
  9
$PDSIZE
 40
-5.0
  9
$PLINEWID
 40
0.0
  9
$COORDS
 70
     1
  9
$SPLFRAME
 70
     0
  9
$SPLINETYPE
 70
     6
  9
$SPLINESEGS
 70
     8
  9
$ATTDIA
 70
     1
  9
$ATTREQ
 70
     1
  9
$HANDLING
 70
     1
  9
$HANDSEED
  5
D52
  9
$SURFTAB1
 70
     6
  9
$SURFTAB2
 70
     6
  9
$SURFTYPE
 70
     6
  9
$SURFU
 70
     6
  9
$SURFV
 70
     6
  9
$UCSNAME
  2

  9
$UCSORG
 10
0.0
 20
0.0
 30
0.0
  9
$UCSXDIR
 10
1.0
 20
0.0
 30
0.0
  9
$UCSYDIR
 10
0.0
 20
1.0
 30
0.0
  9
$PUCSNAME
  2

  9
$PUCSORG
 10
0.0
 20
0.0
 30
0.0
  9
$PUCSXDIR
 10
1.0
 20
0.0
 30
0.0
  9
$PUCSYDIR
 10
0.0
 20
1.0
 30
0.0
  9
$USERI1
 70
     1
  9
$USERI2
 70
     0
  9
$USERI3
 70
     0
  9
$USERI4
 70
     0
  9
$USERI5
 70
     0
  9
$USERR1
 40
0.0
  9
$USERR2
 40
0.0
  9
$USERR3
 40
0.0
  9
$USERR4
 40
0.0
  9
$USERR5
 40
0.0
  9
$WORLDVIEW
 70
     1
  9
$SHADEDGE
 70
     3
  9
$SHADEDIF
 70
    70
  9
$TILEMODE
 70
     1
  9
$MAXACTVP
 70
    16
  9
$PLIMCHECK
 70
     0
  9
$PEXTMIN
 10
1.0000000000000000E+020
 20
1.0000000000000000E+020
 30
1.0000000000000000E+020
  9
$PEXTMAX
 10
-1.0000000000000000E+020
 20
-1.0000000000000000E+020
 30
-1.0000000000000000E+020
  9
$PLIMMIN
 10
0.0
 20
0.0
  9
$PLIMMAX
 10
420.0
 20
297.0
  9
$UNITMODE
 70
     0
  9
$VISRETAIN
 70
     0
  9
$PLINEGEN
 70
     0
  9
$PSLTSCALE
 70
     1
  0
ENDSEC
  0
SECTION
  2
TABLES
  0
TABLE
  2
VPORT
 70
     1
  0
VPORT
  2
*ACTIVE
 70
     0
 10
0.0
 20
0.0
 11
1.0
 21
1.0
 12
-23.305999582601199
 22
8.8306274916096186
 13
0.0
 23
0.0
 14
7.0
 24
7.0
 15
7.0
 25
7.0
 16
0.0
 26
0.0
 36
1.0
 17
0.0
 27
0.0
 37
0.0
 40
139.54947218200959
 41
1.762778505897771
 42
50.0
 43
0.0
 44
0.0
 50
0.0
 51
0.0
 71
     0
 72
  2000
 73
     1
 74
     0
 75
     0
 76
     1
 77
     0
 78
     0
  0
ENDTAB
  0
TABLE
  2
LTYPE
 70
    17
  0
LTYPE
  2
CONTINUOUS
 70
     0
  3
Solid line
 72
    65
 73
     0
 40
0.0
  0
LTYPE
  2
CENTER2
 70
     0
  3
___ _ ___ _ ___ _ ___ _ ___ _ ___ _ ___ _ ___ _
 72
    65
 73
     4
 40
1.125
 49
0.75
 49
-0.125
 49
0.125
 49
-0.125
  0
LTYPE
  2
HIDDEN2
 70
     0
  3
_ _ _ _ _ _ _ _ _ _ _ _ _ _ _ _ _ _ _ _ _ _ _ _
 72
    65
 73
     2
 40
0.1875
 49
0.125
 49
-0.0625
  0
LTYPE
  2
HIDDEN
 70
     0
  3
Hidden __ __ __ __ __ __ __ __ __ __ __ __ __ _
 72
    65
 73
     2
 40
9.5249999999999986
 49
6.3499999999999988
 49
-3.1749999999999989
  0
LTYPE
  2
PHANTOM2
 70
     0
  3
___ _ _ ___ _ _ ___ _ _ ___ _ _ ___ _ _ ___ _ _
 72
    65
 73
     6
 40
1.25
 49
0.625
 49
-0.125
 49
0.125
 49
-0.125
 49
0.125
 49
-0.125
  0
LTYPE
  2
CENTER
 70
     0
  3
____ _ ____ _ ____ _ ____ _ ____ _ ____ _ ____ 
 72
    65
 73
     4
 40
2.0
 49
1.25
 49
-0.25
 49
0.25
 49
-0.25
  0
LTYPE
  2
AMCONSTR
 70
     0
  3
_______________________
 72
    65
 73
     2
 40
9999.0
 49
9999.0
 49
0.0
  0
LTYPE
  2
AM_ISO02W050
 70
     0
  3
__ __ __ __ __ __ __ __ __ __ __ __ __ __ __
 72
    65
 73
     2
 40
7.5
 49
6.0
 49
-1.5
  0
LTYPE
  2
ACJISTGB
 70
     0
  3
__ . . __ . .
 72
    65
 73
     6
 40
9.0
 49
4.0
 49
-1.0
 49
1.0
 49
-1.0
 49
1.0
 49
-1.0
  0
LTYPE
  2
ACJISTGL
 70
     0
  3
_ _ _ _ _
 72
    65
 73
     2
 40
3.0
 49
2.0
 49
-1.0
  0
LTYPE
  2
ACISOWELD
 70
     0
  3
_ _ _ _ _
 72
    65
 73
     2
 40
2.0
 49
2.0
 49
-1.0
  0
LTYPE
  2
ACISOTGB
 70
     0
  3
__ . . __ . .
 72
    65
 73
     6
 40
9.0
 49
4.0
 49
-1.0
 49
1.0
 49
-1.0
 49
1.0
 49
-1.0
  0
LTYPE
  2
ACISOTGL
 70
     0
  3
_ _ _ _ _
 72
    65
 73
     2
 40
3.0
 49
2.0
 49
-1.0
  0
LTYPE
  2
AMZIGZAG2
 70
     0
  3
/\/-/\/-/\/-/\/-/\/-/\/
 72
    65
 73
     2
 40
0.4401
 49
0.0001
 49
-0.4400000000000002
  0
LTYPE
  2
ACANSTGB
 70
     0
  3
__ . . __ . .
 72
    65
 73
     6
 40
0.35433070866
 49
0.15748031496
 49
-0.03937007874
 49
0.03937007874
 49
-0.03937007874
 49
0.03937007874
 49
-0.03937007874
  0
LTYPE
  2
ACANSTGL
 70
     0
  3
_ _ _ _ _
 72
    65
 73
     2
 40
0.11811023622
 49
0.07874015748
 49
-0.03937007874
  0
ENDTAB
  0
TABLE
  2
LAYER
 70
    11
  0
LAYER
  2
0
 70
     0
 62
     7
  6
CONTINUOUS
  0
LAYER
  2
240
 70
     0
 62
     4
  6
CONTINUOUS
  0
LAYER
  2
241
 70
     0
 62
   211
  6
CONTINUOUS
  0
LAYER
  2
242
 70
     0
 62
     3
  6
CONTINUOUS
  0
LAYER
  2
245
 70
     0
 62
     2
  6
CENTER2
  0
LAYER
  2
250
 70
     0
 62
     3
  6
CONTINUOUS
  0
LAYER
  2
DEFPOINTS
 70
     0
 62
     7
  6
CONTINUOUS
  0
LAYER
  2
243
 70
     0
 62
   211
  6
HIDDEN2
  0
LAYER
  2
247
 70
     0
 62
    60
  6
CONTINUOUS
  0
ENDTAB
  0
TABLE
  2
STYLE
 70
     7
  0
STYLE
  2
STANDARD
 70
     0
 40
0.0
 41
1.0
 50
0.0
 71
     0
 42
3.0
  3
romans.shx
  4
BIGFONT.SHX
  0
STYLE
  2
YOKO
 70
     0
 40
0.0
 41
1.0
 50
0.0
 71
     0
 42
3.0
  3
romans.shx
  4
extfont.shx
  0
STYLE
  2
ACJISTS
 70
     0
 40
1.0
 41
1.0
 50
0.0
 71
     0
 42
3.0
  3
amgdt.shx
  4
extfont.shx
  0
STYLE
  2
ACJISGDT
 70
     0
 40
0.0
 41
1.0
 50
0.0
 71
     0
 42
3.0
  3
amgdt.shx
  4
extfont.shx
  0
STYLE
  2
ACISOTS
 70
     0
 40
1.0
 41
1.0
 50
0.0
 71
     0
 42
3.0
  3
amgdt.shx
  4
extfont.shx
  0
STYLE
  2
ACISOGDT
 70
     0
 40
0.0
 41
1.0
 50
0.0
 71
     0
 42
3.0
  3
amgdt.shx
  4
extfont.shx
  0
STYLE
  2
ACANSGDT
 70
     0
 40
0.0
 41
1.0
 50
0.0
 71
     0
 42
3.0
  3
amgdt.shx
  4

  0
ENDTAB
  0
TABLE
  2
VIEW
 70
     0
  0
ENDTAB
  0
TABLE
  2
UCS
 70
     0
  0
ENDTAB
  0
TABLE
  2
APPID
 70
    37
  0
APPID
  2
ACAD
 70
     0
  0
APPID
  2
GLOBAL
 70
     0
  0
APPID
  2
DETAIL
 70
     0
  0
APPID
  2
GRPNAME
 70
     0
  0
APPID
  2
GPARA
 70
     0
  0
APPID
  2
DCO15
 70
     0
  0
APPID
  2
ITEMNAME
 70
     0
  0
APPID
  2
GRADE_0
 70
     0
  0
APPID
  2
CONTENTBLOCKICON
 70
     0
  0
APPID
  2
MCAD_NO_VIS
 70
     0
  0
APPID
  2
ACAD_TEMP_GRAPHIC
 70
     0
  0
APPID
  2
ACATTRIBSERVICES
 70
     0
  0
APPID
  2
GENIUS_GENSCREG_15
 70
     0
  0
APPID
  2
GENIUS_GENODEF_13
 70
     0
  0
APPID
  2
GENIUS_GENOBJ-N-SDF_13
 70
     0
  0
APPID
  2
GENIUS_GENREC_14
 70
     0
  0
APPID
  2
GENIUS_GENOBJ-N-REC_13
 70
     0
  0
APPID
  2
GENIUS_GENDIMSH_14
 70
     0
  0
APPID
  2
GENIUS_GENOBJ-N-DIM_13
 70
     0
  0
APPID
  2
GENIUS_GENDIM_13
 70
     0
  0
APPID
  2
GENIUS_GENDTOL_13
 70
     0
  0
APPID
  2
GENIUS_GENOLIS_13
 70
     0
  0
APPID
  2
GENIUS_GENOENT_13
 70
     0
  0
APPID
  2
GENIUS_GENOBJ-F-FEM_13
 70
     0
  0
APPID
  2
GENIUS_GENOREF_13
 70
     0
  0
APPID
  2
GENIUS_GEFFEM_13
 70
     0
  0
APPID
  2
GENIUS_GEFFEMP_13
 70
     0
  0
APPID
  2
AD_DRAW
 70
     0
  0
APPID
  2
DESIGNERASSEMBLIES
 70
     0
  0
APPID
  2
ACADM_DIM_EDIT
 70
     0
  0
APPID
  2
AMDT_DM_ADJ
 70
     0
  0
APPID
  2
GENIUS_GENOBJ-N-FIL_13
 70
     0
  0
APPID
  2
GENIUS_GENFIL_13
 70
     0
  0
APPID
  2
GENIUS_GENOBJ-N-CHA_13
 70
     0
  0
APPID
  2
ACAD_NAV_VCDISPLAY
 70
     0
  0
APPID
  2
ACAD_EXEMPT_FROM_CAD_STANDARDS
 70
     0
  0
APPID
  2
ACAD_MLEADERVER
 70
     0
  0
ENDTAB
  0
TABLE
  2
DIMSTYLE
 70
    29
  0
DIMSTYLE
  2
BIGT
 70
     0
  3

  4

  5
OPEN
  6

  7

 40
1.0
 41
2.2299999999999991
 42
0.5
 43
7.0
 44
1.0
 45
0.0
 46
0.0
 47
0.0
 48
0.01
140
2.7999999999999989
141
0.0
142
0.0
143
25.399999999999999
144
1.0
145
0.0
146
1.0
147
1.0
 71
     0
 72
     0
 73
     0
 74
     0
 75
     0
 76
     0
 77
     3
 78
     9
170
     0
171
     2
172
     1
173
     0
174
     1
175
     0
176
   256
177
   256
178
    40
  0
DIMSTYLE
  2
BIGT$0
 70
     0
  3

  4

  5
OPEN
  6

  7

 40
1.0
 41
2.2299999999999991
 42
0.5
 43
7.0
 44
1.0
 45
0.0
 46
0.0
 47
0.0
 48
0.01
140
2.7999999999999989
141
0.0
142
0.0
143
25.399999999999999
144
1.0
145
0.0
146
1.0
147
1.0
 71
     0
 72
     0
 73
     0
 74
     0
 75
     0
 76
     0
 77
     3
 78
     9
170
     0
171
     2
172
     1
173
     0
174
     1
175
     0
176
   256
177
   256
178
    40
  0
DIMSTYLE
  2
BIGT$2
 70
     0
  3

  4

  5
OPEN
  6

  7

 40
1.0
 41
2.2299999999999991
 42
0.5
 43
7.0
 44
1.0
 45
0.0
 46
0.0
 47
0.0
 48
0.01
140
2.7999999999999989
141
0.0
142
0.0
143
25.399999999999999
144
1.0
145
0.0
146
1.0
147
1.0
 71
     0
 72
     0
 73
     0
 74
     0
 75
     0
 76
     0
 77
     3
 78
     9
170
     0
171
     2
172
     1
173
     0
174
     0
175
     0
176
   256
177
   256
178
    40
  0
DIMSTYLE
  2
BIGT$3
 70
     0
  3

  4

  5
OPEN
  6

  7

 40
1.0
 41
2.2299999999999991
 42
0.5
 43
2.5
 44
1.0
 45
0.0
 46
0.0
 47
0.0
 48
0.01
140
2.7999999999999989
141
0.0
142
0.0
143
25.399999999999999
144
1.0
145
0.0
146
1.0
147
1.0
 71
     0
 72
     0
 73
     0
 74
     0
 75
     0
 76
     0
 77
     3
 78
     9
170
     0
171
     2
172
     1
173
     0
174
     0
175
     0
176
   256
177
   256
178
    40
  0
DIMSTYLE
  2
BIGT$4
 70
     0
  3

  4

  5
OPEN
  6

  7

 40
1.0
 41
2.2299999999999991
 42
0.5
 43
2.5
 44
1.0
 45
0.0
 46
0.0
 47
0.0
 48
0.01
140
2.7999999999999989
141
0.0
142
0.0
143
25.399999999999999
144
1.0
145
0.0
146
1.0
147
1.0
 71
     0
 72
     0
 73
     0
 74
     0
 75
     0
 76
     0
 77
     3
 78
     9
170
     0
171
     2
172
     1
173
     0
174
     0
175
     0
176
   256
177
   256
178
    40
  0
DIMSTYLE
  2
BIGT$6
 70
     0
  3

  4

  5
OPEN
  6

  7

 40
1.0
 41
2.2299999999999991
 42
0.5
 43
2.5
 44
1.0
 45
0.0
 46
0.0
 47
0.0
 48
0.01
140
2.7999999999999989
141
0.0
142
0.0
143
25.399999999999999
144
1.0
145
0.0
146
1.0
147
1.0
 71
     0
 72
     0
 73
     0
 74
     0
 75
     0
 76
     0
 77
     3
 78
     9
170
     0
171
     2
172
     1
173
     0
174
     0
175
     0
176
   256
177
   256
178
    40
  0
DIMSTYLE
  2
BIGT$7
 70
     0
  3

  4

  5
OPEN
  6

  7

 40
0.0
 41
2.2299999999999991
 42
0.5
 43
7.0
 44
1.0
 45
0.0
 46
0.0
 47
0.0
 48
0.01
140
2.7999999999999989
141
0.0
142
0.0
143
25.399999999999999
144
1.0
145
0.0
146
1.0
147
1.0
 71
     0
 72
     0
 73
     0
 74
     0
 75
     0
 76
     0
 77
     3
 78
     9
170
     0
171
     2
172
     0
173
     0
174
     0
175
     0
176
   256
177
   256
178
    40
  0
DIMSTYLE
  2
BIGT$SF
 70
     0
  3

  4

  5
OPEN
  6

  7

 40
1.0
 41
2.2299999999999991
 42
0.5
 43
7.0
 44
1.0
 45
0.0
 46
0.0
 47
0.0
 48
0.0
140
2.7999999999999989
141
0.0
142
0.0
143
25.399999999999999
144
1.0
145
0.0
146
1.0
147
1.0
 71
     0
 72
     0
 73
     0
 74
     0
 75
     0
 76
     0
 77
     3
 78
     9
170
     0
171
     2
172
     1
173
     0
174
     0
175
     0
176
   256
177
   256
178
    40
  0
DIMSTYLE
  2
BIGT$SH
 70
     0
  3

  4

  5
OPEN
  6

  7

 40
1.0
 41
2.2299999999999991
 42
0.5
 43
7.0
 44
1.0
 45
0.0
 46
0.0
 47
0.0
 48
0.0
140
2.7999999999999989
141
0.0
142
0.0
143
25.399999999999999
144
1.0
145
0.0
146
1.0
147
1.0
 71
     0
 72
     0
 73
     0
 74
     0
 75
     0
 76
     0
 77
     3
 78
     9
170
     0
171
     2
172
     1
173
     0
174
     0
175
     0
176
   256
177
   256
178
    40
  0
DIMSTYLE
  2
AM_ISO
 70
     0
  3

  4
"
  5

  6

  7

 40
1.0
 41
2.5
 42
1.0
 43
10.0
 44
1.0
 45
0.0
 46
0.0
 47
0.1
 48
0.1
140
3.5
141
0.0
142
0.0
143
0.0393701
144
1.0
145
0.0
146
0.71
147
1.5
 71
     0
 72
     0
 73
     0
 74
     0
 75
     0
 76
     0
 77
     1
 78
     8
170
     0
171
     2
172
     1
173
     0
174
     0
175
     0
176
   256
177
   256
178
     2
  0
DIMSTYLE
  2
AM_ISO$3
 70
     0
  3

  4
"
  5

  6

  7

 40
1.0
 41
2.5
 42
1.0
 43
10.0
 44
1.0
 45
0.0
 46
0.0
 47
0.1
 48
0.1
140
3.5
141
0.0
142
0.0
143
0.0393701
144
1.0
145
0.0
146
0.71
147
1.5
 71
     0
 72
     0
 73
     0
 74
     1
 75
     0
 76
     0
 77
     1
 78
     8
170
     0
171
     2
172
     0
173
     0
174
     0
175
     0
176
   256
177
   256
178
     2
  0
DIMSTYLE
  2
AM_ISO$4
 70
     0
  3

  4
"
  5

  6

  7

 40
1.0
 41
2.5
 42
1.0
 43
10.0
 44
1.0
 45
0.0
 46
0.0
 47
0.1
 48
0.1
140
3.5
141
0.0
142
0.0
143
0.0393701
144
1.0
145
0.0
146
0.71
147
1.5
 71
     0
 72
     0
 73
     0
 74
     1
 75
     0
 76
     0
 77
     1
 78
     8
170
     0
171
     2
172
     0
173
     0
174
     0
175
     0
176
   256
177
   256
178
     2
  0
DIMSTYLE
  2
AM_ISO$6
 70
     0
  3

  4
"
  5

  6

  7

 40
1.0
 41
2.5
 42
1.0
 43
10.0
 44
1.0
 45
0.0
 46
0.0
 47
0.1
 48
0.1
140
3.5
141
0.0
142
0.0
143
0.0393701
144
1.0
145
0.0
146
0.71
147
1.5
 71
     0
 72
     0
 73
     0
 74
     0
 75
     0
 76
     0
 77
     0
 78
     8
170
     0
171
     2
172
     1
173
     0
174
     0
175
     0
176
   256
177
   256
178
     2
  0
DIMSTYLE
  2
AM_ISO$7
 70
     0
  3

  4
"
  5

  6

  7

 40
1.0
 41
2.5
 42
1.0
 43
10.0
 44
1.0
 45
0.0
 46
0.0
 47
0.1
 48
0.1
140
5.0
141
0.0
142
0.0
143
0.0393701
144
1.0
145
0.0
146
0.71
147
1.5
 71
     0
 72
     0
 73
     0
 74
     0
 75
     0
 76
     0
 77
     1
 78
     8
170
     0
171
     2
172
     1
173
     0
174
     0
175
     0
176
   256
177
   256
178
     2
  0
DIMSTYLE
  2
AM_ISO$SF
 70
     0
  3

  4
"
  5

  6

  7

 40
1.0
 41
2.5
 42
1.0
 43
10.0
 44
1.0
 45
0.0
 46
0.0
 47
0.1
 48
0.1
140
3.5
141
0.0
142
0.0
143
0.0393701
144
1.0
145
0.0
146
0.71
147
1.5
 71
     0
 72
     0
 73
     0
 74
     0
 75
     1
 76
     1
 77
     1
 78
     8
170
     0
171
     2
172
     1
173
     0
174
     0
175
     0
176
   256
177
   256
178
     2
  0
DIMSTYLE
  2
AM_ISO$SH
 70
     0
  3

  4
"
  5

  6
GENAXEH
  7

 40
1.0
 41
2.5
 42
1.0
 43
10.0
 44
1.0
 45
0.0
 46
0.0
 47
0.1
 48
0.1
140
3.5
141
0.0
142
0.0
143
0.0393701
144
2.0
145
0.0
146
0.71
147
1.5
 71
     0
 72
     0
 73
     0
 74
     0
 75
     1
 76
     1
 77
     1
 78
     8
170
     0
171
     2
172
     1
173
     1
174
     0
175
     0
176
   256
177
   256
178
     2
  0
DIMSTYLE
  2
TECHNICAL_OSAKA
 70
     0
  3

  4
"
  5
OPEN30
  6

  7

 40
1.0
 41
2.5
 42
1.0
 43
10.0
 44
1.0
 45
0.0
 46
0.0
 47
0.1
 48
0.1
140
2.7999999999999989
141
0.0
142
0.0
143
0.0393701
144
1.0
145
0.0
146
0.71
147
1.5
 71
     0
 72
     0
 73
     0
 74
     0
 75
     0
 76
     0
 77
     3
 78
     8
170
     0
171
     2
172
     1
173
     0
174
     0
175
     0
176
   256
177
   256
178
    40
  0
DIMSTYLE
  2
TECHNICAL_OSAKA$3
 70
     0
  3

  4
"
  5
OPEN30
  6

  7

 40
1.0
 41
2.5
 42
1.0
 43
10.0
 44
1.0
 45
0.0
 46
0.0
 47
0.1
 48
0.1
140
2.7999999999999989
141
0.0
142
0.0
143
0.0393701
144
1.0
145
0.0
146
0.71
147
1.5
 71
     0
 72
     0
 73
     0
 74
     1
 75
     0
 76
     0
 77
     3
 78
     8
170
     0
171
     2
172
     0
173
     0
174
     0
175
     0
176
   256
177
   256
178
    40
  0
DIMSTYLE
  2
TECHNICAL_OSAKA$4
 70
     0
  3

  4
"
  5
OPEN30
  6

  7

 40
1.0
 41
2.5
 42
1.0
 43
10.0
 44
1.0
 45
0.0
 46
0.0
 47
0.1
 48
0.1
140
2.7999999999999989
141
0.0
142
0.0
143
0.0393701
144
1.0
145
0.0
146
0.71
147
1.5
 71
     0
 72
     0
 73
     0
 74
     1
 75
     0
 76
     0
 77
     3
 78
     8
170
     0
171
     2
172
     0
173
     0
174
     0
175
     0
176
   256
177
   256
178
    40
  0
DIMSTYLE
  2
TECHNICAL_OSAKA$6
 70
     0
  3

  4
"
  5
OPEN30
  6

  7

 40
1.0
 41
2.5
 42
1.0
 43
10.0
 44
1.0
 45
0.0
 46
0.0
 47
0.1
 48
0.1
140
2.7999999999999989
141
0.0
142
0.0
143
0.0393701
144
1.0
145
0.0
146
0.71
147
1.5
 71
     0
 72
     0
 73
     0
 74
     0
 75
     0
 76
     0
 77
     0
 78
     8
170
     0
171
     2
172
     1
173
     0
174
     0
175
     0
176
   256
177
   256
178
    40
  0
DIMSTYLE
  2
TECHNICAL_OSAKA$7
 70
     0
  3

  4
"
  5
OPEN30
  6

  7

 40
1.0
 41
2.5
 42
1.0
 43
10.0
 44
1.0
 45
0.0
 46
0.0
 47
0.1
 48
0.1
140
2.7999999999999989
141
0.0
142
0.0
143
0.0393701
144
1.0
145
0.0
146
0.71
147
1.5
 71
     0
 72
     0
 73
     0
 74
     0
 75
     0
 76
     0
 77
     3
 78
     8
170
     0
171
     2
172
     1
173
     0
174
     0
175
     0
176
   256
177
   256
178
    40
  0
DIMSTYLE
  2
TECHNICAL_OSAKA$SF
 70
     0
  3

  4
"
  5
OPEN30
  6
OPEN30
  7
OPEN30
 40
1.0
 41
2.5
 42
1.0
 43
10.0
 44
1.0
 45
0.0
 46
0.0
 47
0.1
 48
0.1
140
3.5
141
0.0
142
0.0
143
0.0393701
144
1.0
145
0.0
146
0.71
147
1.5
 71
     0
 72
     0
 73
     0
 74
     0
 75
     1
 76
     1
 77
     3
 78
     8
170
     0
171
     2
172
     1
173
     0
174
     0
175
     0
176
   256
177
   256
178
    40
  0
DIMSTYLE
  2
TECHNICAL_OSAKA$SH
 70
     0
  3

  4
"
  5
OPEN30
  6
GENAXEH
  7
OPEN30
 40
1.0
 41
2.5
 42
1.0
 43
10.0
 44
1.0
 45
0.0
 46
0.0
 47
0.1
 48
0.1
140
3.5
141
0.0
142
0.0
143
0.0393701
144
2.0
145
0.0
146
0.71
147
1.5
 71
     0
 72
     0
 73
     0
 74
     0
 75
     1
 76
     1
 77
     3
 78
     8
170
     0
171
     2
172
     1
173
     1
174
     0
175
     0
176
   256
177
   256
178
    40
  0
DIMSTYLE
  2
AM_ANSI
 70
     0
  3

  4
mm
  5

  6

  7

 40
1.0
 41
0.12
 42
0.05
 43
0.5
 44
0.1
 45
0.0
 46
0.0
 47
0.1
 48
0.1
140
0.12
141
0.0
142
0.0
143
25.399999999999999
144
1.0
145
0.0
146
0.71
147
0.06
 71
     0
 72
     0
 73
     1
 74
     1
 75
     0
 76
     0
 77
     0
 78
     7
170
     0
171
     2
172
     0
173
     0
174
     0
175
     0
176
   256
177
   256
178
     2
  0
DIMSTYLE
  2
AM_ANSI$3
 70
     0
  3

  4
mm
  5

  6

  7

 40
1.0
 41
0.12
 42
0.05
 43
0.5
 44
0.1
 45
0.0
 46
0.0
 47
0.1
 48
0.1
140
0.12
141
0.0
142
0.0
143
25.399999999999999
144
1.0
145
0.0
146
0.71
147
0.06
 71
     0
 72
     0
 73
     1
 74
     1
 75
     0
 76
     0
 77
     0
 78
     7
170
     0
171
     2
172
     0
173
     0
174
     0
175
     0
176
   256
177
   256
178
     2
  0
DIMSTYLE
  2
AM_ANSI$4
 70
     0
  3

  4
mm
  5

  6

  7

 40
1.0
 41
0.12
 42
0.05
 43
0.5
 44
0.1
 45
0.0
 46
0.0
 47
0.1
 48
0.1
140
0.12
141
0.0
142
0.0
143
25.399999999999999
144
1.0
145
0.0
146
0.71
147
0.06
 71
     0
 72
     0
 73
     1
 74
     1
 75
     0
 76
     0
 77
     0
 78
     7
170
     0
171
     2
172
     0
173
     0
174
     0
175
     0
176
   256
177
   256
178
     2
  0
DIMSTYLE
  2
AM_ANSI$7
 70
     0
  3

  4
mm
  5

  6

  7

 40
1.0
 41
0.12
 42
0.05
 43
0.5
 44
0.1
 45
0.0
 46
0.0
 47
0.1
 48
0.1
140
0.12
141
0.0
142
0.0
143
25.399999999999999
144
1.0
145
0.0
146
0.71
147
0.06
 71
     0
 72
     0
 73
     1
 74
     1
 75
     0
 76
     0
 77
     0
 78
     7
170
     0
171
     2
172
     0
173
     0
174
     0
175
     0
176
   256
177
   256
178
     2
  0
DIMSTYLE
  2
AM_ANSI$SF
 70
     0
  3

  4
mm
  5

  6

  7

 40
1.0
 41
0.12
 42
0.05
 43
0.5
 44
0.1
 45
0.0
 46
0.0
 47
0.1
 48
0.1
140
0.12
141
0.0
142
0.0
143
25.399999999999999
144
1.0
145
0.0
146
0.71
147
0.06
 71
     0
 72
     0
 73
     1
 74
     1
 75
     1
 76
     1
 77
     0
 78
     7
170
     0
171
     2
172
     0
173
     0
174
     0
175
     0
176
   256
177
   256
178
     2
  0
DIMSTYLE
  2
AM_ANSI$SH
 70
     0
  3

  4
mm
  5

  6

  7

 40
1.0
 41
0.12
 42
0.05
 43
0.5
 44
0.1
 45
0.0
 46
0.0
 47
0.1
 48
0.1
140
0.12
141
0.0
142
0.0
143
25.399999999999999
144
1.0
145
0.0
146
0.71
147
0.06
 71
     0
 72
     0
 73
     1
 74
     1
 75
     1
 76
     1
 77
     0
 78
     7
170
     0
171
     2
172
     0
173
     1
174
     0
175
     0
176
   256
177
   256
178
     2
  0
ENDTAB
  0
ENDSEC
  0
SECTION
  2
BLOCKS
  0
BLOCK
  8
0
  2
$MODEL_SPACE
 70
     0
 10
0.0
 20
0.0
 30
0.0
  3
$MODEL_SPACE
  1

  0
ENDBLK
  5
1C
  8
0
  0
BLOCK
 67
     1
  8
0
  2
$PAPER_SPACE
 70
     0
 10
0.0
 20
0.0
 30
0.0
  3
$PAPER_SPACE
  1

  0
ENDBLK
  5
19
 67
     1
  8
0
  0
BLOCK
  8
0
  2
_OPEN
 70
     0
 10
0.0
 20
0.0
 30
0.0
  3
_OPEN
  1

  0
LINE
  5
B28
  8
0
  6
BYBLOCK
 62
     0
 10
-1.0
 20
0.1666666666666666
 30
0.0
 11
0.0
 21
0.0
 31
0.0
  0
LINE
  5
B29
  8
0
  6
BYBLOCK
 62
     0
 10
-1.0
 20
-0.1666666666666666
 30
0.0
 11
0.0
 21
0.0
 31
0.0
  0
LINE
  5
B2A
  8
0
  6
BYBLOCK
 62
     0
 10
0.0
 20
0.0
 30
0.0
 11
-1.0
 21
0.0
 31
0.0
  0
ENDBLK
  5
B2B
  8
0
  0
BLOCK
  8
0
  2
矢印なし
 70
     0
 10
0.0
 20
0.0
 30
0.0
  3
矢印なし
  1

  0
ENDBLK
  5
6E5
  8
0
  0
BLOCK
  8
0
  2
GENAXEH
 70
     0
 10
0.0
 20
0.0
 30
0.0
  3
GENAXEH
  1

  0
LINE
  5
B63
  8
0
 10
-1.0
 20
0.0
 30
0.0
 11
1.0
 21
0.0
 31
0.0
  0
ENDBLK
  5
B64
  8
0
  0
BLOCK
  8
0
  2
_OPEN30
 70
     0
 10
0.0
 20
0.0
 30
0.0
  3
_OPEN30
  1

  0
LINE
  5
B9F
  8
0
  6
BYBLOCK
 62
     0
 10
-1.0
 20
0.26794919
 30
0.0
 11
0.0
 21
0.0
 31
0.0
  0
LINE
  5
BA0
  8
0
  6
BYBLOCK
 62
     0
 10
0.0
 20
0.0
 30
0.0
 11
-1.0
 21
-0.26794919
 31
0.0
  0
LINE
  5
BA1
  8
0
  6
BYBLOCK
 62
     0
 10
0.0
 20
0.0
 30
0.0
 11
-1.0
 21
0.0
 31
0.0
  0
ENDBLK
  5
BA2
  8
0
  0
ENDSEC
  0
SECTION
  2
ENTITIES
  0
INSERT
  5
6E6
  8
245
  2
矢印なし
 10
175.62382697000001
 20
90.551235719999994
 30
0.0
  0
LINE
  5
7D5
  8
250
  6
CONTINUOUS
 10
-72.570056859999994
 20
-24.047383400000001
 30
0.0
 11
-85.370056860000005
 21
-24.047383400000001
 31
0.0
1001
ITEMNAME
1000
LNSP2
  0
TEXT
  5
7D6
  8
241
  6
CONTINUOUS
 10
-117.5
 20
49.0
 30
0.0
 40
5.0
  1
MT4-CKB4-60
  7
YOKO
 11
-117.5
 21
49.0
 31
0.0
 73
     1
  0
LINE
  5
BD1
  8
245
  6
CENTER2
 10
-118.5
 20
0.0
 30
0.0
 11
60.5
 21
0.0
 31
0.0
  0
LINE
  5
BD2
  8
240
  6
CONTINUOUS
 10
-101.5
 20
12.550000000000001
 30
0.0
 11
5.5303652999999988
 21
15.80150868
 31
0.0
  0
LINE
  5
BD3
  8
240
  6
CONTINUOUS
 10
-101.5
 20
-12.550000000000001
 30
0.0
 11
5.5303652999999988
 21
-15.80150868
 31
0.0
  0
LINE
  5
BD4
  8
241
  6
CONTINUOUS
 10
-101.8
 20
10.70794098
 30
0.0
 11
-101.5
 21
11.007940980000001
 31
0.0
  0
LINE
  5
BD5
  8
240
  6
CONTINUOUS
 10
-101.8
 20
12.25
 30
0.0
 11
-101.5
 21
12.550000000000001
 31
0.0
  0
LINE
  5
BD6
  8
240
  6
CONTINUOUS
 10
-101.5
 20
-12.550000000000001
 30
0.0
 11
-101.8
 21
-12.25
 31
0.0
  0
LINE
  5
BD7
  8
241
  6
CONTINUOUS
 10
-101.8
 20
-10.70794098
 30
0.0
 11
-101.5
 21
-11.007940980000001
 31
0.0
  0
LINE
  5
BD8
  8
241
  6
CONTINUOUS
 10
-101.8
 20
12.25
 30
0.0
 11
-101.8
 21
10.70794098
 31
0.0
  0
ARC
  5
BD9
  8
240
  6
CONTINUOUS
 10
-114.41917725
 20
9.75
 30
0.0
 40
2.5
 50
90.0
 51
171.69999999999999
  0
ARC
  5
BDA
  8
241
  6
CONTINUOUS
 10
-114.42092939
 20
8.5479409799999981
 30
0.0
 40
2.1600000000000801
 50
90.0
 51
173.94350958000001
  0
LINE
  5
BDB
  8
240
  6
CONTINUOUS
 10
-117.5
 20
-5.9500000000000002
 30
0.0
 11
-117.5
 21
5.9500000000000002
 31
0.0
  0
LINE
  5
BDC
  8
241
  6
CONTINUOUS
 10
-116.56887304
 20
-8.7758403200000004
 30
0.0
 11
-117.5
 21
0.0
 31
0.0
  0
LINE
  5
BDD
  8
241
  6
CONTINUOUS
 10
-114.42092939
 20
-10.70794098
 30
0.0
 11
-101.8
 21
-10.70794098
 31
0.0
  0
LINE
  5
BDE
  8
240
  6
CONTINUOUS
 10
-114.41917725
 20
-12.25
 30
0.0
 11
-101.8
 21
-12.25
 31
0.0
  0
LINE
  5
BDF
  8
240
  6
CONTINUOUS
 10
-116.89299172
 20
-10.1108905
 30
0.0
 11
-117.5
 21
-5.9500000000000002
 31
0.0
  0
ARC
  5
BE0
  8
240
  6
CONTINUOUS
 10
-114.41917725
 20
-9.75
 30
0.0
 40
2.5000000000000089
 50
188.30000000000001
 51
270.0
  0
ARC
  5
BE1
  8
241
  6
CONTINUOUS
 10
-114.42092939
 20
-8.5479409799999981
 30
0.0
 40
2.160000000001645
 50
186.0564904199999
 51
270.0
  0
LINE
  5
BE2
  8
241
  6
CONTINUOUS
 10
-101.8
 20
-12.25
 30
0.0
 11
-101.8
 21
-10.70794098
 31
0.0
  0
LINE
  5
BE3
  8
241
  6
CONTINUOUS
 10
-114.42092939
 20
10.70794098
 30
0.0
 11
-101.8
 21
10.70794098
 31
0.0
  0
LINE
  5
BE4
  8
241
  6
CONTINUOUS
 10
-116.56887304
 20
8.7758403200000004
 30
0.0
 11
-117.5
 21
0.0
 31
0.0
  0
LINE
  5
BE5
  8
240
  6
CONTINUOUS
 10
-116.89299172
 20
10.1108905
 30
0.0
 11
-117.5
 21
5.9500000000000002
 31
0.0
  0
LINE
  5
BE6
  8
240
  6
CONTINUOUS
 10
-114.41917725
 20
12.25
 30
0.0
 11
-101.8
 21
12.25
 31
0.0
  0
ARC
  5
BE7
  8
241
  6
CONTINUOUS
 10
-101.5
 20
3.007940979999999
 30
0.0
 40
8.0
 50
0.0
 51
90.0
  0
LINE
  5
BE8
  8
241
  6
CONTINUOUS
 10
-93.499999999999986
 20
3.007940979999999
 30
0.0
 11
-93.499999999999986
 21
-3.007940979999999
 31
0.0
  0
ARC
  5
BE9
  8
241
  6
CONTINUOUS
 10
-101.5
 20
-3.007940979999999
 30
0.0
 40
8.0
 50
270.0
 51
0.0
  0
LINE
  5
BEA
  8
241
  6
CONTINUOUS
 10
6.5
 20
-16.80104755
 30
0.0
 11
6.5
 21
16.80104755
 31
0.0
  0
LINE
  5
BEB
  8
240
  6
CONTINUOUS
 10
59.5
 20
-19.5
 30
0.0
 11
59.5
 21
19.5
 31
0.0
  0
LINE
  5
BEC
  8
245
  6
CENTER2
 10
0.0
 20
16.633500000000002
 30
0.0
 11
0.0
 21
-16.633500000000002
 31
0.0
  0
LINE
  5
BED
  8
240
  6
CONTINUOUS
 10
59.5
 20
-19.5
 30
0.0
 11
7.5
 21
-19.5
 31
0.0
  0
LINE
  5
BEE
  8
240
  6
CONTINUOUS
 10
6.5
 20
-16.80104755
 30
0.0
 11
6.5
 21
-18.5
 31
0.0
  0
ARC
  5
BEF
  8
240
  6
CONTINUOUS
 10
5.5
 20
-16.80104755
 30
0.0
 40
1.0
 50
0.0
 51
88.259928909999999
  0
ARC
  5
BF0
  8
240
  6
CONTINUOUS
 10
7.5
 20
-18.5
 30
0.0
 40
1.0
 50
180.0
 51
270.0
  0
LINE
  5
BF1
  8
240
  6
CONTINUOUS
 10
59.5
 20
19.5
 30
0.0
 11
7.5
 21
19.5
 31
0.0
  0
LINE
  5
BF3
  8
240
  6
CONTINUOUS
 10
6.5
 20
16.80104755
 30
0.0
 11
6.5
 21
18.5
 31
0.0
  0
ARC
  5
BF4
  8
240
  6
CONTINUOUS
 10
5.5
 20
16.80104755
 30
0.0
 40
1.0
 50
271.74007109000001
 51
0.0
  0
ARC
  5
BF5
  8
240
  6
CONTINUOUS
 10
7.5
 20
18.5
 30
0.0
 40
1.0
 50
90.0
 51
180.0
  0
LINE
  5
C73
  8
243
  6
HIDDEN2
 10
33.449999999999989
 20
11.00000000000011
 30
0.0
 11
59.5
 21
11.00000000000011
 31
0.0
1001
GRPNAME
1000
PASTMD04
  0
LINE
  5
C74
  8
243
  6
HIDDEN2
 10
33.449999999999989
 20
-11.00000000000011
 30
0.0
 11
59.5
 21
-11.00000000000011
 31
0.0
1001
GRPNAME
1000
PASTMD04
  0
LINE
  5
C75
  8
250
  6
CONTINUOUS
 10
64.291169169999904
 20
33.245870839999967
 30
0.0
 11
77.491169169999921
 21
33.245870839999967
 31
0.0
1001
ITEMNAME
1000
LNSP2
  0
CIRCLE
  5
C76
  8
241
  6
CONTINUOUS
 10
49.5
 20
0.0
 30
0.0
 40
4.0
  0
LINE
  5
C77
  8
245
  6
CENTER2
 10
49.5
 20
5.0
 30
0.0
 11
49.5
 21
-5.0
 31
0.0
  0
CIRCLE
  5
C80
  8
242
  6
CONTINUOUS
 10
49.5
 20
0.0
 30
0.0
 40
3.5
  0
TEXT
  5
C85
  8
250
  6
CONTINUOUS
 10
66.69116916999991
 20
34.245870839999967
 30
0.0
 40
2.799999999999998
  1
CK4
  7
YOKO
1001
ITEMNAME
1000
LNSP3
1001
ACAD
1000
MTEXTBEGIN
1070
    73
1070
     1
1070
    44
1040
1.0
1070
    74
1070
     0
1000
MTEXTEND
  0
LINE
  5
C86
  8
250
  6
CONTINUOUS
 10
60.0
 20
-19.5
 30
0.0
 11
71.5
 21
-19.5
 31
0.0
  0
LINE
  5
C87
  8
250
  6
CONTINUOUS
 10
60.0
 20
19.5
 30
0.0
 11
71.5
 21
19.5
 31
0.0
  0
LINE
  5
C88
  8
250
  6
CONTINUOUS
 10
70.5
 20
-17.27
 30
0.0
 11
70.5
 21
17.27
 31
0.0
  0
TEXT
  5
C89
  8
250
  6
CONTINUOUS
 10
69.5
 20
-3.8666666666666649
 30
0.0
 40
2.799999999999998
  1
\U+220539
 50
90.0
1001
ACAD
1000
MTEXTBEGIN
1070
    73
1070
     1
1070
    44
1040
1.0
1070
    74
1070
     0
1000
MTEXTEND
  0
LINE
  5
C8A
  8
250
  6
CONTINUOUS
 10
70.12833333333333
 20
17.27
 30
0.0
 11
70.5
 21
19.5
 31
0.0
  0
LINE
  5
C8B
  8
250
  6
CONTINUOUS
 10
70.87166666666667
 20
17.27
 30
0.0
 11
70.5
 21
19.5
 31
0.0
  0
LINE
  5
C8C
  8
250
  6
CONTINUOUS
 10
70.5
 20
19.5
 30
0.0
 11
70.5
 21
17.27
 31
0.0
  0
LINE
  5
C8D
  8
250
  6
CONTINUOUS
 10
70.87166666666667
 20
-17.27
 30
0.0
 11
70.5
 21
-19.5
 31
0.0
  0
LINE
  5
C8E
  8
250
  6
CONTINUOUS
 10
70.12833333333333
 20
-17.27
 30
0.0
 11
70.5
 21
-19.5
 31
0.0
  0
LINE
  5
C8F
  8
250
  6
CONTINUOUS
 10
70.5
 20
-19.5
 30
0.0
 11
70.5
 21
-17.27
 31
0.0
  0
LINE
  5
C90
  8
250
  6
CONTINUOUS
 10
57.791859715099811
 20
21.245403317083959
 30
0.0
 11
56.354986939999932
 21
19.499999999999961
 31
0.0
  0
LINE
  5
C91
  8
250
  6
CONTINUOUS
 10
57.148114164959047
 20
21.617069983760469
 30
0.0
 11
56.354986939999932
 21
19.499999999999961
 31
0.0
  0
LINE
  5
C92
  8
250
  6
CONTINUOUS
 10
56.354986939999932
 20
19.499999999999961
 30
0.0
 11
57.469986940029443
 21
21.43123665042221
 31
0.0
  0
LINE
  5
CB1
  8
247
  6
CONTINUOUS
 10
10.68796073973421
 20
-10.917732509221389
 30
0.0
 11
10.68796073973426
 21
-6.2831171248913904
 31
0.0
  0
LINE
  5
CB2
  8
247
  6
CONTINUOUS
 10
8.1879607397342653
 20
-10.122626009209309
 30
0.0
 11
10.28796073965027
 21
-10.724791319278751
 31
0.0
  0
LINE
  5
CB3
  8
247
  6
CONTINUOUS
 10
9.1841145858482633
 20
-9.4928839127404387
 30
0.0
 11
9.1841145858482633
 21
-10.40826852808843
 31
0.0
  0
ARC
  5
CB4
  8
247
  6
CONTINUOUS
 10
8.5726798070283632
 20
-9.2549959111681517
 30
0.0
 40
0.3876715809326743
 50
72.997889675293067
 51
172.92416621851351
  0
ARC
  5
CB5
  8
247
  6
CONTINUOUS
 10
8.4931838707622802
 20
-9.5502100660254712
 30
0.0
 40
0.6933047965358766
 50
4.7429368522022122
 51
73.849226273266353
1001
GENIUS_GENOBJ-N-FIL_13
1002
{
1000
OWNER
1000
GEN
1002
}
1001
GENIUS_GENODEF_13
1002
{
1000
HIER
1070
     0
1002
}
1002
{
1000
MANEDIT
1070
     0
1002
}
1002
{
1000
NOSEL
1070
     0
1002
}
1002
{
1000
BEHIND
1070
     0
1002
}
1002
{
1000
OTHER
1070
     0
1002
}
1002
{
1000
REACTOR
1002
}
  0
LINE
  5
CB6
  8
247
  6
CONTINUOUS
 10
10.28796073965027
 20
-9.8094067039307618
 30
0.0
 11
10.28796073965027
 21
-10.724791319278751
 31
0.0
  0
LINE
  5
CB7
  8
247
  6
CONTINUOUS
 10
8.1879607397342653
 20
-10.122626009209309
 30
0.0
 11
8.1879607397342653
 21
-9.2072413938613238
 31
0.0
  0
ARC
  5
CB8
  8
247
  6
CONTINUOUS
 10
9.5753777025021378
 20
-9.5460389854881953
 30
0.0
 40
0.394857301075386
 50
65.990941652528917
 51
172.26344345906909
  0
ARC
  5
CB9
  8
247
  6
CONTINUOUS
 10
9.5791610670668348
 20
-9.8801791196483162
 30
0.0
 40
0.7123241612361686
 50
5.701985164256504
 51
77.277338436822333
1001
GENIUS_GENOBJ-N-FIL_13
1002
{
1000
OWNER
1000
GEN
1002
}
1001
GENIUS_GENODEF_13
1002
{
1000
HIER
1070
     0
1002
}
1002
{
1000
MANEDIT
1070
     0
1002
}
1002
{
1000
NOSEL
1070
     0
1002
}
1002
{
1000
BEHIND
1070
     0
1002
}
1002
{
1000
OTHER
1070
     0
1002
}
1002
{
1000
REACTOR
1002
}
  0
LINE
  5
CBA
  8
247
  6
CONTINUOUS
 10
10.28796073965027
 20
-8.8517143962847342
 30
0.0
 11
8.1879607397342653
 21
-8.2495490862153531
 31
0.0
  0
LINE
  5
CBB
  8
247
  6
CONTINUOUS
 10
8.1879607397342653
 20
-6.753395240129322
 30
0.0
 11
8.1879607397342653
 21
-7.1494108735249418
 31
0.0
  0
LINE
  5
CBC
  8
247
  6
CONTINUOUS
 10
10.28796073965027
 20
-7.7764721631653231
 30
0.0
 11
10.28796073965027
 21
-7.3457029324133307
 31
0.0
  0
ARC
  5
CBD
  8
247
  6
CONTINUOUS
 10
9.6462603348176241
 20
-6.5495490862913073
 30
0.0
 40
1.5768550576395479
 50
202.3594881415294
 51
254.9932485428464
  0
ARC
  5
CBE
  8
247
  6
CONTINUOUS
 10
8.753779598272402
 20
-7.0152438753545701
 30
0.0
 40
0.6234706797009447
 50
94.994589319075274
 51
155.16632895730399
1001
GENIUS_GENOBJ-N-FIL_13
1002
{
1000
OWNER
1000
GEN
1002
}
1001
GENIUS_GENODEF_13
1002
{
1000
HIER
1070
     0
1002
}
1002
{
1000
MANEDIT
1070
     0
1002
}
1002
{
1000
NOSEL
1070
     0
1002
}
1002
{
1000
BEHIND
1070
     0
1002
}
1002
{
1000
OTHER
1070
     0
1002
}
1002
{
1000
REACTOR
1002
}
  0
ARC
  5
CBF
  8
247
  6
CONTINUOUS
 10
9.3500628617037052
 20
-7.6119164602541503
 30
0.0
 40
0.9749472149106983
 50
15.84609655578071
 51
82.325137004169108
  0
ARC
  5
CC0
  8
247
  6
CONTINUOUS
 10
9.5594311417053301
 20
-7.2029441479935761
 30
0.0
 40
0.9271945638692009
 50
249.7136016704969
 51
321.78874565641092
1001
GENIUS_GENOBJ-N-FIL_13
1002
{
1000
OWNER
1000
GEN
1002
}
1001
GENIUS_GENODEF_13
1002
{
1000
HIER
1070
     0
1002
}
1002
{
1000
MANEDIT
1070
     0
1002
}
1002
{
1000
NOSEL
1070
     0
1002
}
1002
{
1000
BEHIND
1070
     0
1002
}
1002
{
1000
OTHER
1070
     0
1002
}
1002
{
1000
REACTOR
1002
}
  0
LINE
  5
CC1
  8
247
  6
CONTINUOUS
 10
9.4802684319902397
 20
-7.1303183170373066
 30
0.0
 11
9.4802684319902397
 21
-6.6457029324413659
 31
0.0
  0
ARC
  5
CC2
  8
247
  6
CONTINUOUS
 10
9.4379607397342653
 20
-10.917732509221389
 30
0.0
 40
1.25
 50
180.0
 51
0.0
  0
LINE
  5
CC3
  8
247
  6
CONTINUOUS
 10
8.1879607397342653
 20
-10.917732509221389
 30
0.0
 11
8.1879607397342653
 21
-10.47157866313537
 31
0.0
  0
ARC
  5
CC4
  8
247
  6
CONTINUOUS
 10
9.4379607397342653
 20
-6.2831171248913904
 30
0.0
 40
1.25
 50
0.0
 51
180.0
  0
LINE
  5
CC7
  8
250
  6
CONTINUOUS
 10
57.469986940029443
 20
21.43123665042221
 30
0.0
 11
64.291169169999904
 21
33.245870839999967
 31
0.0
1001
ACAD
1000
DSTYLE
1002
{
1070
     6
1000
OPEN
1002
}
  0
LINE
  5
CC8
  8
241
  6
CONTINUOUS
 10
47.5
 20
-1.1547005400000001
 30
0.0
 11
49.5
 21
-2.3094010800000002
 31
0.0
  0
LINE
  5
CC9
  8
241
  6
CONTINUOUS
 10
49.5
 20
-2.3094010800000002
 30
0.0
 11
51.5
 21
-1.1547005400000001
 31
0.0
  0
LINE
  5
CCA
  8
241
  6
CONTINUOUS
 10
51.5
 20
-1.1547005400000001
 30
0.0
 11
51.5
 21
1.1547005400000001
 31
0.0
  0
LINE
  5
CCB
  8
241
  6
CONTINUOUS
 10
51.5
 20
1.1547005400000001
 30
0.0
 11
49.5
 21
2.3094010800000002
 31
0.0
  0
LINE
  5
CCC
  8
241
  6
CONTINUOUS
 10
49.5
 20
2.3094010800000002
 30
0.0
 11
47.5
 21
1.1547005400000001
 31
0.0
  0
LINE
  5
CCD
  8
241
  6
CONTINUOUS
 10
47.5
 20
1.1547005400000001
 30
0.0
 11
47.5
 21
-1.1547005400000001
 31
0.0
  0
LINE
  5
CCE
  8
250
  6
CONTINUOUS
 10
0.0
 20
17.133500000000002
 30
0.0
 11
0.0
 21
36.0
 31
0.0
  0
LINE
  5
CCF
  8
250
  6
CONTINUOUS
 10
59.5
 20
20.0
 30
0.0
 11
59.5
 21
36.0
 31
0.0
  0
LINE
  5
CD0
  8
250
  6
CONTINUOUS
 10
2.2299999999999991
 20
35.0
 30
0.0
 11
57.270000000000003
 21
35.0
 31
0.0
  0
TEXT
  5
CD4
  8
250
  6
CONTINUOUS
 10
-83.103390193333325
 20
-23.047383400000001
 30
0.0
 40
2.7999999999999989
  1
MT4
  7
YOKO
1001
ITEMNAME
1000
LNSP3
1001
ACAD
1000
MTEXTBEGIN
1070
    73
1070
     1
1070
    44
1040
1.0
1070
    74
1070
     0
1000
MTEXTEND
1000
MTEXTBEGIN
1070
    73
1070
     1
1070
    44
1040
1.0
1070
    74
1070
     0
1000
MTEXTEND
  0
TEXT
  5
CD7
  8
250
  6
CONTINUOUS
 10
25.083333333333339
 20
36.0
 30
0.0
 40
2.7999999999999989
  1
59.5
1001
ACAD
1000
MTEXTBEGIN
1070
    73
1070
     1
1070
    44
1040
1.0
1070
    74
1070
     0
1000
MTEXTEND
  0
LINE
  5
CD8
  8
250
  6
CONTINUOUS
 10
57.270000000000003
 20
35.37166666666667
 30
0.0
 11
59.5
 21
35.0
 31
0.0
  0
LINE
  5
CD9
  8
250
  6
CONTINUOUS
 10
57.270000000000003
 20
34.62833333333333
 30
0.0
 11
59.5
 21
35.0
 31
0.0
  0
LINE
  5
CDA
  8
250
  6
CONTINUOUS
 10
59.5
 20
35.0
 30
0.0
 11
57.270000000000003
 21
35.0
 31
0.0
  0
LINE
  5
CDB
  8
250
  6
CONTINUOUS
 10
2.2299999999999991
 20
34.62833333333333
 30
0.0
 11
0.0
 21
35.0
 31
0.0
  0
LINE
  5
CDC
  8
250
  6
CONTINUOUS
 10
2.2299999999999991
 20
35.37166666666667
 30
0.0
 11
0.0
 21
35.0
 31
0.0
  0
LINE
  5
CDD
  8
250
  6
CONTINUOUS
 10
0.0
 20
35.0
 30
0.0
 11
2.2299999999999991
 21
35.0
 31
0.0
  0
LINE
  5
CDE
  8
250
  6
CONTINUOUS
 10
-67.660130499790114
 20
-15.54314148056047
 30
0.0
 11
-72.570056859999994
 21
-24.047383400000001
 31
0.0
1001
ACAD
1000
DSTYLE
1002
{
1070
     6
1000
OPEN
1070
   343
1005
594
1002
}
  0
LINE
  5
CDF
  8
250
  6
CONTINUOUS
 10
-67.982003274883539
 20
-15.35730814726211
 30
0.0
 11
-66.545130499999999
 21
-13.61190483
 31
0.0
  0
LINE
  5
CE0
  8
250
  6
CONTINUOUS
 10
-67.338257724696703
 20
-15.728974813858819
 30
0.0
 11
-66.545130499999999
 21
-13.61190483
 31
0.0
  0
LINE
  5
CE1
  8
250
  6
CONTINUOUS
 10
-66.545130499999999
 20
-13.61190483
 30
0.0
 11
-67.660130499790114
 21
-15.54314148056047
 31
0.0
  0
VIEWPORT
  5
22
 67
     1
  8
0
 10
261.51769911999997
 20
148.5
 30
0.0
 40
523.03539823000006
 41
297.0
 68
     1
 69
     1
1001
ACAD
1000
MVIEW
1002
{
1070
    16
1010
0.0
1020
0.0
1030
0.0
1010
0.0
1020
0.0
1030
1.0
1040
0.0
1040
297.0
1040
261.51769911999997
1040
148.5
1040
50.0
1040
0.0
1040
0.0
1070
     0
1070
   100
1070
     1
1070
     1
1070
     0
1070
     0
1070
     0
1070
     0
1040
0.0
1040
0.0
1040
0.0
1040
1.0
1040
1.0
1040
10.0
1040
10.0
1070
     0
1002
{
1002
}
1002
}
1001
GENIUS_GENOBJ-N-SDF_13
1002
{
1000
OWNER
1000
GEN
1002
}
1001
GENIUS_GENODEF_13
1002
{
1000
HIER
1070
     0
1002
}
1002
{
1000
MANEDIT
1070
     0
1002
}
1002
{
1000
NOSEL
1070
     0
1002
}
1002
{
1000
BEHIND
1070
     0
1002
}
1002
{
1000
OTHER
1070
     0
1002
}
1002
{
1000
REACTOR
1002
}
1001
GENIUS_GENSCREG_15
1000
PF
1040
1.0
1000
DF
1040
1.0
1000
MIN
1011
0.0000000049999471
1021
0.0
1031
0.0
1021
0.0
1031
0.0
1000
MAX
1011
523.035398235
1021
0.0
1031
0.0
1021
297.0
1031
0.0
1000
FLAGS
1070
     4
  0
ENDSEC
  0
EOF
