  0
SECTION
  2
HEADER
  9
$ACADVER
  1
AC1009
  9
$INSBASE
 10
0.0
 20
0.0
 30
0.0
  9
$EXTMIN
 10
-95.0
 20
-20.978308999999999
 30
0.0
  9
$EXTMAX
 10
81.535570299999208
 20
47.000000000000007
 30
0.0
  9
$LIMMIN
 10
0.0
 20
0.0
  9
$LIMMAX
 10
420.0
 20
297.0
  9
$ORTHOMODE
 70
     0
  9
$REGENMODE
 70
     1
  9
$FILLMODE
 70
     1
  9
$QTEXTMODE
 70
     0
  9
$MIRRTEXT
 70
     1
  9
$DRAGMODE
 70
     2
  9
$LTSCALE
 40
10.0
  9
$OSMODE
 70
    37
  9
$ATTMODE
 70
     1
  9
$TEXTSIZE
 40
3.0
  9
$TRACEWID
 40
1.0
  9
$TEXTSTYLE
  7
YOKO
  9
$CLAYER
  8
240
  9
$CELTYPE
  6
BYLAYER
  9
$CECOLOR
 62
   256
  9
$DIMSCALE
 40
1.0
  9
$DIMASZ
 40
2.0
  9
$DIMEXO
 40
2.0
  9
$DIMDLI
 40
2.5
  9
$DIMRND
 40
0.0
  9
$DIMDLE
 40
0.0
  9
$DIMEXE
 40
2.0
  9
$DIMTP
 40
0.0
  9
$DIMTM
 40
0.0
  9
$DIMTXT
 40
4.0
  9
$DIMCEN
 40
0.0
  9
$DIMTSZ
 40
0.0
  9
$DIMTOL
 70
     0
  9
$DIMLIM
 70
     0
  9
$DIMTIH
 70
     0
  9
$DIMTOH
 70
     0
  9
$DIMSE1
 70
     0
  9
$DIMSE2
 70
     0
  9
$DIMTAD
 70
     3
  9
$DIMZIN
 70
     8
  9
$DIMBLK
  1

  9
$DIMASO
 70
     1
  9
$DIMSHO
 70
     1
  9
$DIMPOST
  1

  9
$DIMAPOST
  1

  9
$DIMALT
 70
     0
  9
$DIMALTD
 70
     2
  9
$DIMALTF
 40
25.399999999999999
  9
$DIMLFAC
 40
1.0
  9
$DIMTOFL
 70
     1
  9
$DIMTVP
 40
0.0
  9
$DIMTIX
 70
     1
  9
$DIMSOXD
 70
     0
  9
$DIMSAH
 70
     1
  9
$DIMBLK1
  1
OPEN
  9
$DIMBLK2
  1
OPEN
  9
$DIMSTYLE
  2
BIGT
  9
$DIMCLRD
 70
   256
  9
$DIMCLRE
 70
   256
  9
$DIMCLRT
 70
    40
  9
$DIMTFAC
 40
1.0
  9
$DIMGAP
 40
1.0
  9
$LUNITS
 70
     2
  9
$LUPREC
 70
     3
  9
$SKETCHINC
 40
1.0
  9
$FILLETRAD
 40
1.0
  9
$AUNITS
 70
     0
  9
$AUPREC
 70
     3
  9
$MENU
  1
.
  9
$ELEVATION
 40
0.0
  9
$PELEVATION
 40
0.0
  9
$THICKNESS
 40
0.0
  9
$LIMCHECK
 70
     0
  9
$BLIPMODE
 70
     0
  9
$CHAMFERA
 40
10.0
  9
$CHAMFERB
 40
10.0
  9
$SKPOLY
 70
     0
  9
$TDCREATE
 40
2455061.6717444211
  9
$TDUPDATE
 40
2459839.4343894441
  9
$TDINDWG
 40
0.0467547454
  9
$TDUSRTIMER
 40
0.0467547338
  9
$USRTIMER
 70
     1
  9
$ANGBASE
 50
0.0
  9
$ANGDIR
 70
     0
  9
$PDMODE
 70
     1
  9
$PDSIZE
 40
-5.0
  9
$PLINEWID
 40
0.0
  9
$COORDS
 70
     1
  9
$SPLFRAME
 70
     0
  9
$SPLINETYPE
 70
     6
  9
$SPLINESEGS
 70
     8
  9
$ATTDIA
 70
     1
  9
$ATTREQ
 70
     1
  9
$HANDLING
 70
     1
  9
$HANDSEED
  5
D8B
  9
$SURFTAB1
 70
     6
  9
$SURFTAB2
 70
     6
  9
$SURFTYPE
 70
     6
  9
$SURFU
 70
     6
  9
$SURFV
 70
     6
  9
$UCSNAME
  2

  9
$UCSORG
 10
0.0
 20
0.0
 30
0.0
  9
$UCSXDIR
 10
1.0
 20
0.0
 30
0.0
  9
$UCSYDIR
 10
0.0
 20
1.0
 30
0.0
  9
$PUCSNAME
  2

  9
$PUCSORG
 10
0.0
 20
0.0
 30
0.0
  9
$PUCSXDIR
 10
1.0
 20
0.0
 30
0.0
  9
$PUCSYDIR
 10
0.0
 20
1.0
 30
0.0
  9
$USERI1
 70
     1
  9
$USERI2
 70
     0
  9
$USERI3
 70
     0
  9
$USERI4
 70
     0
  9
$USERI5
 70
     0
  9
$USERR1
 40
0.0
  9
$USERR2
 40
0.0
  9
$USERR3
 40
0.0
  9
$USERR4
 40
0.0
  9
$USERR5
 40
0.0
  9
$WORLDVIEW
 70
     1
  9
$SHADEDGE
 70
     3
  9
$SHADEDIF
 70
    70
  9
$TILEMODE
 70
     1
  9
$MAXACTVP
 70
    16
  9
$PLIMCHECK
 70
     0
  9
$PEXTMIN
 10
1.0000000000000000E+020
 20
1.0000000000000000E+020
 30
1.0000000000000000E+020
  9
$PEXTMAX
 10
-1.0000000000000000E+020
 20
-1.0000000000000000E+020
 30
-1.0000000000000000E+020
  9
$PLIMMIN
 10
0.0
 20
0.0
  9
$PLIMMAX
 10
420.0
 20
297.0
  9
$UNITMODE
 70
     0
  9
$VISRETAIN
 70
     0
  9
$PLINEGEN
 70
     0
  9
$PSLTSCALE
 70
     1
  0
ENDSEC
  0
SECTION
  2
TABLES
  0
TABLE
  2
VPORT
 70
     1
  0
VPORT
  2
*ACTIVE
 70
     0
 10
0.0
 20
0.0
 11
1.0
 21
1.0
 12
-3.3213141348077349
 22
13.12140802141348
 13
0.0
 23
0.0
 14
7.0
 24
7.0
 15
7.0
 25
7.0
 16
0.0
 26
0.0
 36
1.0
 17
0.0
 27
0.0
 37
0.0
 40
124.164170064771
 41
1.762778505897771
 42
50.0
 43
0.0
 44
0.0
 50
0.0
 51
0.0
 71
     0
 72
  2000
 73
     1
 74
     0
 75
     0
 76
     1
 77
     0
 78
     0
  0
ENDTAB
  0
TABLE
  2
LTYPE
 70
    17
  0
LTYPE
  2
CONTINUOUS
 70
     0
  3
Solid line
 72
    65
 73
     0
 40
0.0
  0
LTYPE
  2
CENTER2
 70
     0
  3
___ _ ___ _ ___ _ ___ _ ___ _ ___ _ ___ _ ___ _
 72
    65
 73
     4
 40
1.125
 49
0.75
 49
-0.125
 49
0.125
 49
-0.125
  0
LTYPE
  2
HIDDEN2
 70
     0
  3
_ _ _ _ _ _ _ _ _ _ _ _ _ _ _ _ _ _ _ _ _ _ _ _
 72
    65
 73
     2
 40
0.1875
 49
0.125
 49
-0.0625
  0
LTYPE
  2
HIDDEN
 70
     0
  3
Hidden __ __ __ __ __ __ __ __ __ __ __ __ __ _
 72
    65
 73
     2
 40
9.5249999999999986
 49
6.3499999999999988
 49
-3.1749999999999989
  0
LTYPE
  2
PHANTOM2
 70
     0
  3
___ _ _ ___ _ _ ___ _ _ ___ _ _ ___ _ _ ___ _ _
 72
    65
 73
     6
 40
1.25
 49
0.625
 49
-0.125
 49
0.125
 49
-0.125
 49
0.125
 49
-0.125
  0
LTYPE
  2
CENTER
 70
     0
  3
____ _ ____ _ ____ _ ____ _ ____ _ ____ _ ____ 
 72
    65
 73
     4
 40
2.0
 49
1.25
 49
-0.25
 49
0.25
 49
-0.25
  0
LTYPE
  2
AMCONSTR
 70
     0
  3
_______________________
 72
    65
 73
     2
 40
9999.0
 49
9999.0
 49
0.0
  0
LTYPE
  2
AM_ISO02W050
 70
     0
  3
__ __ __ __ __ __ __ __ __ __ __ __ __ __ __
 72
    65
 73
     2
 40
7.5
 49
6.0
 49
-1.5
  0
LTYPE
  2
ACJISTGB
 70
     0
  3
__ . . __ . .
 72
    65
 73
     6
 40
9.0
 49
4.0
 49
-1.0
 49
1.0
 49
-1.0
 49
1.0
 49
-1.0
  0
LTYPE
  2
ACJISTGL
 70
     0
  3
_ _ _ _ _
 72
    65
 73
     2
 40
3.0
 49
2.0
 49
-1.0
  0
LTYPE
  2
ACISOWELD
 70
     0
  3
_ _ _ _ _
 72
    65
 73
     2
 40
2.0
 49
2.0
 49
-1.0
  0
LTYPE
  2
ACISOTGB
 70
     0
  3
__ . . __ . .
 72
    65
 73
     6
 40
9.0
 49
4.0
 49
-1.0
 49
1.0
 49
-1.0
 49
1.0
 49
-1.0
  0
LTYPE
  2
ACISOTGL
 70
     0
  3
_ _ _ _ _
 72
    65
 73
     2
 40
3.0
 49
2.0
 49
-1.0
  0
LTYPE
  2
AMZIGZAG2
 70
     0
  3
/\/-/\/-/\/-/\/-/\/-/\/
 72
    65
 73
     2
 40
0.4401
 49
0.0001
 49
-0.4400000000000002
  0
LTYPE
  2
ACANSTGB
 70
     0
  3
__ . . __ . .
 72
    65
 73
     6
 40
0.35433070866
 49
0.15748031496
 49
-0.03937007874
 49
0.03937007874
 49
-0.03937007874
 49
0.03937007874
 49
-0.03937007874
  0
LTYPE
  2
ACANSTGL
 70
     0
  3
_ _ _ _ _
 72
    65
 73
     2
 40
0.11811023622
 49
0.07874015748
 49
-0.03937007874
  0
ENDTAB
  0
TABLE
  2
LAYER
 70
    11
  0
LAYER
  2
0
 70
     0
 62
     7
  6
CONTINUOUS
  0
LAYER
  2
240
 70
     0
 62
     4
  6
CONTINUOUS
  0
LAYER
  2
241
 70
     0
 62
   211
  6
CONTINUOUS
  0
LAYER
  2
242
 70
     0
 62
     3
  6
CONTINUOUS
  0
LAYER
  2
245
 70
     0
 62
     2
  6
CENTER2
  0
LAYER
  2
250
 70
     0
 62
     3
  6
CONTINUOUS
  0
LAYER
  2
251
 70
     0
 62
    40
  6
CONTINUOUS
  0
LAYER
  2
DEFPOINTS
 70
     0
 62
     7
  6
CONTINUOUS
  0
LAYER
  2
5
 70
     0
 62
     2
  6
CONTINUOUS
  0
LAYER
  2
243
 70
     0
 62
   211
  6
HIDDEN2
  0
LAYER
  2
247
 70
     0
 62
    60
  6
CONTINUOUS
  0
ENDTAB
  0
TABLE
  2
STYLE
 70
     7
  0
STYLE
  2
STANDARD
 70
     0
 40
0.0
 41
1.0
 50
0.0
 71
     0
 42
3.0
  3
romans.shx
  4
BIGFONT.SHX
  0
STYLE
  2
YOKO
 70
     0
 40
0.0
 41
1.0
 50
0.0
 71
     0
 42
3.0
  3
romans.shx
  4
extfont.shx
  0
STYLE
  2
ACJISTS
 70
     0
 40
1.0
 41
1.0
 50
0.0
 71
     0
 42
3.0
  3
amgdt.shx
  4
extfont.shx
  0
STYLE
  2
ACJISGDT
 70
     0
 40
0.0
 41
1.0
 50
0.0
 71
     0
 42
3.0
  3
amgdt.shx
  4
extfont.shx
  0
STYLE
  2
ACISOTS
 70
     0
 40
1.0
 41
1.0
 50
0.0
 71
     0
 42
3.0
  3
amgdt.shx
  4
extfont.shx
  0
STYLE
  2
ACISOGDT
 70
     0
 40
0.0
 41
1.0
 50
0.0
 71
     0
 42
3.0
  3
amgdt.shx
  4
extfont.shx
  0
STYLE
  2
ACANSGDT
 70
     0
 40
0.0
 41
1.0
 50
0.0
 71
     0
 42
3.0
  3
amgdt.shx
  4

  0
ENDTAB
  0
TABLE
  2
VIEW
 70
     0
  0
ENDTAB
  0
TABLE
  2
UCS
 70
     0
  0
ENDTAB
  0
TABLE
  2
APPID
 70
    38
  0
APPID
  2
ACAD
 70
     0
  0
APPID
  2
GLOBAL
 70
     0
  0
APPID
  2
DETAIL
 70
     0
  0
APPID
  2
GRPNAME
 70
     0
  0
APPID
  2
GPARA
 70
     0
  0
APPID
  2
DCO15
 70
     0
  0
APPID
  2
ITEMNAME
 70
     0
  0
APPID
  2
GRADE_0
 70
     0
  0
APPID
  2
CONTENTBLOCKICON
 70
     0
  0
APPID
  2
ACAD_PSEXT
 70
     0
  0
APPID
  2
MCAD_NO_VIS
 70
     0
  0
APPID
  2
ACAD_TEMP_GRAPHIC
 70
     0
  0
APPID
  2
ACATTRIBSERVICES
 70
     0
  0
APPID
  2
GENIUS_GENSCREG_15
 70
     0
  0
APPID
  2
GENIUS_GENODEF_13
 70
     0
  0
APPID
  2
GENIUS_GENOBJ-N-SDF_13
 70
     0
  0
APPID
  2
GENIUS_GENREC_14
 70
     0
  0
APPID
  2
GENIUS_GENOBJ-N-REC_13
 70
     0
  0
APPID
  2
GENIUS_GENDIMSH_14
 70
     0
  0
APPID
  2
GENIUS_GENOBJ-N-DIM_13
 70
     0
  0
APPID
  2
GENIUS_GENDIM_13
 70
     0
  0
APPID
  2
GENIUS_GENDTOL_13
 70
     0
  0
APPID
  2
GENIUS_GENOLIS_13
 70
     0
  0
APPID
  2
GENIUS_GENOENT_13
 70
     0
  0
APPID
  2
GENIUS_GENOBJ-F-FEM_13
 70
     0
  0
APPID
  2
GENIUS_GENOREF_13
 70
     0
  0
APPID
  2
GENIUS_GEFFEM_13
 70
     0
  0
APPID
  2
GENIUS_GEFFEMP_13
 70
     0
  0
APPID
  2
AD_DRAW
 70
     0
  0
APPID
  2
DESIGNERASSEMBLIES
 70
     0
  0
APPID
  2
ACADM_DIM_EDIT
 70
     0
  0
APPID
  2
AMDT_DM_ADJ
 70
     0
  0
APPID
  2
GENIUS_GENOBJ-N-FIL_13
 70
     0
  0
APPID
  2
GENIUS_GENFIL_13
 70
     0
  0
APPID
  2
GENIUS_GENOBJ-N-CHA_13
 70
     0
  0
APPID
  2
ACAD_NAV_VCDISPLAY
 70
     0
  0
APPID
  2
ACAD_EXEMPT_FROM_CAD_STANDARDS
 70
     0
  0
APPID
  2
ACAD_MLEADERVER
 70
     0
  0
ENDTAB
  0
TABLE
  2
DIMSTYLE
 70
    29
  0
DIMSTYLE
  2
BIGT
 70
     0
  3

  4

  5
OPEN
  6

  7

 40
1.0
 41
2.2299999999999991
 42
0.5
 43
7.0
 44
1.0
 45
0.0
 46
0.0
 47
0.0
 48
0.01
140
2.7999999999999989
141
0.0
142
0.0
143
25.399999999999999
144
1.0
145
0.0
146
1.0
147
1.0
 71
     0
 72
     0
 73
     0
 74
     0
 75
     0
 76
     0
 77
     3
 78
     9
170
     0
171
     2
172
     1
173
     0
174
     1
175
     0
176
   256
177
   256
178
    40
  0
DIMSTYLE
  2
BIGT$0
 70
     0
  3

  4

  5
OPEN
  6

  7

 40
1.0
 41
2.2299999999999991
 42
0.5
 43
7.0
 44
1.0
 45
0.0
 46
0.0
 47
0.0
 48
0.01
140
2.7999999999999989
141
0.0
142
0.0
143
25.399999999999999
144
1.0
145
0.0
146
1.0
147
1.0
 71
     0
 72
     0
 73
     0
 74
     0
 75
     0
 76
     0
 77
     3
 78
     9
170
     0
171
     2
172
     1
173
     0
174
     1
175
     0
176
   256
177
   256
178
    40
  0
DIMSTYLE
  2
BIGT$2
 70
     0
  3

  4

  5
OPEN
  6

  7

 40
1.0
 41
2.2299999999999991
 42
0.5
 43
7.0
 44
1.0
 45
0.0
 46
0.0
 47
0.0
 48
0.01
140
2.7999999999999989
141
0.0
142
0.0
143
25.399999999999999
144
1.0
145
0.0
146
1.0
147
1.0
 71
     0
 72
     0
 73
     0
 74
     0
 75
     0
 76
     0
 77
     3
 78
     9
170
     0
171
     2
172
     1
173
     0
174
     0
175
     0
176
   256
177
   256
178
    40
  0
DIMSTYLE
  2
BIGT$3
 70
     0
  3

  4

  5
OPEN
  6

  7

 40
1.0
 41
2.2299999999999991
 42
0.5
 43
2.5
 44
1.0
 45
0.0
 46
0.0
 47
0.0
 48
0.01
140
2.7999999999999989
141
0.0
142
0.0
143
25.399999999999999
144
1.0
145
0.0
146
1.0
147
1.0
 71
     0
 72
     0
 73
     0
 74
     0
 75
     0
 76
     0
 77
     3
 78
     9
170
     0
171
     2
172
     1
173
     0
174
     0
175
     0
176
   256
177
   256
178
    40
  0
DIMSTYLE
  2
BIGT$4
 70
     0
  3

  4

  5
OPEN
  6

  7

 40
1.0
 41
2.2299999999999991
 42
0.5
 43
2.5
 44
1.0
 45
0.0
 46
0.0
 47
0.0
 48
0.01
140
2.7999999999999989
141
0.0
142
0.0
143
25.399999999999999
144
1.0
145
0.0
146
1.0
147
1.0
 71
     0
 72
     0
 73
     0
 74
     0
 75
     0
 76
     0
 77
     3
 78
     9
170
     0
171
     2
172
     1
173
     0
174
     0
175
     0
176
   256
177
   256
178
    40
  0
DIMSTYLE
  2
BIGT$6
 70
     0
  3

  4

  5
OPEN
  6

  7

 40
1.0
 41
2.2299999999999991
 42
0.5
 43
2.5
 44
1.0
 45
0.0
 46
0.0
 47
0.0
 48
0.01
140
2.7999999999999989
141
0.0
142
0.0
143
25.399999999999999
144
1.0
145
0.0
146
1.0
147
1.0
 71
     0
 72
     0
 73
     0
 74
     0
 75
     0
 76
     0
 77
     3
 78
     9
170
     0
171
     2
172
     1
173
     0
174
     0
175
     0
176
   256
177
   256
178
    40
  0
DIMSTYLE
  2
BIGT$7
 70
     0
  3

  4

  5
OPEN
  6

  7

 40
0.0
 41
2.2299999999999991
 42
0.5
 43
7.0
 44
1.0
 45
0.0
 46
0.0
 47
0.0
 48
0.01
140
2.7999999999999989
141
0.0
142
0.0
143
25.399999999999999
144
1.0
145
0.0
146
1.0
147
1.0
 71
     0
 72
     0
 73
     0
 74
     0
 75
     0
 76
     0
 77
     3
 78
     9
170
     0
171
     2
172
     0
173
     0
174
     0
175
     0
176
   256
177
   256
178
    40
  0
DIMSTYLE
  2
BIGT$SF
 70
     0
  3

  4

  5
OPEN
  6

  7

 40
1.0
 41
2.2299999999999991
 42
0.5
 43
7.0
 44
1.0
 45
0.0
 46
0.0
 47
0.0
 48
0.0
140
2.7999999999999989
141
0.0
142
0.0
143
25.399999999999999
144
1.0
145
0.0
146
1.0
147
1.0
 71
     0
 72
     0
 73
     0
 74
     0
 75
     0
 76
     0
 77
     3
 78
     9
170
     0
171
     2
172
     1
173
     0
174
     0
175
     0
176
   256
177
   256
178
    40
  0
DIMSTYLE
  2
BIGT$SH
 70
     0
  3

  4

  5
OPEN
  6

  7

 40
1.0
 41
2.2299999999999991
 42
0.5
 43
7.0
 44
1.0
 45
0.0
 46
0.0
 47
0.0
 48
0.0
140
2.7999999999999989
141
0.0
142
0.0
143
25.399999999999999
144
1.0
145
0.0
146
1.0
147
1.0
 71
     0
 72
     0
 73
     0
 74
     0
 75
     0
 76
     0
 77
     3
 78
     9
170
     0
171
     2
172
     1
173
     0
174
     0
175
     0
176
   256
177
   256
178
    40
  0
DIMSTYLE
  2
AM_ISO
 70
     0
  3

  4
"
  5

  6

  7

 40
1.0
 41
2.5
 42
1.0
 43
10.0
 44
1.0
 45
0.0
 46
0.0
 47
0.1
 48
0.1
140
3.5
141
0.0
142
0.0
143
0.0393701
144
1.0
145
0.0
146
0.71
147
1.5
 71
     0
 72
     0
 73
     0
 74
     0
 75
     0
 76
     0
 77
     1
 78
     8
170
     0
171
     2
172
     1
173
     0
174
     0
175
     0
176
   256
177
   256
178
     2
  0
DIMSTYLE
  2
AM_ISO$3
 70
     0
  3

  4
"
  5

  6

  7

 40
1.0
 41
2.5
 42
1.0
 43
10.0
 44
1.0
 45
0.0
 46
0.0
 47
0.1
 48
0.1
140
3.5
141
0.0
142
0.0
143
0.0393701
144
1.0
145
0.0
146
0.71
147
1.5
 71
     0
 72
     0
 73
     0
 74
     1
 75
     0
 76
     0
 77
     1
 78
     8
170
     0
171
     2
172
     0
173
     0
174
     0
175
     0
176
   256
177
   256
178
     2
  0
DIMSTYLE
  2
AM_ISO$4
 70
     0
  3

  4
"
  5

  6

  7

 40
1.0
 41
2.5
 42
1.0
 43
10.0
 44
1.0
 45
0.0
 46
0.0
 47
0.1
 48
0.1
140
3.5
141
0.0
142
0.0
143
0.0393701
144
1.0
145
0.0
146
0.71
147
1.5
 71
     0
 72
     0
 73
     0
 74
     1
 75
     0
 76
     0
 77
     1
 78
     8
170
     0
171
     2
172
     0
173
     0
174
     0
175
     0
176
   256
177
   256
178
     2
  0
DIMSTYLE
  2
AM_ISO$6
 70
     0
  3

  4
"
  5

  6

  7

 40
1.0
 41
2.5
 42
1.0
 43
10.0
 44
1.0
 45
0.0
 46
0.0
 47
0.1
 48
0.1
140
3.5
141
0.0
142
0.0
143
0.0393701
144
1.0
145
0.0
146
0.71
147
1.5
 71
     0
 72
     0
 73
     0
 74
     0
 75
     0
 76
     0
 77
     0
 78
     8
170
     0
171
     2
172
     1
173
     0
174
     0
175
     0
176
   256
177
   256
178
     2
  0
DIMSTYLE
  2
AM_ISO$7
 70
     0
  3

  4
"
  5

  6

  7

 40
1.0
 41
2.5
 42
1.0
 43
10.0
 44
1.0
 45
0.0
 46
0.0
 47
0.1
 48
0.1
140
5.0
141
0.0
142
0.0
143
0.0393701
144
1.0
145
0.0
146
0.71
147
1.5
 71
     0
 72
     0
 73
     0
 74
     0
 75
     0
 76
     0
 77
     1
 78
     8
170
     0
171
     2
172
     1
173
     0
174
     0
175
     0
176
   256
177
   256
178
     2
  0
DIMSTYLE
  2
AM_ISO$SF
 70
     0
  3

  4
"
  5

  6

  7

 40
1.0
 41
2.5
 42
1.0
 43
10.0
 44
1.0
 45
0.0
 46
0.0
 47
0.1
 48
0.1
140
3.5
141
0.0
142
0.0
143
0.0393701
144
1.0
145
0.0
146
0.71
147
1.5
 71
     0
 72
     0
 73
     0
 74
     0
 75
     1
 76
     1
 77
     1
 78
     8
170
     0
171
     2
172
     1
173
     0
174
     0
175
     0
176
   256
177
   256
178
     2
  0
DIMSTYLE
  2
AM_ISO$SH
 70
     0
  3

  4
"
  5

  6
GENAXEH
  7

 40
1.0
 41
2.5
 42
1.0
 43
10.0
 44
1.0
 45
0.0
 46
0.0
 47
0.1
 48
0.1
140
3.5
141
0.0
142
0.0
143
0.0393701
144
2.0
145
0.0
146
0.71
147
1.5
 71
     0
 72
     0
 73
     0
 74
     0
 75
     1
 76
     1
 77
     1
 78
     8
170
     0
171
     2
172
     1
173
     1
174
     0
175
     0
176
   256
177
   256
178
     2
  0
DIMSTYLE
  2
TECHNICAL_OSAKA
 70
     0
  3

  4
"
  5
OPEN30
  6

  7

 40
1.0
 41
2.5
 42
1.0
 43
10.0
 44
1.0
 45
0.0
 46
0.0
 47
0.1
 48
0.1
140
2.7999999999999989
141
0.0
142
0.0
143
0.0393701
144
1.0
145
0.0
146
0.71
147
1.5
 71
     0
 72
     0
 73
     0
 74
     0
 75
     0
 76
     0
 77
     3
 78
     8
170
     0
171
     2
172
     1
173
     0
174
     0
175
     0
176
   256
177
   256
178
    40
  0
DIMSTYLE
  2
TECHNICAL_OSAKA$3
 70
     0
  3

  4
"
  5
OPEN30
  6

  7

 40
1.0
 41
2.5
 42
1.0
 43
10.0
 44
1.0
 45
0.0
 46
0.0
 47
0.1
 48
0.1
140
2.7999999999999989
141
0.0
142
0.0
143
0.0393701
144
1.0
145
0.0
146
0.71
147
1.5
 71
     0
 72
     0
 73
     0
 74
     1
 75
     0
 76
     0
 77
     3
 78
     8
170
     0
171
     2
172
     0
173
     0
174
     0
175
     0
176
   256
177
   256
178
    40
  0
DIMSTYLE
  2
TECHNICAL_OSAKA$4
 70
     0
  3

  4
"
  5
OPEN30
  6

  7

 40
1.0
 41
2.5
 42
1.0
 43
10.0
 44
1.0
 45
0.0
 46
0.0
 47
0.1
 48
0.1
140
2.7999999999999989
141
0.0
142
0.0
143
0.0393701
144
1.0
145
0.0
146
0.71
147
1.5
 71
     0
 72
     0
 73
     0
 74
     1
 75
     0
 76
     0
 77
     3
 78
     8
170
     0
171
     2
172
     0
173
     0
174
     0
175
     0
176
   256
177
   256
178
    40
  0
DIMSTYLE
  2
TECHNICAL_OSAKA$6
 70
     0
  3

  4
"
  5
OPEN30
  6

  7

 40
1.0
 41
2.5
 42
1.0
 43
10.0
 44
1.0
 45
0.0
 46
0.0
 47
0.1
 48
0.1
140
2.7999999999999989
141
0.0
142
0.0
143
0.0393701
144
1.0
145
0.0
146
0.71
147
1.5
 71
     0
 72
     0
 73
     0
 74
     0
 75
     0
 76
     0
 77
     0
 78
     8
170
     0
171
     2
172
     1
173
     0
174
     0
175
     0
176
   256
177
   256
178
    40
  0
DIMSTYLE
  2
TECHNICAL_OSAKA$7
 70
     0
  3

  4
"
  5
OPEN30
  6

  7

 40
1.0
 41
2.5
 42
1.0
 43
10.0
 44
1.0
 45
0.0
 46
0.0
 47
0.1
 48
0.1
140
2.7999999999999989
141
0.0
142
0.0
143
0.0393701
144
1.0
145
0.0
146
0.71
147
1.5
 71
     0
 72
     0
 73
     0
 74
     0
 75
     0
 76
     0
 77
     3
 78
     8
170
     0
171
     2
172
     1
173
     0
174
     0
175
     0
176
   256
177
   256
178
    40
  0
DIMSTYLE
  2
TECHNICAL_OSAKA$SF
 70
     0
  3

  4
"
  5
OPEN30
  6
OPEN30
  7
OPEN30
 40
1.0
 41
2.5
 42
1.0
 43
10.0
 44
1.0
 45
0.0
 46
0.0
 47
0.1
 48
0.1
140
3.5
141
0.0
142
0.0
143
0.0393701
144
1.0
145
0.0
146
0.71
147
1.5
 71
     0
 72
     0
 73
     0
 74
     0
 75
     1
 76
     1
 77
     3
 78
     8
170
     0
171
     2
172
     1
173
     0
174
     0
175
     0
176
   256
177
   256
178
    40
  0
DIMSTYLE
  2
TECHNICAL_OSAKA$SH
 70
     0
  3

  4
"
  5
OPEN30
  6
GENAXEH
  7
OPEN30
 40
1.0
 41
2.5
 42
1.0
 43
10.0
 44
1.0
 45
0.0
 46
0.0
 47
0.1
 48
0.1
140
3.5
141
0.0
142
0.0
143
0.0393701
144
2.0
145
0.0
146
0.71
147
1.5
 71
     0
 72
     0
 73
     0
 74
     0
 75
     1
 76
     1
 77
     3
 78
     8
170
     0
171
     2
172
     1
173
     1
174
     0
175
     0
176
   256
177
   256
178
    40
  0
DIMSTYLE
  2
AM_ANSI
 70
     0
  3

  4
mm
  5

  6

  7

 40
1.0
 41
0.12
 42
0.05
 43
0.5
 44
0.1
 45
0.0
 46
0.0
 47
0.1
 48
0.1
140
0.12
141
0.0
142
0.0
143
25.399999999999999
144
1.0
145
0.0
146
0.71
147
0.06
 71
     0
 72
     0
 73
     1
 74
     1
 75
     0
 76
     0
 77
     0
 78
     7
170
     0
171
     2
172
     0
173
     0
174
     0
175
     0
176
   256
177
   256
178
     2
  0
DIMSTYLE
  2
AM_ANSI$3
 70
     0
  3

  4
mm
  5

  6

  7

 40
1.0
 41
0.12
 42
0.05
 43
0.5
 44
0.1
 45
0.0
 46
0.0
 47
0.1
 48
0.1
140
0.12
141
0.0
142
0.0
143
25.399999999999999
144
1.0
145
0.0
146
0.71
147
0.06
 71
     0
 72
     0
 73
     1
 74
     1
 75
     0
 76
     0
 77
     0
 78
     7
170
     0
171
     2
172
     0
173
     0
174
     0
175
     0
176
   256
177
   256
178
     2
  0
DIMSTYLE
  2
AM_ANSI$4
 70
     0
  3

  4
mm
  5

  6

  7

 40
1.0
 41
0.12
 42
0.05
 43
0.5
 44
0.1
 45
0.0
 46
0.0
 47
0.1
 48
0.1
140
0.12
141
0.0
142
0.0
143
25.399999999999999
144
1.0
145
0.0
146
0.71
147
0.06
 71
     0
 72
     0
 73
     1
 74
     1
 75
     0
 76
     0
 77
     0
 78
     7
170
     0
171
     2
172
     0
173
     0
174
     0
175
     0
176
   256
177
   256
178
     2
  0
DIMSTYLE
  2
AM_ANSI$7
 70
     0
  3

  4
mm
  5

  6

  7

 40
1.0
 41
0.12
 42
0.05
 43
0.5
 44
0.1
 45
0.0
 46
0.0
 47
0.1
 48
0.1
140
0.12
141
0.0
142
0.0
143
25.399999999999999
144
1.0
145
0.0
146
0.71
147
0.06
 71
     0
 72
     0
 73
     1
 74
     1
 75
     0
 76
     0
 77
     0
 78
     7
170
     0
171
     2
172
     0
173
     0
174
     0
175
     0
176
   256
177
   256
178
     2
  0
DIMSTYLE
  2
AM_ANSI$SF
 70
     0
  3

  4
mm
  5

  6

  7

 40
1.0
 41
0.12
 42
0.05
 43
0.5
 44
0.1
 45
0.0
 46
0.0
 47
0.1
 48
0.1
140
0.12
141
0.0
142
0.0
143
25.399999999999999
144
1.0
145
0.0
146
0.71
147
0.06
 71
     0
 72
     0
 73
     1
 74
     1
 75
     1
 76
     1
 77
     0
 78
     7
170
     0
171
     2
172
     0
173
     0
174
     0
175
     0
176
   256
177
   256
178
     2
  0
DIMSTYLE
  2
AM_ANSI$SH
 70
     0
  3

  4
mm
  5

  6

  7

 40
1.0
 41
0.12
 42
0.05
 43
0.5
 44
0.1
 45
0.0
 46
0.0
 47
0.1
 48
0.1
140
0.12
141
0.0
142
0.0
143
25.399999999999999
144
1.0
145
0.0
146
0.71
147
0.06
 71
     0
 72
     0
 73
     1
 74
     1
 75
     1
 76
     1
 77
     0
 78
     7
170
     0
171
     2
172
     0
173
     1
174
     0
175
     0
176
   256
177
   256
178
     2
  0
ENDTAB
  0
ENDSEC
  0
SECTION
  2
BLOCKS
  0
BLOCK
  8
0
  2
$MODEL_SPACE
 70
     0
 10
0.0
 20
0.0
 30
0.0
  3
$MODEL_SPACE
  1

  0
ENDBLK
  5
1C
  8
0
  0
BLOCK
 67
     1
  8
0
  2
$PAPER_SPACE
 70
     0
 10
0.0
 20
0.0
 30
0.0
  3
$PAPER_SPACE
  1

  0
ENDBLK
  5
19
 67
     1
  8
0
  0
BLOCK
  8
0
  2
_OPEN
 70
     0
 10
0.0
 20
0.0
 30
0.0
  3
_OPEN
  1

  0
LINE
  5
B58
  8
0
  6
BYBLOCK
 62
     0
 10
-1.0
 20
0.1666666666666666
 30
0.0
 11
0.0
 21
0.0
 31
0.0
  0
LINE
  5
B59
  8
0
  6
BYBLOCK
 62
     0
 10
-1.0
 20
-0.1666666666666666
 30
0.0
 11
0.0
 21
0.0
 31
0.0
  0
LINE
  5
B5A
  8
0
  6
BYBLOCK
 62
     0
 10
0.0
 20
0.0
 30
0.0
 11
-1.0
 21
0.0
 31
0.0
  0
ENDBLK
  5
B5B
  8
0
  0
BLOCK
  8
0
  2
矢印なし
 70
     0
 10
0.0
 20
0.0
 30
0.0
  3
矢印なし
  1

  0
ENDBLK
  5
6E5
  8
0
  0
BLOCK
  8
0
  2
1
 70
     0
 10
0.0
 20
0.0
 30
0.0
  3
1
  1

  0
LINE
  5
A45
  8
240
  6
CONTINUOUS
 10
-80.700000000000003
 20
-9.5500000000000007
 30
0.0
 11
4.0292625600000003
 21
-12.03045704
 31
0.0
  0
LINE
  5
A46
  8
240
  6
CONTINUOUS
 10
-80.700000000000003
 20
9.5500000000000007
 30
0.0
 11
4.0292625600000003
 21
12.03045704
 31
0.0
  0
LINE
  5
A47
  8
245
  6
CENTER2
 10
-95.0
 20
0.0
 30
0.0
 11
65.0
 21
0.0
 31
0.0
  0
ARC
  5
A48
  8
241
  6
CONTINUOUS
 10
-81.0
 20
-1.6706409900000001
 30
0.0
 40
6.9999999999999973
 50
272.45628571999998
 51
0.0
  0
ARC
  5
A49
  8
241
  6
CONTINUOUS
 10
-81.0
 20
1.6706409900000001
 30
0.0
 40
7.0
 50
0.0
 51
87.543714280000003
  0
LINE
  5
A4A
  8
240
  6
CONTINUOUS
 10
-94.0
 20
-3.9500000000000002
 30
0.0
 11
-94.0
 21
3.9500000000000002
 31
0.0
  0
LINE
  5
A4B
  8
241
  6
CONTINUOUS
 10
-93.215519029999996
 20
6.8315713399999991
 30
0.0
 11
-94.0
 21
0.0
 31
0.0
  0
LINE
  5
A4C
  8
240
  6
CONTINUOUS
 10
-91.497411900000003
 20
-9.25
 30
0.0
 11
-81.0
 21
-9.25
 31
0.0
  0
LINE
  5
A4D
  8
241
  6
CONTINUOUS
 10
-91.496813619999998
 20
-8.3642094700000005
 30
0.0
 11
-81.0
 21
-8.3642094700000005
 31
0.0
  0
LINE
  5
A4E
  8
240
  6
CONTINUOUS
 10
-93.476463480000007
 20
-7.5387124000000014
 30
0.0
 11
-94.0
 21
-3.9500000000000002
 31
0.0
  0
LINE
  5
A4F
  8
241
  6
CONTINUOUS
 10
-93.215519029999996
 20
-6.8315713399999991
 30
0.0
 11
-94.0
 21
0.0
 31
0.0
  0
ARC
  5
A50
  8
240
  6
CONTINUOUS
 10
-91.497411900000003
 20
-7.25
 30
0.0
 40
2.0000000000000022
 50
188.30000000000001
 51
270.0
  0
ARC
  5
A51
  8
241
  6
CONTINUOUS
 10
-91.496813619999998
 20
-6.6342094700000001
 30
0.0
 40
1.7300000000012901
 50
186.55067937000001
 51
270.0
  0
LINE
  5
A52
  8
241
  6
CONTINUOUS
 10
-81.0
 20
-9.25
 30
0.0
 11
-81.0
 21
-8.3642094700000005
 31
0.0
  0
LINE
  5
A53
  8
240
  6
CONTINUOUS
 10
-80.700000000000003
 20
-9.5500000000000007
 30
0.0
 11
-81.0
 21
-9.25
 31
0.0
  0
LINE
  5
A54
  8
241
  6
CONTINUOUS
 10
-81.0
 20
-8.3642094700000005
 30
0.0
 11
-80.700000000000003
 21
-8.6642094699999994
 31
0.0
  0
LINE
  5
A55
  8
240
  6
CONTINUOUS
 10
-91.497411900000003
 20
9.25
 30
0.0
 11
-81.0
 21
9.25
 31
0.0
  0
LINE
  5
A56
  8
241
  6
CONTINUOUS
 10
-91.496813619999998
 20
8.3642094700000005
 30
0.0
 11
-81.0
 21
8.3642094700000005
 31
0.0
  0
ARC
  5
A57
  8
240
  6
CONTINUOUS
 10
-91.497411900000003
 20
7.25
 30
0.0
 40
2.0
 50
90.0
 51
171.69999999999999
  0
ARC
  5
A58
  8
241
  6
CONTINUOUS
 10
-91.496813619999998
 20
6.6342094700000001
 30
0.0
 40
1.729999999999986
 50
90.0
 51
173.4493206299999
  0
LINE
  5
A59
  8
240
  6
CONTINUOUS
 10
-93.476463480000007
 20
7.5387124000000014
 30
0.0
 11
-94.0
 21
3.9500000000000002
 31
0.0
  0
LINE
  5
A5A
  8
241
  6
CONTINUOUS
 10
-81.0
 20
8.3642094700000005
 30
0.0
 11
-80.700000000000003
 21
8.6642094699999994
 31
0.0
  0
LINE
  5
A5B
  8
241
  6
CONTINUOUS
 10
-81.0
 20
8.3642094700000005
 30
0.0
 11
-81.0
 21
9.25
 31
0.0
  0
LINE
  5
A5C
  8
240
  6
CONTINUOUS
 10
-80.700000000000003
 20
9.5500000000000007
 30
0.0
 11
-81.0
 21
9.25
 31
0.0
  0
LINE
  5
A5D
  8
5
  6
CENTER2
 10
0.0
 20
12.9125
 30
0.0
 11
0.0
 21
-12.9125
 31
0.0
  0
LINE
  5
A5E
  8
241
  6
CONTINUOUS
 10
-74.0
 20
-1.6706409900000001
 30
0.0
 11
-74.0
 21
1.6706409900000001
 31
0.0
  0
LINE
  5
A5F
  8
241
 10
5.0
 20
-13.0300288
 30
0.0
 11
5.0
 21
0.0
 31
0.0
  0
LINE
  5
A60
  8
240
  6
CONTINUOUS
 10
64.0
 20
-15.5
 30
0.0
 11
64.0
 21
0.0
 31
0.0
  0
LINE
  5
A61
  8
240
  6
CONTINUOUS
 10
64.0
 20
-15.5
 30
0.0
 11
5.0
 21
-15.5
 31
0.0
  0
LINE
  5
A62
  8
240
 10
5.0
 20
-13.0300288
 30
0.0
 11
5.0
 21
-15.5
 31
0.0
  0
ARC
  5
A63
  8
240
 10
4.0
 20
-13.0300288
 30
0.0
 40
1.0
 50
0.0
 51
88.323139659999995
  0
LINE
  5
A64
  8
240
  6
CONTINUOUS
 10
64.0
 20
15.5
 30
0.0
 11
5.0
 21
15.5
 31
0.0
  0
LINE
  5
A65
  8
241
  6
HIDDEN2
 10
41.950000000000003
 20
7.9666737899999989
 30
0.0
 11
37.350438740000001
 21
0.0
 31
0.0
  0
LINE
  5
A66
  8
240
 10
5.0
 20
15.5
 30
0.0
 11
5.0
 21
13.0300288
 31
0.0
  0
LINE
  5
A67
  8
241
 10
5.0
 20
13.0300288
 30
0.0
 11
5.0
 21
0.0
 31
0.0
  0
ARC
  5
A68
  8
240
  6
CONTINUOUS
 10
4.0
 20
13.0300288
 30
0.0
 40
1.0
 50
271.67686034000002
 51
0.0
  0
LINE
  5
A69
  8
240
  6
CONTINUOUS
 10
64.0
 20
15.5
 30
0.0
 11
64.0
 21
0.0
 31
0.0
  0
LINE
  5
A6A
  8
241
  6
HIDDEN2
 10
41.950000000000003
 20
9.0
 30
0.0
 11
64.0
 21
9.0
 31
0.0
  0
LINE
  5
A6B
  8
241
  6
HIDDEN2
 10
41.950000000000003
 20
9.0
 30
0.0
 11
41.950000000000003
 21
0.0
 31
0.0
  0
LINE
  5
A6C
  8
245
  6
CENTER2
 10
55.950000000000003
 20
4.0999999999999988
 30
0.0
 11
55.950000000000003
 21
-4.0999999999999988
 31
0.0
  0
CIRCLE
  5
A6D
  8
242
 10
55.950000000000003
 20
0.0
 30
0.0
 40
2.649999999999999
  0
CIRCLE
  5
A6E
  8
241
 10
55.950000000000003
 20
0.0
 30
0.0
 40
3.1000000000000001
  0
POLYLINE
  5
A6F
  8
241
 66
     1
 10
0.0
 20
0.0
 30
0.0
 70
     1
  0
VERTEX
  5
A70
  8
241
 10
54.450000000000003
 20
-0.8660254
 30
0.0
  0
VERTEX
  5
A71
  8
241
 10
55.950000000000003
 20
-1.7320508100000001
 30
0.0
  0
VERTEX
  5
A72
  8
241
 10
57.450000000000003
 20
-0.8660254
 30
0.0
  0
VERTEX
  5
A73
  8
241
 10
57.450000000000003
 20
0.8660254
 30
0.0
  0
VERTEX
  5
A74
  8
241
 10
55.950000000000003
 20
1.7320508100000001
 30
0.0
  0
VERTEX
  5
A75
  8
241
 10
54.450000000000003
 20
0.8660254
 30
0.0
  0
SEQEND
  5
A76
  8
241
  0
ENDBLK
  5
7A2
  8
0
  0
BLOCK
  8
0
  2
*D3
 70
     1
 10
0.0
 20
0.0
 30
0.0
  3
*D3
  1

  0
LINE
  5
A21
  8
250
  6
CONTINUOUS
 10
0.0
 20
13.4125
 30
0.0
 11
0.0
 21
29.0
 31
0.0
  0
LINE
  5
A22
  8
250
  6
CONTINUOUS
 10
64.0
 20
16.0
 30
0.0
 11
64.0
 21
29.0
 31
0.0
  0
LINE
  5
A23
  8
250
  6
CONTINUOUS
 10
2.2299999999999991
 20
28.0
 30
0.0
 11
61.770000000000003
 21
28.0
 31
0.0
  0
INSERT
  5
A24
  8
250
  6
CONTINUOUS
  2
_OPEN
 10
0.0
 20
28.0
 30
0.0
 41
2.2299999999999991
 42
2.2299999999999991
 43
2.2299999999999991
 50
180.0
  0
INSERT
  5
A25
  8
250
  6
CONTINUOUS
  2
_OPEN
 10
64.0
 20
28.0
 30
0.0
 41
2.2299999999999991
 42
2.2299999999999991
 43
2.2299999999999991
  0
INSERT
  5
A26
  8
240
  2
*U14
 10
0.0
 20
0.0
 30
0.0
  0
POINT
  5
A27
  8
DEFPOINTS
  6
CONTINUOUS
 62
     0
 10
0.0
 20
12.9125
 30
0.0
  0
POINT
  5
A28
  8
DEFPOINTS
  6
CONTINUOUS
 62
     0
 10
64.0
 20
15.5
 30
0.0
  0
POINT
  5
A29
  8
DEFPOINTS
  6
CONTINUOUS
 62
     0
 10
64.0
 20
28.0
 30
0.0
  0
ENDBLK
  5
7E2
  8
0
  0
BLOCK
  8
0
  2
*D4
 70
     1
 10
0.0
 20
0.0
 30
0.0
  3
*D4
  1

  0
LINE
  5
A18
  8
250
  6
CONTINUOUS
 10
64.5
 20
-15.5
 30
0.0
 11
75.142929510000002
 21
-15.5
 31
0.0
  0
LINE
  5
A19
  8
250
  6
CONTINUOUS
 10
64.5
 20
15.5
 30
0.0
 11
75.142929510000002
 21
15.5
 31
0.0
  0
LINE
  5
A1A
  8
250
  6
CONTINUOUS
 10
74.142929510000002
 20
-13.27
 30
0.0
 11
74.142929510000002
 21
13.27
 31
0.0
  0
INSERT
  5
A1B
  8
250
  6
CONTINUOUS
  2
_OPEN
 10
74.142929510000002
 20
-15.5
 30
0.0
 41
2.2299999999999991
 42
2.2299999999999991
 43
2.2299999999999991
 50
270.0
  0
INSERT
  5
A1C
  8
250
  6
CONTINUOUS
  2
_OPEN
 10
74.142929510000002
 20
15.5
 30
0.0
 41
2.2299999999999991
 42
2.2299999999999991
 43
2.2299999999999991
 50
90.0
  0
INSERT
  5
A1D
  8
240
  2
*U13
 10
0.0
 20
0.0
 30
0.0
  0
POINT
  5
A1E
  8
DEFPOINTS
  6
CONTINUOUS
 62
     0
 10
64.0
 20
-15.5
 30
0.0
  0
POINT
  5
A1F
  8
DEFPOINTS
  6
CONTINUOUS
 62
     0
 10
64.0
 20
15.5
 30
0.0
  0
POINT
  5
A20
  8
DEFPOINTS
  6
CONTINUOUS
 62
     0
 10
74.142929510000002
 20
15.5
 30
0.0
  0
ENDBLK
  5
A17
  8
0
  0
BLOCK
  8
0
  2
_ACMOPEN15
 70
     0
 10
0.0
 20
0.0
 30
0.0
  3
_ACMOPEN15
  1

  0
LINE
  5
B3A
  8
241
 62
     0
 10
-1.0
 20
0.0
 30
0.0
 11
0.0
 21
0.0
 31
0.0
  0
LINE
  5
B3C
  8
241
 62
     0
 10
-1.0
 20
-0.131652497
 30
0.0
 11
0.0
 21
0.0
 31
0.0
  0
LINE
  5
B3D
  8
241
 62
     0
 10
0.0
 20
0.0
 30
0.0
 11
-1.0
 21
0.131652497
 31
0.0
  0
ENDBLK
  5
B3E
  8
0
  0
BLOCK
  8
0
  2
_ACMFILLED15
 70
     0
 10
0.0
 20
0.0
 30
0.0
  3
_ACMFILLED15
  1

  0
TRACE
  5
B7B
  8
241
 62
     0
 10
-1.0
 20
-0.131652497
 30
0.0
 11
-1.0
 21
0.131652497
 31
0.0
 12
0.0
 22
0.0
 32
0.0
 13
0.0
 23
0.0
 33
0.0
  0
ENDBLK
  5
B7C
  8
0
  0
BLOCK
  8
0
  2
GENAXEH
 70
     0
 10
0.0
 20
0.0
 30
0.0
  3
GENAXEH
  1

  0
LINE
  5
B93
  8
0
 10
-1.0
 20
0.0
 30
0.0
 11
1.0
 21
0.0
 31
0.0
  0
ENDBLK
  5
B94
  8
0
  0
BLOCK
  8
0
  2
_OPEN30
 70
     0
 10
0.0
 20
0.0
 30
0.0
  3
_OPEN30
  1

  0
LINE
  5
BCF
  8
0
  6
BYBLOCK
 62
     0
 10
-1.0
 20
0.26794919
 30
0.0
 11
0.0
 21
0.0
 31
0.0
  0
LINE
  5
BD0
  8
0
  6
BYBLOCK
 62
     0
 10
0.0
 20
0.0
 30
0.0
 11
-1.0
 21
-0.26794919
 31
0.0
  0
LINE
  5
BD1
  8
0
  6
BYBLOCK
 62
     0
 10
0.0
 20
0.0
 30
0.0
 11
-1.0
 21
0.0
 31
0.0
  0
ENDBLK
  5
BD2
  8
0
  0
BLOCK
  8
0
  2
_ACMFILLEDHALF
 70
     0
 10
0.0
 20
0.0
 30
0.0
  3
_ACMFILLEDHALF
  1

  0
TRACE
  5
C37
  8
240
 62
     0
 10
-0.8
 20
0.0
 30
0.0
 11
-1.0
 21
0.166666666
 31
0.0
 12
0.0
 22
0.0
 32
0.0
 13
0.0
 23
0.0
 33
0.0
  0
LINE
  5
C38
  8
240
 62
     0
 10
-1.0
 20
0.0
 30
0.0
 11
-0.8
 21
0.0
 31
0.0
  0
ENDBLK
  5
C39
  8
0
  0
BLOCK
  8
0
  2
*U13
 70
     1
 10
0.0
 20
0.0
 30
0.0
  3
*U13
  1

  0
TEXT
  5
D45
  8
250
 62
    40
 10
73.142929509999973
 20
-3.5333333333333319
 30
0.0
 40
2.7999999999999989
  1
\U+220531
 50
90.0
  0
ENDBLK
  5
D47
  8
0
  0
BLOCK
  8
0
  2
*U14
 70
     1
 10
0.0
 20
0.0
 30
0.0
  3
*U14
  1

  0
TEXT
  5
D49
  8
250
 62
    40
 10
30.95000000000001
 20
29.0
 30
0.0
 40
2.7999999999999989
  1
64
  0
ENDBLK
  5
D4B
  8
0
  0
ENDSEC
  0
SECTION
  2
ENTITIES
  0
INSERT
  5
6E6
  8
245
  2
矢印なし
 10
175.62382697000001
 20
90.551235719999994
 30
0.0
  0
LINE
  5
7D2
  8
250
  6
CONTINUOUS
 10
-65.991349800000009
 20
-20.978308999999999
 30
0.0
 11
-78.658016459999999
 21
-20.978308999999999
 31
0.0
1001
ITEMNAME
1000
LNSP2
  0
TEXT
  5
7D3
  8
241
  6
CONTINUOUS
 10
-94.0
 20
42.0
 30
0.0
 40
5.0
  1
MT3-CKB3-64
  7
YOKO
 11
-94.0
 21
42.0
 31
0.0
 73
     1
  0
LINE
  5
C01
  8
240
  6
CONTINUOUS
 10
-80.700000000000003
 20
-9.5500000000000007
 30
0.0
 11
4.0292625600000003
 21
-12.03045704
 31
0.0
  0
LINE
  5
C02
  8
240
  6
CONTINUOUS
 10
-80.700000000000003
 20
9.5500000000000007
 30
0.0
 11
4.0292625600000003
 21
12.03045704
 31
0.0
  0
LINE
  5
C03
  8
245
  6
CENTER2
 10
-95.0
 20
0.0
 30
0.0
 11
65.0
 21
0.0
 31
0.0
  0
ARC
  5
C04
  8
241
  6
CONTINUOUS
 10
-81.0
 20
-1.6706409900000001
 30
0.0
 40
6.9999999999999973
 50
272.45628571999998
 51
0.0
  0
ARC
  5
C05
  8
241
  6
CONTINUOUS
 10
-81.0
 20
1.6706409900000001
 30
0.0
 40
7.0
 50
0.0
 51
87.543714280000003
  0
LINE
  5
C06
  8
240
  6
CONTINUOUS
 10
-94.0
 20
-3.9500000000000002
 30
0.0
 11
-94.0
 21
3.9500000000000002
 31
0.0
  0
LINE
  5
C07
  8
241
  6
CONTINUOUS
 10
-93.215519029999996
 20
6.8315713399999991
 30
0.0
 11
-94.0
 21
0.0
 31
0.0
  0
LINE
  5
C08
  8
240
  6
CONTINUOUS
 10
-91.497411900000003
 20
-9.25
 30
0.0
 11
-81.0
 21
-9.25
 31
0.0
  0
LINE
  5
C09
  8
241
  6
CONTINUOUS
 10
-91.496813619999998
 20
-8.3642094700000005
 30
0.0
 11
-81.0
 21
-8.3642094700000005
 31
0.0
  0
LINE
  5
C0A
  8
240
  6
CONTINUOUS
 10
-93.476463480000007
 20
-7.5387124000000014
 30
0.0
 11
-94.0
 21
-3.9500000000000002
 31
0.0
  0
LINE
  5
C0B
  8
241
  6
CONTINUOUS
 10
-93.215519029999996
 20
-6.8315713399999991
 30
0.0
 11
-94.0
 21
0.0
 31
0.0
  0
ARC
  5
C0C
  8
240
  6
CONTINUOUS
 10
-91.497411900000003
 20
-7.25
 30
0.0
 40
2.0000000000000022
 50
188.30000000000001
 51
270.0
  0
ARC
  5
C0D
  8
241
  6
CONTINUOUS
 10
-91.496813619999998
 20
-6.6342094700000001
 30
0.0
 40
1.7300000000012901
 50
186.55067937000001
 51
270.0
  0
LINE
  5
C0E
  8
241
  6
CONTINUOUS
 10
-81.0
 20
-9.25
 30
0.0
 11
-81.0
 21
-8.3642094700000005
 31
0.0
  0
LINE
  5
C0F
  8
240
  6
CONTINUOUS
 10
-80.700000000000003
 20
-9.5500000000000007
 30
0.0
 11
-81.0
 21
-9.25
 31
0.0
  0
LINE
  5
C10
  8
241
  6
CONTINUOUS
 10
-81.0
 20
-8.3642094700000005
 30
0.0
 11
-80.700000000000003
 21
-8.6642094699999994
 31
0.0
  0
LINE
  5
C11
  8
240
  6
CONTINUOUS
 10
-91.497411900000003
 20
9.25
 30
0.0
 11
-81.0
 21
9.25
 31
0.0
  0
LINE
  5
C12
  8
241
  6
CONTINUOUS
 10
-91.496813619999998
 20
8.3642094700000005
 30
0.0
 11
-81.0
 21
8.3642094700000005
 31
0.0
  0
ARC
  5
C13
  8
240
  6
CONTINUOUS
 10
-91.497411900000003
 20
7.25
 30
0.0
 40
2.0
 50
90.0
 51
171.69999999999999
  0
ARC
  5
C14
  8
241
  6
CONTINUOUS
 10
-91.496813619999998
 20
6.6342094700000001
 30
0.0
 40
1.729999999999986
 50
90.0
 51
173.4493206299999
  0
LINE
  5
C15
  8
240
  6
CONTINUOUS
 10
-93.476463480000007
 20
7.5387124000000014
 30
0.0
 11
-94.0
 21
3.9500000000000002
 31
0.0
  0
LINE
  5
C16
  8
241
  6
CONTINUOUS
 10
-81.0
 20
8.3642094700000005
 30
0.0
 11
-80.700000000000003
 21
8.6642094699999994
 31
0.0
  0
LINE
  5
C17
  8
241
  6
CONTINUOUS
 10
-81.0
 20
8.3642094700000005
 30
0.0
 11
-81.0
 21
9.25
 31
0.0
  0
LINE
  5
C18
  8
240
  6
CONTINUOUS
 10
-80.700000000000003
 20
9.5500000000000007
 30
0.0
 11
-81.0
 21
9.25
 31
0.0
  0
LINE
  5
C19
  8
5
  6
CENTER2
 10
0.0
 20
12.9125
 30
0.0
 11
0.0
 21
-12.9125
 31
0.0
  0
LINE
  5
C1A
  8
241
  6
CONTINUOUS
 10
-74.0
 20
-1.6706409900000001
 30
0.0
 11
-74.0
 21
1.6706409900000001
 31
0.0
  0
LINE
  5
C1B
  8
241
  6
CONTINUOUS
 10
5.0
 20
-13.0300288
 30
0.0
 11
5.0
 21
13.0300288
 31
0.0
  0
LINE
  5
C1C
  8
240
  6
CONTINUOUS
 10
64.0
 20
-15.5
 30
0.0
 11
64.0
 21
15.5
 31
0.0
  0
LINE
  5
C1D
  8
240
  6
CONTINUOUS
 10
64.0
 20
-15.5
 30
0.0
 11
5.0
 21
-15.5
 31
0.0
  0
LINE
  5
C1E
  8
240
  6
CONTINUOUS
 10
5.0
 20
-13.0300288
 30
0.0
 11
5.0
 21
-15.5
 31
0.0
  0
ARC
  5
C1F
  8
240
  6
CONTINUOUS
 10
4.0
 20
-13.0300288
 30
0.0
 40
1.0
 50
0.0
 51
88.323139659999995
  0
LINE
  5
C20
  8
240
  6
CONTINUOUS
 10
64.0
 20
15.5
 30
0.0
 11
5.0
 21
15.5
 31
0.0
  0
LINE
  5
C22
  8
240
  6
CONTINUOUS
 10
5.0
 20
15.5
 30
0.0
 11
5.0
 21
13.0300288
 31
0.0
  0
ARC
  5
C24
  8
240
  6
CONTINUOUS
 10
4.0
 20
13.0300288
 30
0.0
 40
1.0
 50
271.67686034000002
 51
0.0
  0
LINE
  5
CA1
  8
243
  6
HIDDEN2
 10
41.950000000000017
 20
8.9999999999999716
 30
0.0
 11
64.0
 21
8.9999999999999716
 31
0.0
  0
LINE
  5
CA2
  8
243
  6
HIDDEN2
 10
41.950000000000038
 20
-8.9999999999999805
 30
0.0
 11
64.000000000000014
 21
-8.9999999999999432
 31
0.0
  0
LINE
  5
CA3
  8
250
  6
CONTINUOUS
 10
68.468903629999204
 20
27.319659560000019
 30
0.0
 11
81.535570299999208
 21
27.319659560000019
 31
0.0
1001
ITEMNAME
1000
LNSP2
  0
CIRCLE
  5
CAC
  8
242
  6
CONTINUOUS
 10
55.999999999999218
 20
0.0
 30
0.0
 40
2.649999999999999
  0
CIRCLE
  5
CAD
  8
241
  6
CONTINUOUS
 10
55.999999999999218
 20
0.0
 30
0.0
 40
3.1000000000000001
  0
LINE
  5
CAE
  8
245
  6
CENTER2
 10
55.999999999999218
 20
4.0999999999999961
 30
0.0
 11
55.999999999999218
 21
-4.0999999999999961
 31
0.0
  0
TEXT
  5
CB3
  8
250
  6
CONTINUOUS
 10
70.86890362999921
 20
28.319659560000009
 30
0.0
 40
2.799999999999998
  1
CK3
  7
YOKO
1001
ITEMNAME
1000
LNSP3
1001
ACAD
1000
MTEXTBEGIN
1070
    73
1070
     1
1070
    44
1040
1.0
1070
    74
1070
     0
1000
MTEXTEND
1000
MTEXTBEGIN
1070
    73
1070
     1
1070
    44
1040
1.0
1070
    74
1070
     0
1000
MTEXTEND
  0
LINE
  5
CB4
  8
250
  6
CONTINUOUS
 10
64.499999999999218
 20
-15.5
 30
0.0
 11
74.999999999999204
 21
-15.5
 31
0.0
  0
LINE
  5
CB5
  8
250
  6
CONTINUOUS
 10
64.499999999999218
 20
15.5
 30
0.0
 11
74.999999999999204
 21
15.5
 31
0.0
  0
LINE
  5
CB6
  8
250
  6
CONTINUOUS
 10
73.999999999999218
 20
-13.27
 30
0.0
 11
73.999999999999218
 21
13.27
 31
0.0
  0
TEXT
  5
CB7
  8
250
  6
CONTINUOUS
 10
72.999999999999218
 20
-3.533333333333331
 30
0.0
 40
2.799999999999998
  1
\U+220531
 50
90.0
1001
ACAD
1000
MTEXTBEGIN
1070
    73
1070
     1
1070
    44
1040
1.0
1070
    74
1070
     0
1000
MTEXTEND
  0
LINE
  5
CB8
  8
250
  6
CONTINUOUS
 10
73.628333333332534
 20
13.27
 30
0.0
 11
73.999999999999218
 21
15.5
 31
0.0
  0
LINE
  5
CB9
  8
250
  6
CONTINUOUS
 10
74.371666666665874
 20
13.27
 30
0.0
 11
73.999999999999218
 21
15.5
 31
0.0
  0
LINE
  5
CBA
  8
250
  6
CONTINUOUS
 10
73.999999999999218
 20
15.5
 30
0.0
 11
73.999999999999218
 21
13.27
 31
0.0
  0
LINE
  5
CBB
  8
250
  6
CONTINUOUS
 10
74.371666666665874
 20
-13.27
 30
0.0
 11
73.999999999999218
 21
-15.5
 31
0.0
  0
LINE
  5
CBC
  8
250
  6
CONTINUOUS
 10
73.628333333332534
 20
-13.27
 30
0.0
 11
73.999999999999218
 21
-15.5
 31
0.0
  0
LINE
  5
CBD
  8
250
  6
CONTINUOUS
 10
73.999999999999218
 20
-15.5
 30
0.0
 11
73.999999999999218
 21
-13.27
 31
0.0
  0
LINE
  5
CBE
  8
250
  6
CONTINUOUS
 10
62.933495143730291
 20
17.065384141613279
 30
0.0
 11
61.644820009999208
 21
15.500000000000011
 31
0.0
  0
LINE
  5
CBF
  8
250
  6
CONTINUOUS
 10
62.356144874356751
 20
17.39871747462804
 30
0.0
 11
61.644820009999208
 21
15.500000000000011
 31
0.0
  0
LINE
  5
CC0
  8
250
  6
CONTINUOUS
 10
61.644820009999208
 20
15.500000000000011
 30
0.0
 11
62.644820009043507
 21
17.232050808120661
 31
0.0
  0
LINE
  5
CDF
  8
247
  6
CONTINUOUS
 10
9.1947407522159779
 20
-9.0108263057649083
 30
0.0
 11
9.1947407522160347
 21
-4.376210921434903
 31
0.0
  0
LINE
  5
CE0
  8
247
  6
CONTINUOUS
 10
6.6947407522160338
 20
-8.2157198057528262
 30
0.0
 11
8.7947407521320429
 21
-8.8178851158222642
 31
0.0
  0
LINE
  5
CE1
  8
247
  6
CONTINUOUS
 10
7.6908945983300319
 20
-7.5859777092839522
 30
0.0
 11
7.6908945983300319
 21
-8.5013623246319412
 31
0.0
  0
ARC
  5
CE2
  8
247
  6
CONTINUOUS
 10
7.0794598195101344
 20
-7.3480897077116651
 30
0.0
 40
0.3876715809326743
 50
72.997889675293067
 51
172.92416621851351
  0
ARC
  5
CE3
  8
247
  6
CONTINUOUS
 10
6.9999638832440487
 20
-7.6433038625689838
 30
0.0
 40
0.6933047965358766
 50
4.7429368522022122
 51
73.849226273266353
1001
GENIUS_GENOBJ-N-FIL_13
1002
{
1000
OWNER
1000
GEN
1002
}
1001
GENIUS_GENODEF_13
1002
{
1000
HIER
1070
     0
1002
}
1002
{
1000
MANEDIT
1070
     0
1002
}
1002
{
1000
NOSEL
1070
     0
1002
}
1002
{
1000
BEHIND
1070
     0
1002
}
1002
{
1000
OTHER
1070
     0
1002
}
1002
{
1000
REACTOR
1002
}
  0
LINE
  5
CE4
  8
247
  6
CONTINUOUS
 10
8.7947407521320429
 20
-7.9025005004742752
 30
0.0
 11
8.7947407521320429
 21
-8.8178851158222642
 31
0.0
  0
LINE
  5
CE5
  8
247
  6
CONTINUOUS
 10
6.6947407522160338
 20
-8.2157198057528262
 30
0.0
 11
6.6947407522160338
 21
-7.3003351904048372
 31
0.0
  0
ARC
  5
CE6
  8
247
  6
CONTINUOUS
 10
8.0821577149839072
 20
-7.6391327820317079
 30
0.0
 40
0.394857301075386
 50
65.990941652528917
 51
172.26344345906909
  0
ARC
  5
CE7
  8
247
  6
CONTINUOUS
 10
8.0859410795486042
 20
-7.9732729161918314
 30
0.0
 40
0.7123241612361686
 50
5.701985164256504
 51
77.277338436822333
1001
GENIUS_GENOBJ-N-FIL_13
1002
{
1000
OWNER
1000
GEN
1002
}
1001
GENIUS_GENODEF_13
1002
{
1000
HIER
1070
     0
1002
}
1002
{
1000
MANEDIT
1070
     0
1002
}
1002
{
1000
NOSEL
1070
     0
1002
}
1002
{
1000
BEHIND
1070
     0
1002
}
1002
{
1000
OTHER
1070
     0
1002
}
1002
{
1000
REACTOR
1002
}
  0
LINE
  5
CE8
  8
247
  6
CONTINUOUS
 10
8.7947407521320429
 20
-6.9448081928282468
 30
0.0
 11
6.6947407522160338
 21
-6.3426428827588657
 31
0.0
  0
LINE
  5
CE9
  8
247
  6
CONTINUOUS
 10
6.6947407522160338
 20
-4.8464890366728346
 30
0.0
 11
6.6947407522160338
 21
-5.2425046700684561
 31
0.0
  0
LINE
  5
CEA
  8
247
  6
CONTINUOUS
 10
8.7947407521320429
 20
-5.8695659597088357
 30
0.0
 11
8.7947407521320429
 21
-5.4387967289568451
 31
0.0
  0
ARC
  5
CEB
  8
247
  6
CONTINUOUS
 10
8.1530403472993953
 20
-4.6426428828348199
 30
0.0
 40
1.5768550576395479
 50
202.3594881415294
 51
254.9932485428464
  0
ARC
  5
CEC
  8
247
  6
CONTINUOUS
 10
7.2605596107541706
 20
-5.1083376718980844
 30
0.0
 40
0.6234706797009447
 50
94.994589319075274
 51
155.16632895730399
1001
GENIUS_GENOBJ-N-FIL_13
1002
{
1000
OWNER
1000
GEN
1002
}
1001
GENIUS_GENODEF_13
1002
{
1000
HIER
1070
     0
1002
}
1002
{
1000
MANEDIT
1070
     0
1002
}
1002
{
1000
NOSEL
1070
     0
1002
}
1002
{
1000
BEHIND
1070
     0
1002
}
1002
{
1000
OTHER
1070
     0
1002
}
1002
{
1000
REACTOR
1002
}
  0
ARC
  5
CED
  8
247
  6
CONTINUOUS
 10
7.8568428741854737
 20
-5.7050102567976628
 30
0.0
 40
0.9749472149106983
 50
15.84609655578071
 51
82.325137004169108
  0
ARC
  5
CEE
  8
247
  6
CONTINUOUS
 10
8.0662111541871013
 20
-5.2960379445370904
 30
0.0
 40
0.9271945638692009
 50
249.7136016704969
 51
321.78874565641092
1001
GENIUS_GENOBJ-N-FIL_13
1002
{
1000
OWNER
1000
GEN
1002
}
1001
GENIUS_GENODEF_13
1002
{
1000
HIER
1070
     0
1002
}
1002
{
1000
MANEDIT
1070
     0
1002
}
1002
{
1000
NOSEL
1070
     0
1002
}
1002
{
1000
BEHIND
1070
     0
1002
}
1002
{
1000
OTHER
1070
     0
1002
}
1002
{
1000
REACTOR
1002
}
  0
LINE
  5
CEF
  8
247
  6
CONTINUOUS
 10
7.9870484444720091
 20
-5.22341211358082
 30
0.0
 11
7.9870484444720091
 21
-4.7387967289848802
 31
0.0
  0
ARC
  5
CF0
  8
247
  6
CONTINUOUS
 10
7.9447407522160338
 20
-9.0108263057649083
 30
0.0
 40
1.25
 50
180.0
 51
0.0
  0
LINE
  5
CF1
  8
247
  6
CONTINUOUS
 10
6.6947407522160338
 20
-9.0108263057649083
 30
0.0
 11
6.6947407522160338
 21
-8.5646724596788886
 31
0.0
  0
ARC
  5
CF2
  8
247
  6
CONTINUOUS
 10
7.9447407522160338
 20
-4.376210921434903
 30
0.0
 40
1.25
 50
0.0
 51
180.0
  0
LINE
  5
CF3
  8
250
  6
CONTINUOUS
 10
62.644820009043507
 20
17.232050808120661
 30
0.0
 11
68.468903629999204
 21
27.319659560000019
 31
0.0
1001
ACAD
1000
DSTYLE
1002
{
1070
     6
1000
OPEN
1070
    41
1040
2.0
1070
    42
1040
2.0
1070
    44
1040
2.0
1070
    79
1070
     2
1070
   140
1040
4.0
1070
   179
1070
     3
1070
   343
1005
0
1070
   371
1070
    -1
1070
   372
1070
    -1
1002
}
  0
LINE
  5
CF4
  8
241
  6
CONTINUOUS
 10
54.499999999999218
 20
-0.8660254
 30
0.0
 11
55.999999999999218
 21
-1.7320508100000001
 31
0.0
  0
LINE
  5
CF5
  8
241
  6
CONTINUOUS
 10
55.999999999999218
 20
-1.7320508100000001
 30
0.0
 11
57.499999999999211
 21
-0.8660254
 31
0.0
  0
LINE
  5
CF6
  8
241
  6
CONTINUOUS
 10
57.499999999999211
 20
-0.8660254
 30
0.0
 11
57.499999999999211
 21
0.8660254
 31
0.0
  0
LINE
  5
CF7
  8
241
  6
CONTINUOUS
 10
57.499999999999211
 20
0.8660254
 30
0.0
 11
55.999999999999218
 21
1.7320508100000001
 31
0.0
  0
LINE
  5
CF8
  8
241
  6
CONTINUOUS
 10
55.999999999999218
 20
1.7320508100000001
 30
0.0
 11
54.499999999999218
 21
0.8660254
 31
0.0
  0
LINE
  5
CF9
  8
241
  6
CONTINUOUS
 10
54.499999999999218
 20
0.8660254
 30
0.0
 11
54.499999999999218
 21
-0.8660254
 31
0.0
  0
LINE
  5
CFA
  8
250
  6
CONTINUOUS
 10
0.0
 20
13.4125
 30
0.0
 11
0.0
 21
29.0
 31
0.0
  0
LINE
  5
CFB
  8
250
  6
CONTINUOUS
 10
64.0
 20
16.0
 30
0.0
 11
64.0
 21
29.0
 31
0.0
  0
LINE
  5
CFC
  8
250
  6
CONTINUOUS
 10
2.2299999999999991
 20
28.0
 30
0.0
 11
61.770000000000003
 21
28.0
 31
0.0
  0
TEXT
  5
D00
  8
250
  6
CONTINUOUS
 10
-76.391349793333333
 20
-19.978308999999999
 30
0.0
 40
2.7999999999999989
  1
MT3
  7
YOKO
1001
ITEMNAME
1000
LNSP3
1001
ACAD
1000
MTEXTBEGIN
1070
    73
1070
     1
1070
    44
1040
1.0
1070
    74
1070
     0
1000
MTEXTEND
1000
MTEXTBEGIN
1070
    73
1070
     1
1070
    44
1040
1.0
1070
    74
1070
     0
1000
MTEXTEND
1000
MTEXTBEGIN
1070
    73
1070
     1
1070
    44
1040
1.0
1070
    74
1070
     0
1000
MTEXTEND
  0
TEXT
  5
D03
  8
250
  6
CONTINUOUS
 10
30.95000000000001
 20
29.0
 30
0.0
 40
2.7999999999999989
  1
64
1001
ACAD
1000
MTEXTBEGIN
1070
    73
1070
     1
1070
    44
1040
1.0
1070
    74
1070
     0
1000
MTEXTEND
  0
LINE
  5
D04
  8
250
  6
CONTINUOUS
 10
61.770000000000003
 20
28.371666666666659
 30
0.0
 11
64.0
 21
28.0
 31
0.0
  0
LINE
  5
D05
  8
250
  6
CONTINUOUS
 10
61.770000000000003
 20
27.62833333333333
 30
0.0
 11
64.0
 21
28.0
 31
0.0
  0
LINE
  5
D06
  8
250
  6
CONTINUOUS
 10
64.0
 20
28.0
 30
0.0
 11
61.770000000000003
 21
28.0
 31
0.0
  0
LINE
  5
D07
  8
250
  6
CONTINUOUS
 10
2.2299999999999991
 20
27.62833333333333
 30
0.0
 11
0.0
 21
28.0
 31
0.0
  0
LINE
  5
D08
  8
250
  6
CONTINUOUS
 10
2.2299999999999991
 20
28.371666666666659
 30
0.0
 11
0.0
 21
28.0
 31
0.0
  0
LINE
  5
D09
  8
250
  6
CONTINUOUS
 10
0.0
 20
28.0
 30
0.0
 11
2.2299999999999991
 21
28.0
 31
0.0
  0
LINE
  5
D0A
  8
250
  6
CONTINUOUS
 10
-60.862353790121972
 20
-12.094627320368881
 30
0.0
 11
-65.991349800000009
 21
-20.978308999999999
 31
0.0
1001
ACAD
1000
DSTYLE
1002
{
1070
     6
1000
OPEN
1070
   343
1005
594
1002
}
  0
LINE
  5
D0B
  8
250
  6
CONTINUOUS
 10
-61.184226565183437
 20
-11.908793987015221
 30
0.0
 11
-59.747353789999998
 21
-10.16339067
 31
0.0
  0
LINE
  5
D0C
  8
250
  6
CONTINUOUS
 10
-60.540481015060479
 20
-12.280460653722541
 30
0.0
 11
-59.747353789999998
 21
-10.16339067
 31
0.0
  0
LINE
  5
D0D
  8
250
  6
CONTINUOUS
 10
-59.747353789999998
 20
-10.16339067
 30
0.0
 11
-60.862353790121972
 21
-12.094627320368881
 31
0.0
  0
VIEWPORT
  5
22
 67
     1
  8
0
 10
261.51769911999997
 20
148.5
 30
0.0
 40
523.03539823000006
 41
297.0
 68
     1
 69
     1
1001
ACAD
1000
MVIEW
1002
{
1070
    16
1010
0.0
1020
0.0
1030
0.0
1010
0.0
1020
0.0
1030
1.0
1040
0.0
1040
297.0
1040
261.51769911999997
1040
148.5
1040
50.0
1040
0.0
1040
0.0
1070
     0
1070
   100
1070
     1
1070
     1
1070
     0
1070
     0
1070
     0
1070
     0
1040
0.0
1040
0.0
1040
0.0
1040
1.0
1040
1.0
1040
10.0
1040
10.0
1070
     0
1002
{
1002
}
1002
}
1001
GENIUS_GENOBJ-N-SDF_13
1002
{
1000
OWNER
1000
GEN
1002
}
1001
GENIUS_GENODEF_13
1002
{
1000
HIER
1070
     0
1002
}
1002
{
1000
MANEDIT
1070
     0
1002
}
1002
{
1000
NOSEL
1070
     0
1002
}
1002
{
1000
BEHIND
1070
     0
1002
}
1002
{
1000
OTHER
1070
     0
1002
}
1002
{
1000
REACTOR
1002
}
1001
GENIUS_GENSCREG_15
1000
PF
1040
1.0
1000
DF
1040
1.0
1000
MIN
1011
0.0000000049999471
1021
0.0
1031
0.0
1021
0.0
1031
0.0
1000
MAX
1011
523.035398235
1021
0.0
1031
0.0
1021
297.0
1031
0.0
1000
FLAGS
1070
     4
  0
ENDSEC
  0
EOF
