  0
SECTION
  2
HEADER
  9
$ACADVER
  1
AC1009
  9
$INSBASE
 10
0.0
 20
0.0
 30
0.0
  9
$EXTMIN
 10
-95.0
 20
-20.978308999999999
 30
0.0
  9
$EXTMAX
 10
63.80870148999999
 20
40.0
 30
0.0
  9
$LIMMIN
 10
0.0
 20
0.0
  9
$LIMMAX
 10
420.0
 20
297.0
  9
$ORTHOMODE
 70
     0
  9
$REGENMODE
 70
     1
  9
$FILLMODE
 70
     1
  9
$QTEXTMODE
 70
     0
  9
$MIRRTEXT
 70
     1
  9
$DRAGMODE
 70
     2
  9
$LTSCALE
 40
10.0
  9
$OSMODE
 70
    37
  9
$ATTMODE
 70
     1
  9
$TEXTSIZE
 40
3.0
  9
$TRACEWID
 40
1.0
  9
$TEXTSTYLE
  7
YOKO
  9
$CLAYER
  8
240
  9
$CELTYPE
  6
BYLAYER
  9
$CECOLOR
 62
   256
  9
$DIMSCALE
 40
1.0
  9
$DIMASZ
 40
2.2299999999999991
  9
$DIMEXO
 40
0.5
  9
$DIMDLI
 40
2.5
  9
$DIMRND
 40
0.0
  9
$DIMDLE
 40
0.0
  9
$DIMEXE
 40
1.0
  9
$DIMTP
 40
0.0
  9
$DIMTM
 40
0.0
  9
$DIMTXT
 40
2.7999999999999989
  9
$DIMCEN
 40
0.0
  9
$DIMTSZ
 40
0.0
  9
$DIMTOL
 70
     0
  9
$DIMLIM
 70
     0
  9
$DIMTIH
 70
     0
  9
$DIMTOH
 70
     0
  9
$DIMSE1
 70
     0
  9
$DIMSE2
 70
     0
  9
$DIMTAD
 70
     3
  9
$DIMZIN
 70
     8
  9
$DIMBLK
  1

  9
$DIMASO
 70
     1
  9
$DIMSHO
 70
     1
  9
$DIMPOST
  1

  9
$DIMAPOST
  1

  9
$DIMALT
 70
     0
  9
$DIMALTD
 70
     2
  9
$DIMALTF
 40
25.399999999999999
  9
$DIMLFAC
 40
1.0
  9
$DIMTOFL
 70
     1
  9
$DIMTVP
 40
0.0
  9
$DIMTIX
 70
     1
  9
$DIMSOXD
 70
     0
  9
$DIMSAH
 70
     1
  9
$DIMBLK1
  1
OPEN
  9
$DIMBLK2
  1
OPEN
  9
$DIMSTYLE
  2
BIGT
  9
$DIMCLRD
 70
   256
  9
$DIMCLRE
 70
   256
  9
$DIMCLRT
 70
    40
  9
$DIMTFAC
 40
1.0
  9
$DIMGAP
 40
1.0
  9
$LUNITS
 70
     2
  9
$LUPREC
 70
     3
  9
$SKETCHINC
 40
1.0
  9
$FILLETRAD
 40
0.0
  9
$AUNITS
 70
     0
  9
$AUPREC
 70
     3
  9
$MENU
  1
.
  9
$ELEVATION
 40
0.0
  9
$PELEVATION
 40
0.0
  9
$THICKNESS
 40
0.0
  9
$LIMCHECK
 70
     0
  9
$BLIPMODE
 70
     0
  9
$CHAMFERA
 40
10.0
  9
$CHAMFERB
 40
10.0
  9
$SKPOLY
 70
     0
  9
$TDCREATE
 40
2455061.6664981139
  9
$TDUPDATE
 40
2459839.4238511799
  9
$TDINDWG
 40
0.0187053241
  9
$TDUSRTIMER
 40
0.0187051389
  9
$USRTIMER
 70
     1
  9
$ANGBASE
 50
0.0
  9
$ANGDIR
 70
     0
  9
$PDMODE
 70
     1
  9
$PDSIZE
 40
-5.0
  9
$PLINEWID
 40
0.0
  9
$COORDS
 70
     1
  9
$SPLFRAME
 70
     0
  9
$SPLINETYPE
 70
     6
  9
$SPLINESEGS
 70
     8
  9
$ATTDIA
 70
     1
  9
$ATTREQ
 70
     1
  9
$HANDLING
 70
     1
  9
$HANDSEED
  5
D49
  9
$SURFTAB1
 70
     6
  9
$SURFTAB2
 70
     6
  9
$SURFTYPE
 70
     6
  9
$SURFU
 70
     6
  9
$SURFV
 70
     6
  9
$UCSNAME
  2

  9
$UCSORG
 10
0.0
 20
0.0
 30
0.0
  9
$UCSXDIR
 10
1.0
 20
0.0
 30
0.0
  9
$UCSYDIR
 10
0.0
 20
1.0
 30
0.0
  9
$PUCSNAME
  2

  9
$PUCSORG
 10
0.0
 20
0.0
 30
0.0
  9
$PUCSXDIR
 10
1.0
 20
0.0
 30
0.0
  9
$PUCSYDIR
 10
0.0
 20
1.0
 30
0.0
  9
$USERI1
 70
     1
  9
$USERI2
 70
     0
  9
$USERI3
 70
     0
  9
$USERI4
 70
     0
  9
$USERI5
 70
     0
  9
$USERR1
 40
0.0
  9
$USERR2
 40
0.0
  9
$USERR3
 40
0.0
  9
$USERR4
 40
0.0
  9
$USERR5
 40
0.0
  9
$WORLDVIEW
 70
     1
  9
$SHADEDGE
 70
     3
  9
$SHADEDIF
 70
    70
  9
$TILEMODE
 70
     1
  9
$MAXACTVP
 70
    16
  9
$PLIMCHECK
 70
     0
  9
$PEXTMIN
 10
1.0000000000000000E+020
 20
1.0000000000000000E+020
 30
1.0000000000000000E+020
  9
$PEXTMAX
 10
-1.0000000000000000E+020
 20
-1.0000000000000000E+020
 30
-1.0000000000000000E+020
  9
$PLIMMIN
 10
0.0
 20
0.0
  9
$PLIMMAX
 10
420.0
 20
297.0
  9
$UNITMODE
 70
     0
  9
$VISRETAIN
 70
     0
  9
$PLINEGEN
 70
     0
  9
$PSLTSCALE
 70
     1
  0
ENDSEC
  0
SECTION
  2
TABLES
  0
TABLE
  2
VPORT
 70
     1
  0
VPORT
  2
*ACTIVE
 70
     0
 10
0.0
 20
0.0
 11
1.0
 21
1.0
 12
-10.314907622788461
 22
3.788877219015375
 13
0.0
 23
0.0
 14
7.0
 24
7.0
 15
7.0
 25
7.0
 16
0.0
 26
0.0
 36
1.0
 17
0.0
 27
0.0
 37
0.0
 40
172.19072918812691
 41
1.762778505897771
 42
50.0
 43
0.0
 44
0.0
 50
0.0
 51
0.0
 71
     0
 72
  2000
 73
     1
 74
     0
 75
     0
 76
     1
 77
     0
 78
     0
  0
ENDTAB
  0
TABLE
  2
LTYPE
 70
    17
  0
LTYPE
  2
CONTINUOUS
 70
     0
  3
Solid line
 72
    65
 73
     0
 40
0.0
  0
LTYPE
  2
CENTER2
 70
     0
  3
___ _ ___ _ ___ _ ___ _ ___ _ ___ _ ___ _ ___ _
 72
    65
 73
     4
 40
1.125
 49
0.75
 49
-0.125
 49
0.125
 49
-0.125
  0
LTYPE
  2
HIDDEN2
 70
     0
  3
_ _ _ _ _ _ _ _ _ _ _ _ _ _ _ _ _ _ _ _ _ _ _ _
 72
    65
 73
     2
 40
0.1875
 49
0.125
 49
-0.0625
  0
LTYPE
  2
HIDDEN
 70
     0
  3
Hidden __ __ __ __ __ __ __ __ __ __ __ __ __ _
 72
    65
 73
     2
 40
9.5249999999999986
 49
6.3499999999999988
 49
-3.1749999999999989
  0
LTYPE
  2
PHANTOM2
 70
     0
  3
___ _ _ ___ _ _ ___ _ _ ___ _ _ ___ _ _ ___ _ _
 72
    65
 73
     6
 40
1.25
 49
0.625
 49
-0.125
 49
0.125
 49
-0.125
 49
0.125
 49
-0.125
  0
LTYPE
  2
CENTER
 70
     0
  3
____ _ ____ _ ____ _ ____ _ ____ _ ____ _ ____ 
 72
    65
 73
     4
 40
2.0
 49
1.25
 49
-0.25
 49
0.25
 49
-0.25
  0
LTYPE
  2
AMCONSTR
 70
     0
  3
_______________________
 72
    65
 73
     2
 40
9999.0
 49
9999.0
 49
0.0
  0
LTYPE
  2
AM_ISO02W050
 70
     0
  3
__ __ __ __ __ __ __ __ __ __ __ __ __ __ __
 72
    65
 73
     2
 40
7.5
 49
6.0
 49
-1.5
  0
LTYPE
  2
ACJISTGB
 70
     0
  3
__ . . __ . .
 72
    65
 73
     6
 40
9.0
 49
4.0
 49
-1.0
 49
1.0
 49
-1.0
 49
1.0
 49
-1.0
  0
LTYPE
  2
ACJISTGL
 70
     0
  3
_ _ _ _ _
 72
    65
 73
     2
 40
3.0
 49
2.0
 49
-1.0
  0
LTYPE
  2
ACISOWELD
 70
     0
  3
_ _ _ _ _
 72
    65
 73
     2
 40
2.0
 49
2.0
 49
-1.0
  0
LTYPE
  2
ACISOTGB
 70
     0
  3
__ . . __ . .
 72
    65
 73
     6
 40
9.0
 49
4.0
 49
-1.0
 49
1.0
 49
-1.0
 49
1.0
 49
-1.0
  0
LTYPE
  2
ACISOTGL
 70
     0
  3
_ _ _ _ _
 72
    65
 73
     2
 40
3.0
 49
2.0
 49
-1.0
  0
LTYPE
  2
AMZIGZAG2
 70
     0
  3
/\/-/\/-/\/-/\/-/\/-/\/
 72
    65
 73
     2
 40
0.4401
 49
0.0001
 49
-0.4400000000000002
  0
LTYPE
  2
ACANSTGB
 70
     0
  3
__ . . __ . .
 72
    65
 73
     6
 40
0.35433070866
 49
0.15748031496
 49
-0.03937007874
 49
0.03937007874
 49
-0.03937007874
 49
0.03937007874
 49
-0.03937007874
  0
LTYPE
  2
ACANSTGL
 70
     0
  3
_ _ _ _ _
 72
    65
 73
     2
 40
0.11811023622
 49
0.07874015748
 49
-0.03937007874
  0
ENDTAB
  0
TABLE
  2
LAYER
 70
    12
  0
LAYER
  2
0
 70
     0
 62
     7
  6
CONTINUOUS
  0
LAYER
  2
240
 70
     0
 62
     4
  6
CONTINUOUS
  0
LAYER
  2
241
 70
     0
 62
   211
  6
CONTINUOUS
  0
LAYER
  2
242
 70
     0
 62
     3
  6
CONTINUOUS
  0
LAYER
  2
245
 70
     0
 62
     2
  6
CENTER2
  0
LAYER
  2
250
 70
     0
 62
     3
  6
CONTINUOUS
  0
LAYER
  2
DEFPOINTS
 70
     0
 62
     7
  6
CONTINUOUS
  0
LAYER
  2
5
 70
     0
 62
     2
  6
CONTINUOUS
  0
LAYER
  2
243
 70
     0
 62
   211
  6
HIDDEN2
  0
LAYER
  2
247
 70
     0
 62
    60
  6
CONTINUOUS
  0
ENDTAB
  0
TABLE
  2
STYLE
 70
     7
  0
STYLE
  2
STANDARD
 70
     0
 40
0.0
 41
1.0
 50
0.0
 71
     0
 42
3.0
  3
romans.shx
  4
BIGFONT.SHX
  0
STYLE
  2
YOKO
 70
     0
 40
0.0
 41
1.0
 50
0.0
 71
     0
 42
3.0
  3
romans.shx
  4
extfont.shx
  0
STYLE
  2
ACJISTS
 70
     0
 40
1.0
 41
1.0
 50
0.0
 71
     0
 42
3.0
  3
amgdt.shx
  4
extfont.shx
  0
STYLE
  2
ACJISGDT
 70
     0
 40
0.0
 41
1.0
 50
0.0
 71
     0
 42
3.0
  3
amgdt.shx
  4
extfont.shx
  0
STYLE
  2
ACISOTS
 70
     0
 40
1.0
 41
1.0
 50
0.0
 71
     0
 42
3.0
  3
amgdt.shx
  4
extfont.shx
  0
STYLE
  2
ACISOGDT
 70
     0
 40
0.0
 41
1.0
 50
0.0
 71
     0
 42
3.0
  3
amgdt.shx
  4
extfont.shx
  0
STYLE
  2
ACANSGDT
 70
     0
 40
0.0
 41
1.0
 50
0.0
 71
     0
 42
3.0
  3
amgdt.shx
  4

  0
ENDTAB
  0
TABLE
  2
VIEW
 70
     0
  0
ENDTAB
  0
TABLE
  2
UCS
 70
     0
  0
ENDTAB
  0
TABLE
  2
APPID
 70
    39
  0
APPID
  2
ACAD
 70
     0
  0
APPID
  2
GLOBAL
 70
     0
  0
APPID
  2
DETAIL
 70
     0
  0
APPID
  2
GRPNAME
 70
     0
  0
APPID
  2
GPARA
 70
     0
  0
APPID
  2
DCO15
 70
     0
  0
APPID
  2
ITEMNAME
 70
     0
  0
APPID
  2
GRADE_0
 70
     0
  0
APPID
  2
ACAD_PSEXT
 70
     0
  0
APPID
  2
CONTENTBLOCKICON
 70
     0
  0
APPID
  2
MCAD_NO_VIS
 70
     0
  0
APPID
  2
ACAD_TEMP_GRAPHIC
 70
     0
  0
APPID
  2
ACATTRIBSERVICES
 70
     0
  0
APPID
  2
GENIUS_GENSCREG_15
 70
     0
  0
APPID
  2
GENIUS_GENODEF_13
 70
     0
  0
APPID
  2
GENIUS_GENOBJ-N-SDF_13
 70
     0
  0
APPID
  2
GENIUS_GENREC_14
 70
     0
  0
APPID
  2
GENIUS_GENOBJ-N-REC_13
 70
     0
  0
APPID
  2
GENIUS_GENDIMSH_14
 70
     0
  0
APPID
  2
GENIUS_GENOBJ-N-DIM_13
 70
     0
  0
APPID
  2
GENIUS_GENDIM_13
 70
     0
  0
APPID
  2
GENIUS_GENDTOL_13
 70
     0
  0
APPID
  2
GENIUS_GENOLIS_13
 70
     0
  0
APPID
  2
GENIUS_GENOENT_13
 70
     0
  0
APPID
  2
GENIUS_GENOBJ-F-FEM_13
 70
     0
  0
APPID
  2
GENIUS_GENOREF_13
 70
     0
  0
APPID
  2
GENIUS_GEFFEM_13
 70
     0
  0
APPID
  2
GENIUS_GEFFEMP_13
 70
     0
  0
APPID
  2
AD_DRAW
 70
     0
  0
APPID
  2
DESIGNERASSEMBLIES
 70
     0
  0
APPID
  2
ACADM_DIM_EDIT
 70
     0
  0
APPID
  2
AMDT_DM_ADJ
 70
     0
  0
APPID
  2
GENIUS_GENOBJ-N-FIL_13
 70
     0
  0
APPID
  2
GENIUS_GENFIL_13
 70
     0
  0
APPID
  2
GENIUS_GENOBJ-N-CHA_13
 70
     0
  0
APPID
  2
ACAD_NAV_VCDISPLAY
 70
     0
  0
APPID
  2
ACAECLAYERSTANDARD
 70
     0
  0
APPID
  2
ACAD_EXEMPT_FROM_CAD_STANDARDS
 70
     0
  0
APPID
  2
ACAD_MLEADERVER
 70
     0
  0
ENDTAB
  0
TABLE
  2
DIMSTYLE
 70
    29
  0
DIMSTYLE
  2
BIGT
 70
     0
  3

  4

  5
OPEN
  6

  7

 40
1.0
 41
2.2299999999999991
 42
0.5
 43
7.0
 44
1.0
 45
0.0
 46
0.0
 47
0.0
 48
0.01
140
2.7999999999999989
141
0.0
142
0.0
143
25.399999999999999
144
1.0
145
0.0
146
1.0
147
1.0
 71
     0
 72
     0
 73
     0
 74
     0
 75
     0
 76
     0
 77
     3
 78
     9
170
     0
171
     2
172
     1
173
     0
174
     1
175
     0
176
   256
177
   256
178
    40
  0
DIMSTYLE
  2
BIGT$0
 70
     0
  3

  4

  5
OPEN
  6

  7

 40
1.0
 41
2.2299999999999991
 42
0.5
 43
7.0
 44
1.0
 45
0.0
 46
0.0
 47
0.0
 48
0.01
140
2.7999999999999989
141
0.0
142
0.0
143
25.399999999999999
144
1.0
145
0.0
146
1.0
147
1.0
 71
     0
 72
     0
 73
     0
 74
     0
 75
     0
 76
     0
 77
     3
 78
     9
170
     0
171
     2
172
     1
173
     0
174
     1
175
     0
176
   256
177
   256
178
    40
  0
DIMSTYLE
  2
BIGT$2
 70
     0
  3

  4

  5
OPEN
  6

  7

 40
1.0
 41
2.2299999999999991
 42
0.5
 43
7.0
 44
1.0
 45
0.0
 46
0.0
 47
0.0
 48
0.01
140
2.7999999999999989
141
0.0
142
0.0
143
25.399999999999999
144
1.0
145
0.0
146
1.0
147
1.0
 71
     0
 72
     0
 73
     0
 74
     0
 75
     0
 76
     0
 77
     3
 78
     9
170
     0
171
     2
172
     1
173
     0
174
     0
175
     0
176
   256
177
   256
178
    40
  0
DIMSTYLE
  2
BIGT$3
 70
     0
  3

  4

  5
OPEN
  6

  7

 40
1.0
 41
2.2299999999999991
 42
0.5
 43
2.5
 44
1.0
 45
0.0
 46
0.0
 47
0.0
 48
0.01
140
2.7999999999999989
141
0.0
142
0.0
143
25.399999999999999
144
1.0
145
0.0
146
1.0
147
1.0
 71
     0
 72
     0
 73
     0
 74
     0
 75
     0
 76
     0
 77
     3
 78
     9
170
     0
171
     2
172
     1
173
     0
174
     0
175
     0
176
   256
177
   256
178
    40
  0
DIMSTYLE
  2
BIGT$4
 70
     0
  3

  4

  5
OPEN
  6

  7

 40
1.0
 41
2.2299999999999991
 42
0.5
 43
2.5
 44
1.0
 45
0.0
 46
0.0
 47
0.0
 48
0.01
140
2.7999999999999989
141
0.0
142
0.0
143
25.399999999999999
144
1.0
145
0.0
146
1.0
147
1.0
 71
     0
 72
     0
 73
     0
 74
     0
 75
     0
 76
     0
 77
     3
 78
     9
170
     0
171
     2
172
     1
173
     0
174
     0
175
     0
176
   256
177
   256
178
    40
  0
DIMSTYLE
  2
BIGT$6
 70
     0
  3

  4

  5
OPEN
  6

  7

 40
1.0
 41
2.2299999999999991
 42
0.5
 43
2.5
 44
1.0
 45
0.0
 46
0.0
 47
0.0
 48
0.01
140
2.7999999999999989
141
0.0
142
0.0
143
25.399999999999999
144
1.0
145
0.0
146
1.0
147
1.0
 71
     0
 72
     0
 73
     0
 74
     0
 75
     0
 76
     0
 77
     3
 78
     9
170
     0
171
     2
172
     1
173
     0
174
     0
175
     0
176
   256
177
   256
178
    40
  0
DIMSTYLE
  2
BIGT$7
 70
     0
  3

  4

  5
OPEN
  6

  7

 40
0.0
 41
2.2299999999999991
 42
0.5
 43
7.0
 44
1.0
 45
0.0
 46
0.0
 47
0.0
 48
0.01
140
2.7999999999999989
141
0.0
142
0.0
143
25.399999999999999
144
1.0
145
0.0
146
1.0
147
1.0
 71
     0
 72
     0
 73
     0
 74
     0
 75
     0
 76
     0
 77
     3
 78
     9
170
     0
171
     2
172
     0
173
     0
174
     0
175
     0
176
   256
177
   256
178
    40
  0
DIMSTYLE
  2
BIGT$SF
 70
     0
  3

  4

  5
OPEN
  6

  7

 40
1.0
 41
2.2299999999999991
 42
0.5
 43
7.0
 44
1.0
 45
0.0
 46
0.0
 47
0.0
 48
0.0
140
2.7999999999999989
141
0.0
142
0.0
143
25.399999999999999
144
1.0
145
0.0
146
1.0
147
1.0
 71
     0
 72
     0
 73
     0
 74
     0
 75
     0
 76
     0
 77
     3
 78
     9
170
     0
171
     2
172
     1
173
     0
174
     0
175
     0
176
   256
177
   256
178
    40
  0
DIMSTYLE
  2
BIGT$SH
 70
     0
  3

  4

  5
OPEN
  6

  7

 40
1.0
 41
2.2299999999999991
 42
0.5
 43
7.0
 44
1.0
 45
0.0
 46
0.0
 47
0.0
 48
0.0
140
2.7999999999999989
141
0.0
142
0.0
143
25.399999999999999
144
1.0
145
0.0
146
1.0
147
1.0
 71
     0
 72
     0
 73
     0
 74
     0
 75
     0
 76
     0
 77
     3
 78
     9
170
     0
171
     2
172
     1
173
     0
174
     0
175
     0
176
   256
177
   256
178
    40
  0
DIMSTYLE
  2
AM_ISO
 70
     0
  3

  4
"
  5

  6

  7

 40
1.0
 41
2.5
 42
1.0
 43
10.0
 44
1.0
 45
0.0
 46
0.0
 47
0.1
 48
0.1
140
3.5
141
0.0
142
0.0
143
0.0393701
144
1.0
145
0.0
146
0.71
147
1.5
 71
     0
 72
     0
 73
     0
 74
     0
 75
     0
 76
     0
 77
     1
 78
     8
170
     0
171
     2
172
     1
173
     0
174
     0
175
     0
176
   256
177
   256
178
     2
  0
DIMSTYLE
  2
AM_ISO$3
 70
     0
  3

  4
"
  5

  6

  7

 40
1.0
 41
2.5
 42
1.0
 43
10.0
 44
1.0
 45
0.0
 46
0.0
 47
0.1
 48
0.1
140
3.5
141
0.0
142
0.0
143
0.0393701
144
1.0
145
0.0
146
0.71
147
1.5
 71
     0
 72
     0
 73
     0
 74
     1
 75
     0
 76
     0
 77
     1
 78
     8
170
     0
171
     2
172
     0
173
     0
174
     0
175
     0
176
   256
177
   256
178
     2
  0
DIMSTYLE
  2
AM_ISO$4
 70
     0
  3

  4
"
  5

  6

  7

 40
1.0
 41
2.5
 42
1.0
 43
10.0
 44
1.0
 45
0.0
 46
0.0
 47
0.1
 48
0.1
140
3.5
141
0.0
142
0.0
143
0.0393701
144
1.0
145
0.0
146
0.71
147
1.5
 71
     0
 72
     0
 73
     0
 74
     1
 75
     0
 76
     0
 77
     1
 78
     8
170
     0
171
     2
172
     0
173
     0
174
     0
175
     0
176
   256
177
   256
178
     2
  0
DIMSTYLE
  2
AM_ISO$6
 70
     0
  3

  4
"
  5

  6

  7

 40
1.0
 41
2.5
 42
1.0
 43
10.0
 44
1.0
 45
0.0
 46
0.0
 47
0.1
 48
0.1
140
3.5
141
0.0
142
0.0
143
0.0393701
144
1.0
145
0.0
146
0.71
147
1.5
 71
     0
 72
     0
 73
     0
 74
     0
 75
     0
 76
     0
 77
     0
 78
     8
170
     0
171
     2
172
     1
173
     0
174
     0
175
     0
176
   256
177
   256
178
     2
  0
DIMSTYLE
  2
AM_ISO$7
 70
     0
  3

  4
"
  5

  6

  7

 40
1.0
 41
2.5
 42
1.0
 43
10.0
 44
1.0
 45
0.0
 46
0.0
 47
0.1
 48
0.1
140
5.0
141
0.0
142
0.0
143
0.0393701
144
1.0
145
0.0
146
0.71
147
1.5
 71
     0
 72
     0
 73
     0
 74
     0
 75
     0
 76
     0
 77
     1
 78
     8
170
     0
171
     2
172
     1
173
     0
174
     0
175
     0
176
   256
177
   256
178
     2
  0
DIMSTYLE
  2
AM_ISO$SF
 70
     0
  3

  4
"
  5

  6

  7

 40
1.0
 41
2.5
 42
1.0
 43
10.0
 44
1.0
 45
0.0
 46
0.0
 47
0.1
 48
0.1
140
3.5
141
0.0
142
0.0
143
0.0393701
144
1.0
145
0.0
146
0.71
147
1.5
 71
     0
 72
     0
 73
     0
 74
     0
 75
     1
 76
     1
 77
     1
 78
     8
170
     0
171
     2
172
     1
173
     0
174
     0
175
     0
176
   256
177
   256
178
     2
  0
DIMSTYLE
  2
AM_ISO$SH
 70
     0
  3

  4
"
  5

  6
GENAXEH
  7

 40
1.0
 41
2.5
 42
1.0
 43
10.0
 44
1.0
 45
0.0
 46
0.0
 47
0.1
 48
0.1
140
3.5
141
0.0
142
0.0
143
0.0393701
144
2.0
145
0.0
146
0.71
147
1.5
 71
     0
 72
     0
 73
     0
 74
     0
 75
     1
 76
     1
 77
     1
 78
     8
170
     0
171
     2
172
     1
173
     1
174
     0
175
     0
176
   256
177
   256
178
     2
  0
DIMSTYLE
  2
TECHNICAL_OSAKA
 70
     0
  3

  4
"
  5
OPEN30
  6

  7

 40
1.0
 41
2.5
 42
1.0
 43
10.0
 44
1.0
 45
0.0
 46
0.0
 47
0.1
 48
0.1
140
2.7999999999999989
141
0.0
142
0.0
143
0.0393701
144
1.0
145
0.0
146
0.71
147
1.5
 71
     0
 72
     0
 73
     0
 74
     0
 75
     0
 76
     0
 77
     3
 78
     8
170
     0
171
     2
172
     1
173
     0
174
     0
175
     0
176
   256
177
   256
178
    40
  0
DIMSTYLE
  2
TECHNICAL_OSAKA$3
 70
     0
  3

  4
"
  5
OPEN30
  6

  7

 40
1.0
 41
2.5
 42
1.0
 43
10.0
 44
1.0
 45
0.0
 46
0.0
 47
0.1
 48
0.1
140
2.7999999999999989
141
0.0
142
0.0
143
0.0393701
144
1.0
145
0.0
146
0.71
147
1.5
 71
     0
 72
     0
 73
     0
 74
     1
 75
     0
 76
     0
 77
     3
 78
     8
170
     0
171
     2
172
     0
173
     0
174
     0
175
     0
176
   256
177
   256
178
    40
  0
DIMSTYLE
  2
TECHNICAL_OSAKA$4
 70
     0
  3

  4
"
  5
OPEN30
  6

  7

 40
1.0
 41
2.5
 42
1.0
 43
10.0
 44
1.0
 45
0.0
 46
0.0
 47
0.1
 48
0.1
140
2.7999999999999989
141
0.0
142
0.0
143
0.0393701
144
1.0
145
0.0
146
0.71
147
1.5
 71
     0
 72
     0
 73
     0
 74
     1
 75
     0
 76
     0
 77
     3
 78
     8
170
     0
171
     2
172
     0
173
     0
174
     0
175
     0
176
   256
177
   256
178
    40
  0
DIMSTYLE
  2
TECHNICAL_OSAKA$6
 70
     0
  3

  4
"
  5
OPEN30
  6

  7

 40
1.0
 41
2.5
 42
1.0
 43
10.0
 44
1.0
 45
0.0
 46
0.0
 47
0.1
 48
0.1
140
2.7999999999999989
141
0.0
142
0.0
143
0.0393701
144
1.0
145
0.0
146
0.71
147
1.5
 71
     0
 72
     0
 73
     0
 74
     0
 75
     0
 76
     0
 77
     0
 78
     8
170
     0
171
     2
172
     1
173
     0
174
     0
175
     0
176
   256
177
   256
178
    40
  0
DIMSTYLE
  2
TECHNICAL_OSAKA$7
 70
     0
  3

  4
"
  5
OPEN30
  6

  7

 40
1.0
 41
2.5
 42
1.0
 43
10.0
 44
1.0
 45
0.0
 46
0.0
 47
0.1
 48
0.1
140
2.7999999999999989
141
0.0
142
0.0
143
0.0393701
144
1.0
145
0.0
146
0.71
147
1.5
 71
     0
 72
     0
 73
     0
 74
     0
 75
     0
 76
     0
 77
     3
 78
     8
170
     0
171
     2
172
     1
173
     0
174
     0
175
     0
176
   256
177
   256
178
    40
  0
DIMSTYLE
  2
TECHNICAL_OSAKA$SF
 70
     0
  3

  4
"
  5
OPEN30
  6
OPEN30
  7
OPEN30
 40
1.0
 41
2.5
 42
1.0
 43
10.0
 44
1.0
 45
0.0
 46
0.0
 47
0.1
 48
0.1
140
3.5
141
0.0
142
0.0
143
0.0393701
144
1.0
145
0.0
146
0.71
147
1.5
 71
     0
 72
     0
 73
     0
 74
     0
 75
     1
 76
     1
 77
     3
 78
     8
170
     0
171
     2
172
     1
173
     0
174
     0
175
     0
176
   256
177
   256
178
    40
  0
DIMSTYLE
  2
TECHNICAL_OSAKA$SH
 70
     0
  3

  4
"
  5
OPEN30
  6
GENAXEH
  7
OPEN30
 40
1.0
 41
2.5
 42
1.0
 43
10.0
 44
1.0
 45
0.0
 46
0.0
 47
0.1
 48
0.1
140
3.5
141
0.0
142
0.0
143
0.0393701
144
2.0
145
0.0
146
0.71
147
1.5
 71
     0
 72
     0
 73
     0
 74
     0
 75
     1
 76
     1
 77
     3
 78
     8
170
     0
171
     2
172
     1
173
     1
174
     0
175
     0
176
   256
177
   256
178
    40
  0
DIMSTYLE
  2
AM_ANSI
 70
     0
  3

  4
mm
  5

  6

  7

 40
1.0
 41
0.12
 42
0.05
 43
0.5
 44
0.1
 45
0.0
 46
0.0
 47
0.1
 48
0.1
140
0.12
141
0.0
142
0.0
143
25.399999999999999
144
1.0
145
0.0
146
0.71
147
0.06
 71
     0
 72
     0
 73
     1
 74
     1
 75
     0
 76
     0
 77
     0
 78
     7
170
     0
171
     2
172
     0
173
     0
174
     0
175
     0
176
   256
177
   256
178
     2
  0
DIMSTYLE
  2
AM_ANSI$3
 70
     0
  3

  4
mm
  5

  6

  7

 40
1.0
 41
0.12
 42
0.05
 43
0.5
 44
0.1
 45
0.0
 46
0.0
 47
0.1
 48
0.1
140
0.12
141
0.0
142
0.0
143
25.399999999999999
144
1.0
145
0.0
146
0.71
147
0.06
 71
     0
 72
     0
 73
     1
 74
     1
 75
     0
 76
     0
 77
     0
 78
     7
170
     0
171
     2
172
     0
173
     0
174
     0
175
     0
176
   256
177
   256
178
     2
  0
DIMSTYLE
  2
AM_ANSI$4
 70
     0
  3

  4
mm
  5

  6

  7

 40
1.0
 41
0.12
 42
0.05
 43
0.5
 44
0.1
 45
0.0
 46
0.0
 47
0.1
 48
0.1
140
0.12
141
0.0
142
0.0
143
25.399999999999999
144
1.0
145
0.0
146
0.71
147
0.06
 71
     0
 72
     0
 73
     1
 74
     1
 75
     0
 76
     0
 77
     0
 78
     7
170
     0
171
     2
172
     0
173
     0
174
     0
175
     0
176
   256
177
   256
178
     2
  0
DIMSTYLE
  2
AM_ANSI$7
 70
     0
  3

  4
mm
  5

  6

  7

 40
1.0
 41
0.12
 42
0.05
 43
0.5
 44
0.1
 45
0.0
 46
0.0
 47
0.1
 48
0.1
140
0.12
141
0.0
142
0.0
143
25.399999999999999
144
1.0
145
0.0
146
0.71
147
0.06
 71
     0
 72
     0
 73
     1
 74
     1
 75
     0
 76
     0
 77
     0
 78
     7
170
     0
171
     2
172
     0
173
     0
174
     0
175
     0
176
   256
177
   256
178
     2
  0
DIMSTYLE
  2
AM_ANSI$SF
 70
     0
  3

  4
mm
  5

  6

  7

 40
1.0
 41
0.12
 42
0.05
 43
0.5
 44
0.1
 45
0.0
 46
0.0
 47
0.1
 48
0.1
140
0.12
141
0.0
142
0.0
143
25.399999999999999
144
1.0
145
0.0
146
0.71
147
0.06
 71
     0
 72
     0
 73
     1
 74
     1
 75
     1
 76
     1
 77
     0
 78
     7
170
     0
171
     2
172
     0
173
     0
174
     0
175
     0
176
   256
177
   256
178
     2
  0
DIMSTYLE
  2
AM_ANSI$SH
 70
     0
  3

  4
mm
  5

  6

  7

 40
1.0
 41
0.12
 42
0.05
 43
0.5
 44
0.1
 45
0.0
 46
0.0
 47
0.1
 48
0.1
140
0.12
141
0.0
142
0.0
143
25.399999999999999
144
1.0
145
0.0
146
0.71
147
0.06
 71
     0
 72
     0
 73
     1
 74
     1
 75
     1
 76
     1
 77
     0
 78
     7
170
     0
171
     2
172
     0
173
     1
174
     0
175
     0
176
   256
177
   256
178
     2
  0
ENDTAB
  0
ENDSEC
  0
SECTION
  2
BLOCKS
  0
BLOCK
  8
0
  2
$MODEL_SPACE
 70
     0
 10
0.0
 20
0.0
 30
0.0
  3
$MODEL_SPACE
  1

  0
ENDBLK
  5
1C
  8
0
  0
BLOCK
 67
     1
  8
0
  2
$PAPER_SPACE
 70
     0
 10
0.0
 20
0.0
 30
0.0
  3
$PAPER_SPACE
  1

  0
ENDBLK
  5
19
 67
     1
  8
0
  0
BLOCK
  8
0
  2
_OPEN
 70
     0
 10
0.0
 20
0.0
 30
0.0
  3
_OPEN
  1

  0
LINE
  5
AD6
  8
0
  6
BYBLOCK
 62
     0
 10
-1.0
 20
0.1666666666666666
 30
0.0
 11
0.0
 21
0.0
 31
0.0
  0
LINE
  5
AD7
  8
0
  6
BYBLOCK
 62
     0
 10
-1.0
 20
-0.1666666666666666
 30
0.0
 11
0.0
 21
0.0
 31
0.0
  0
LINE
  5
AD8
  8
0
  6
BYBLOCK
 62
     0
 10
0.0
 20
0.0
 30
0.0
 11
-1.0
 21
0.0
 31
0.0
  0
ENDBLK
  5
AD9
  8
0
  0
BLOCK
  8
0
  2
矢印なし
 70
     0
 10
0.0
 20
0.0
 30
0.0
  3
矢印なし
  1

  0
ENDBLK
  5
6E5
  8
0
  0
BLOCK
  8
0
  2
GENAXEH
 70
     0
 10
0.0
 20
0.0
 30
0.0
  3
GENAXEH
  1

  0
LINE
  5
B11
  8
0
 10
-1.0
 20
0.0
 30
0.0
 11
1.0
 21
0.0
 31
0.0
  0
ENDBLK
  5
B12
  8
0
  0
BLOCK
  8
0
  2
_OPEN30
 70
     0
 10
0.0
 20
0.0
 30
0.0
  3
_OPEN30
  1

  0
LINE
  5
B4D
  8
0
  6
BYBLOCK
 62
     0
 10
-1.0
 20
0.26794919
 30
0.0
 11
0.0
 21
0.0
 31
0.0
  0
LINE
  5
B4E
  8
0
  6
BYBLOCK
 62
     0
 10
0.0
 20
0.0
 30
0.0
 11
-1.0
 21
-0.26794919
 31
0.0
  0
LINE
  5
B4F
  8
0
  6
BYBLOCK
 62
     0
 10
0.0
 20
0.0
 30
0.0
 11
-1.0
 21
0.0
 31
0.0
  0
ENDBLK
  5
B50
  8
0
  0
ENDSEC
  0
SECTION
  2
ENTITIES
  0
INSERT
  5
6E6
  8
245
  2
矢印なし
 10
175.62382697000001
 20
90.551235719999994
 30
0.0
  0
LINE
  5
83B
  8
250
  6
CONTINUOUS
 10
-65.991349800000009
 20
-20.978308999999999
 30
0.0
 11
-78.658016459999999
 21
-20.978308999999999
 31
0.0
1001
ITEMNAME
1000
LNSP2
  0
TEXT
  5
845
  8
241
  6
CONTINUOUS
 10
-94.0
 20
35.0
 30
0.0
 40
5.0
  1
MT3-CKB1-47
  7
YOKO
 11
-94.0
 21
35.0
 31
0.0
 73
     1
  0
LINE
  5
BB7
  8
240
  6
CONTINUOUS
 10
-80.700000000000003
 20
-9.5500000000000007
 30
0.0
 11
5.0
 21
-12.05887547
 31
0.0
  0
LINE
  5
BB8
  8
240
  6
CONTINUOUS
 10
-80.700000000000003
 20
9.5500000000000007
 30
0.0
 11
5.0
 21
12.05887547
 31
0.0
  0
LINE
  5
BB9
  8
245
  6
CENTER2
 10
-95.0
 20
0.0
 30
0.0
 11
48.0
 21
0.0
 31
0.0
  0
ARC
  5
BBA
  8
241
  6
CONTINUOUS
 10
-81.0
 20
1.6706409900000001
 30
0.0
 40
7.0
 50
0.0
 51
87.543714280000003
  0
ARC
  5
BBB
  8
241
  6
CONTINUOUS
 10
-81.0
 20
-1.6706409900000001
 30
0.0
 40
6.9999999999999973
 50
272.45628571999998
 51
0.0
  0
LINE
  5
BBC
  8
240
  6
CONTINUOUS
 10
-94.0
 20
-3.9500000000000002
 30
0.0
 11
-94.0
 21
3.9500000000000002
 31
0.0
  0
LINE
  5
BBD
  8
241
  6
CONTINUOUS
 10
-93.215519029999996
 20
6.8315713399999991
 30
0.0
 11
-94.0
 21
0.0
 31
0.0
  0
LINE
  5
BBE
  8
240
  6
CONTINUOUS
 10
-91.497411900000003
 20
-9.25
 30
0.0
 11
-81.0
 21
-9.25
 31
0.0
  0
LINE
  5
BBF
  8
241
  6
CONTINUOUS
 10
-91.496813619999998
 20
-8.3642094700000005
 30
0.0
 11
-81.0
 21
-8.3642094700000005
 31
0.0
  0
LINE
  5
BC0
  8
240
  6
CONTINUOUS
 10
-93.476463480000007
 20
-7.5387124000000014
 30
0.0
 11
-94.0
 21
-3.9500000000000002
 31
0.0
  0
LINE
  5
BC1
  8
241
  6
CONTINUOUS
 10
-93.215519029999996
 20
-6.8315713399999991
 30
0.0
 11
-94.0
 21
0.0
 31
0.0
  0
ARC
  5
BC2
  8
240
  6
CONTINUOUS
 10
-91.497411900000003
 20
-7.25
 30
0.0
 40
2.0000000000000022
 50
188.30000000000001
 51
270.0
  0
ARC
  5
BC3
  8
241
  6
CONTINUOUS
 10
-91.496813619999998
 20
-6.6342094700000001
 30
0.0
 40
1.7300000000012901
 50
186.55067937000001
 51
270.0
  0
LINE
  5
BC4
  8
241
  6
CONTINUOUS
 10
-81.0
 20
-8.3642094700000005
 30
0.0
 11
-80.700000000000003
 21
-8.6642094699999994
 31
0.0
  0
LINE
  5
BC5
  8
241
  6
CONTINUOUS
 10
-81.0
 20
-9.25
 30
0.0
 11
-81.0
 21
-8.3642094700000005
 31
0.0
  0
LINE
  5
BC6
  8
240
  6
CONTINUOUS
 10
-80.700000000000003
 20
-9.5500000000000007
 30
0.0
 11
-81.0
 21
-9.25
 31
0.0
  0
LINE
  5
BC7
  8
240
  6
CONTINUOUS
 10
-91.497411900000003
 20
9.25
 30
0.0
 11
-81.0
 21
9.25
 31
0.0
  0
LINE
  5
BC8
  8
241
  6
CONTINUOUS
 10
-91.496813619999998
 20
8.3642094700000005
 30
0.0
 11
-81.0
 21
8.3642094700000005
 31
0.0
  0
ARC
  5
BC9
  8
241
  6
CONTINUOUS
 10
-91.496813619999998
 20
6.6342094700000001
 30
0.0
 40
1.7299999999999871
 50
90.0
 51
173.4493206299999
  0
ARC
  5
BCA
  8
240
  6
CONTINUOUS
 10
-91.497411900000003
 20
7.25
 30
0.0
 40
2.0
 50
90.0
 51
171.69999999999999
  0
LINE
  5
BCB
  8
240
  6
CONTINUOUS
 10
-93.476463480000007
 20
7.5387124000000014
 30
0.0
 11
-94.0
 21
3.9500000000000002
 31
0.0
  0
LINE
  5
BCC
  8
241
  6
CONTINUOUS
 10
-81.0
 20
8.3642094700000005
 30
0.0
 11
-81.0
 21
9.25
 31
0.0
  0
LINE
  5
BCD
  8
241
  6
CONTINUOUS
 10
-81.0
 20
8.3642094700000005
 30
0.0
 11
-80.700000000000003
 21
8.6642094699999994
 31
0.0
  0
LINE
  5
BCE
  8
240
  6
CONTINUOUS
 10
-80.700000000000003
 20
9.5500000000000007
 30
0.0
 11
-81.0
 21
9.25
 31
0.0
  0
LINE
  5
BCF
  8
5
  6
CENTER2
 10
0.0
 20
12.9125
 30
0.0
 11
0.0
 21
-12.9125
 31
0.0
  0
LINE
  5
BD0
  8
241
  6
CONTINUOUS
 10
-74.0
 20
-1.6706409900000001
 30
0.0
 11
-74.0
 21
1.6706409900000001
 31
0.0
  0
ARC
  5
BD1
  8
240
  6
CONTINUOUS
 10
7.0
 20
-11.5
 30
0.0
 40
2.0
 50
90.0
 51
180.0
  0
LINE
  5
BD2
  8
241
  6
CONTINUOUS
 10
5.0
 20
-11.5
 30
0.0
 11
5.0
 21
11.5
 31
0.0
  0
LINE
  5
BD3
  8
240
  6
CONTINUOUS
 10
5.0
 20
-11.5
 30
0.0
 11
5.0
 21
-12.05887547
 31
0.0
  0
LINE
  5
BDF
  8
240
  6
CONTINUOUS
 10
47.0
 20
-9.5
 30
0.0
 11
7.0
 21
-9.5
 31
0.0
  0
LINE
  5
BE0
  8
240
  6
CONTINUOUS
 10
47.0
 20
9.5
 30
0.0
 11
7.0
 21
9.5
 31
0.0
  0
ARC
  5
BE2
  8
240
  6
CONTINUOUS
 10
7.0
 20
11.5
 30
0.0
 40
2.0
 50
180.0
 51
270.0
  0
LINE
  5
BE3
  8
240
  6
CONTINUOUS
 10
5.0
 20
11.5
 30
0.0
 11
5.0
 21
12.05887547
 31
0.0
  0
LINE
  5
BE7
  8
240
  6
CONTINUOUS
 10
47.0
 20
9.5
 30
0.0
 11
47.0
 21
0.0
 31
0.0
  0
LINE
  5
BE8
  8
240
  6
CONTINUOUS
 10
47.0
 20
-9.5
 30
0.0
 11
47.0
 21
0.0
 31
0.0
  0
LINE
  5
C53
  8
243
  6
HIDDEN2
 10
47.000000000000007
 20
5.5000000000000249
 30
0.0
 11
32.950000000000038
 21
5.5000000000000284
 31
0.0
  0
LINE
  5
C54
  8
250
  6
CONTINUOUS
 10
49.754103700000002
 20
21.579815859999979
 30
0.0
 11
62.020770370000008
 21
21.579815859999979
 31
0.0
1001
ITEMNAME
1000
LNSP2
  0
CIRCLE
  5
C55
  8
241
  6
CONTINUOUS
 10
42.000000000000021
 20
0.0
 30
0.0
 40
2.1000000000000001
  0
CIRCLE
  5
C5E
  8
242
  6
CONTINUOUS
 10
42.000000000000021
 20
0.0
 30
0.0
 40
1.75
  0
LINE
  5
C5F
  8
245
  6
CENTER2
 10
42.000000000000021
 20
3.1000000000000001
 30
0.0
 11
42.000000000000021
 21
-3.1000000000000001
 31
0.0
  0
TEXT
  5
C60
  8
250
  6
CONTINUOUS
 10
52.154103699999979
 20
22.579815859999972
 30
0.0
 40
2.799999999999998
  1
CK1
  7
YOKO
1001
ITEMNAME
1000
LNSP3
1001
ACAD
1000
MTEXTBEGIN
1070
    73
1070
     1
1070
    44
1040
1.0
1070
    74
1070
     0
1000
MTEXTEND
1000
MTEXTBEGIN
1070
    73
1070
     1
1070
    44
1040
1.0
1070
    74
1070
     0
1000
MTEXTEND
  0
LINE
  5
C61
  8
250
  6
CONTINUOUS
 10
47.500000000000021
 20
-9.5
 30
0.0
 11
56.500000000000028
 21
-9.5
 31
0.0
  0
LINE
  5
C62
  8
250
  6
CONTINUOUS
 10
47.500000000000021
 20
9.5
 30
0.0
 11
56.500000000000028
 21
9.5
 31
0.0
  0
LINE
  5
C63
  8
250
  6
CONTINUOUS
 10
55.500000000000028
 20
-7.269999999999996
 30
0.0
 11
55.500000000000028
 21
7.269999999999996
 31
0.0
  0
LINE
  5
C64
  8
250
  6
CONTINUOUS
 10
43.779818760157852
 20
11.232050807477719
 30
0.0
 11
49.754103700000002
 21
21.579815859999979
 31
0.0
1001
ACAD
1000
DSTYLE
1002
{
1070
     6
1000
OPEN
1070
    41
1040
2.0
1070
    42
1040
2.0
1070
    44
1040
2.0
1070
    79
1070
     2
1070
   140
1040
4.0
1070
   179
1070
     3
1070
   343
1005
0
1070
   371
1070
    -1
1070
   372
1070
    -1
1002
}
  0
TEXT
  5
C65
  8
250
  6
CONTINUOUS
 10
54.500000000000007
 20
-3.8666666666666649
 30
0.0
 40
2.799999999999998
  1
\U+220519
 50
90.0
1001
ACAD
1000
MTEXTBEGIN
1070
    73
1070
     1
1070
    44
1040
1.0
1070
    74
1070
     0
1000
MTEXTEND
  0
LINE
  5
C66
  8
250
  6
CONTINUOUS
 10
55.128333333333359
 20
7.269999999999996
 30
0.0
 11
55.500000000000028
 21
9.5
 31
0.0
  0
LINE
  5
C67
  8
250
  6
CONTINUOUS
 10
55.871666666666677
 20
7.269999999999996
 30
0.0
 11
55.500000000000028
 21
9.5
 31
0.0
  0
LINE
  5
C68
  8
250
  6
CONTINUOUS
 10
55.500000000000028
 20
9.5
 30
0.0
 11
55.500000000000028
 21
7.269999999999996
 31
0.0
  0
LINE
  5
C69
  8
250
  6
CONTINUOUS
 10
55.871666666666677
 20
-7.269999999999996
 30
0.0
 11
55.500000000000028
 21
-9.5
 31
0.0
  0
LINE
  5
C6A
  8
250
  6
CONTINUOUS
 10
55.128333333333359
 20
-7.269999999999996
 30
0.0
 11
55.500000000000028
 21
-9.5
 31
0.0
  0
LINE
  5
C6B
  8
250
  6
CONTINUOUS
 10
55.500000000000028
 20
-9.5
 30
0.0
 11
55.500000000000028
 21
-7.269999999999996
 31
0.0
  0
LINE
  5
C6C
  8
250
  6
CONTINUOUS
 10
44.06849389473745
 20
11.065384140784751
 30
0.0
 11
42.779818759999998
 21
9.4999999999999822
 31
0.0
  0
LINE
  5
C6D
  8
250
  6
CONTINUOUS
 10
43.491143625578218
 20
11.398717474170679
 30
0.0
 11
42.779818759999998
 21
9.4999999999999822
 31
0.0
  0
LINE
  5
C6E
  8
250
  6
CONTINUOUS
 10
42.779818759999998
 20
9.4999999999999822
 30
0.0
 11
43.779818760157852
 21
11.232050807477719
 31
0.0
  0
LINE
  5
C6F
  8
243
  6
HIDDEN2
 10
47.000000000000007
 20
-5.5000000000000249
 30
0.0
 11
32.950000000000038
 21
-5.5000000000000284
 31
0.0
  0
LINE
  5
C99
  8
247
  6
CONTINUOUS
 10
3.7057495806337921
 20
-7.6671580554769028
 30
0.0
 11
3.705749580633849
 21
-3.0325426711468988
 31
0.0
  0
LINE
  5
C9A
  8
247
  6
CONTINUOUS
 10
1.205749580633849
 20
-6.8720515554648207
 30
0.0
 11
3.3057495805498571
 21
-7.4742168655342587
 31
0.0
  0
LINE
  5
C9B
  8
247
  6
CONTINUOUS
 10
2.201903426747847
 20
-6.2423094589959467
 30
0.0
 11
2.201903426747847
 21
-7.1576940743439357
 31
0.0
  0
ARC
  5
C9C
  8
247
  6
CONTINUOUS
 10
1.5904686479279491
 20
-6.0044214574236596
 30
0.0
 40
0.3876715809326743
 50
72.99788967529301
 51
172.92416621851351
  0
ARC
  5
C9D
  8
247
  6
CONTINUOUS
 10
1.5109727116618641
 20
-6.29963561228098
 30
0.0
 40
0.6933047965358766
 50
4.7429368522022122
 51
73.849226273266297
1001
GENIUS_GENOBJ-N-FIL_13
1002
{
1000
OWNER
1000
GEN
1002
}
1001
GENIUS_GENODEF_13
1002
{
1000
HIER
1070
     0
1002
}
1002
{
1000
MANEDIT
1070
     0
1002
}
1002
{
1000
NOSEL
1070
     0
1002
}
1002
{
1000
BEHIND
1070
     0
1002
}
1002
{
1000
OTHER
1070
     0
1002
}
1002
{
1000
REACTOR
1002
}
  0
LINE
  5
C9E
  8
247
  6
CONTINUOUS
 10
3.3057495805498571
 20
-6.5588322501862697
 30
0.0
 11
3.3057495805498571
 21
-7.4742168655342587
 31
0.0
  0
LINE
  5
C9F
  8
247
  6
CONTINUOUS
 10
1.205749580633849
 20
-6.8720515554648207
 30
0.0
 11
1.205749580633849
 21
-5.9566669401168317
 31
0.0
  0
ARC
  5
CA0
  8
247
  6
CONTINUOUS
 10
2.593166543401721
 20
-6.2954645317437041
 30
0.0
 40
0.394857301075386
 50
65.990941652528861
 51
172.26344345906909
  0
ARC
  5
CA1
  8
247
  6
CONTINUOUS
 10
2.596949907966418
 20
-6.6296046659038259
 30
0.0
 40
0.7123241612361686
 50
5.701985164256504
 51
77.277338436822333
1001
GENIUS_GENOBJ-N-FIL_13
1002
{
1000
OWNER
1000
GEN
1002
}
1001
GENIUS_GENODEF_13
1002
{
1000
HIER
1070
     0
1002
}
1002
{
1000
MANEDIT
1070
     0
1002
}
1002
{
1000
NOSEL
1070
     0
1002
}
1002
{
1000
BEHIND
1070
     0
1002
}
1002
{
1000
OTHER
1070
     0
1002
}
1002
{
1000
REACTOR
1002
}
  0
LINE
  5
CA2
  8
247
  6
CONTINUOUS
 10
3.3057495805498571
 20
-5.6011399425402431
 30
0.0
 11
1.205749580633849
 21
-4.998974632470861
 31
0.0
  0
LINE
  5
CA3
  8
247
  6
CONTINUOUS
 10
1.205749580633849
 20
-3.50282078638483
 30
0.0
 11
1.205749580633849
 21
-3.898836419780451
 31
0.0
  0
LINE
  5
CA4
  8
247
  6
CONTINUOUS
 10
3.3057495805498571
 20
-4.525897709420831
 30
0.0
 11
3.3057495805498571
 21
-4.0951284786688404
 31
0.0
  0
ARC
  5
CA5
  8
247
  6
CONTINUOUS
 10
2.66404917571721
 20
-3.2989746325468161
 30
0.0
 40
1.5768550576395479
 50
202.3594881415294
 51
254.99324854284649
  0
ARC
  5
CA6
  8
247
  6
CONTINUOUS
 10
1.7715684391719859
 20
-3.7646694216100789
 30
0.0
 40
0.6234706797009447
 50
94.994589319075317
 51
155.1663289573041
1001
GENIUS_GENOBJ-N-FIL_13
1002
{
1000
OWNER
1000
GEN
1002
}
1001
GENIUS_GENODEF_13
1002
{
1000
HIER
1070
     0
1002
}
1002
{
1000
MANEDIT
1070
     0
1002
}
1002
{
1000
NOSEL
1070
     0
1002
}
1002
{
1000
BEHIND
1070
     0
1002
}
1002
{
1000
OTHER
1070
     0
1002
}
1002
{
1000
REACTOR
1002
}
  0
ARC
  5
CA7
  8
247
  6
CONTINUOUS
 10
2.3678517026032888
 20
-4.3613420065096591
 30
0.0
 40
0.9749472149106983
 50
15.846096555780671
 51
82.325137004169065
  0
ARC
  5
CA8
  8
247
  6
CONTINUOUS
 10
2.577219982604916
 20
-3.9523696942490849
 30
0.0
 40
0.9271945638692009
 50
249.7136016704969
 51
321.78874565641092
1001
GENIUS_GENOBJ-N-FIL_13
1002
{
1000
OWNER
1000
GEN
1002
}
1001
GENIUS_GENODEF_13
1002
{
1000
HIER
1070
     0
1002
}
1002
{
1000
MANEDIT
1070
     0
1002
}
1002
{
1000
NOSEL
1070
     0
1002
}
1002
{
1000
BEHIND
1070
     0
1002
}
1002
{
1000
OTHER
1070
     0
1002
}
1002
{
1000
REACTOR
1002
}
  0
LINE
  5
CA9
  8
247
  6
CONTINUOUS
 10
2.4980572728898229
 20
-3.8797438632928158
 30
0.0
 11
2.4980572728898229
 21
-3.3951284786968752
 31
0.0
  0
ARC
  5
CAA
  8
247
  6
CONTINUOUS
 10
2.455749580633849
 20
-7.6671580554769028
 30
0.0
 40
1.25
 50
180.0
 51
0.0
  0
LINE
  5
CAB
  8
247
  6
CONTINUOUS
 10
1.205749580633849
 20
-7.6671580554769028
 30
0.0
 11
1.205749580633849
 21
-7.2210042093908831
 31
0.0
  0
ARC
  5
CAC
  8
247
  6
CONTINUOUS
 10
2.455749580633849
 20
-3.0325426711468988
 30
0.0
 40
1.25
 50
0.0
 51
180.0
  0
LINE
  5
CAD
  8
241
  6
CONTINUOUS
 10
41.000000000000028
 20
-0.5773502700000001
 30
0.0
 11
42.000000000000021
 21
-1.1547005400000001
 31
0.0
  0
LINE
  5
CAE
  8
241
  6
CONTINUOUS
 10
42.000000000000021
 20
-1.1547005400000001
 30
0.0
 11
43.000000000000028
 21
-0.5773502700000001
 31
0.0
  0
LINE
  5
CAF
  8
241
  6
CONTINUOUS
 10
43.000000000000028
 20
-0.5773502700000001
 30
0.0
 11
43.000000000000028
 21
0.5773502700000001
 31
0.0
  0
LINE
  5
CB0
  8
241
  6
CONTINUOUS
 10
43.000000000000028
 20
0.5773502700000001
 30
0.0
 11
42.000000000000021
 21
1.1547005400000001
 31
0.0
  0
LINE
  5
CB1
  8
241
  6
CONTINUOUS
 10
42.000000000000021
 20
1.1547005400000001
 30
0.0
 11
41.000000000000028
 21
0.5773502700000001
 31
0.0
  0
LINE
  5
CB2
  8
241
  6
CONTINUOUS
 10
41.000000000000028
 20
0.5773502700000001
 30
0.0
 11
41.000000000000028
 21
-0.5773502700000001
 31
0.0
  0
TEXT
  5
CB3
  8
250
  6
CONTINUOUS
 10
-76.391349793333333
 20
-19.978308999999999
 30
0.0
 40
2.7999999999999989
  1
MT3
  7
YOKO
1001
ITEMNAME
1000
LNSP3
1001
ACAD
1000
MTEXTBEGIN
1070
    73
1070
     1
1070
    44
1040
1.0
1070
    74
1070
     0
1000
MTEXTEND
1000
MTEXTBEGIN
1070
    73
1070
     1
1070
    44
1040
1.0
1070
    74
1070
     0
1000
MTEXTEND
  0
LINE
  5
CB6
  8
250
  6
CONTINUOUS
 10
0.0
 20
13.4125
 30
0.0
 11
0.000000000000001
 21
29.0
 31
0.0
  0
LINE
  5
CB7
  8
250
  6
CONTINUOUS
 10
47.0
 20
10.0
 30
0.0
 11
47.0
 21
29.0
 31
0.0
  0
LINE
  5
CB8
  8
250
  6
CONTINUOUS
 10
2.23
 20
28.0
 30
0.0
 11
44.770000000000003
 21
28.0
 31
0.0
  0
LINE
  5
CBC
  8
250
  6
CONTINUOUS
 10
-60.862353790121972
 20
-12.094627320368881
 30
0.0
 11
-65.991349800000009
 21
-20.978308999999999
 31
0.0
1001
ACAD
1000
DSTYLE
1002
{
1070
     6
1000
OPEN
1070
   343
1005
594
1002
}
  0
LINE
  5
CBD
  8
250
  6
CONTINUOUS
 10
-61.184226565183437
 20
-11.908793987015221
 30
0.0
 11
-59.747353789999998
 21
-10.16339067
 31
0.0
  0
LINE
  5
CBE
  8
250
  6
CONTINUOUS
 10
-60.540481015060479
 20
-12.280460653722541
 30
0.0
 11
-59.747353789999998
 21
-10.16339067
 31
0.0
  0
LINE
  5
CBF
  8
250
  6
CONTINUOUS
 10
-59.747353789999998
 20
-10.16339067
 30
0.0
 11
-60.862353790121972
 21
-12.094627320368881
 31
0.0
  0
TEXT
  5
CC0
  8
250
  6
CONTINUOUS
 10
20.833333333333339
 20
29.0
 30
0.0
 40
2.7999999999999989
  1
47
  0
LINE
  5
CC1
  8
250
  6
CONTINUOUS
 10
44.770000000000003
 20
28.371666666666659
 30
0.0
 11
47.0
 21
28.0
 31
0.0
  0
LINE
  5
CC2
  8
250
  6
CONTINUOUS
 10
44.770000000000003
 20
27.62833333333333
 30
0.0
 11
47.0
 21
28.0
 31
0.0
  0
LINE
  5
CC3
  8
250
  6
CONTINUOUS
 10
47.0
 20
28.0
 30
0.0
 11
44.770000000000003
 21
28.0
 31
0.0
  0
LINE
  5
CC4
  8
250
  6
CONTINUOUS
 10
2.23
 20
27.62833333333333
 30
0.0
 11
0.0000000000000009
 21
28.0
 31
0.0
  0
LINE
  5
CC5
  8
250
  6
CONTINUOUS
 10
2.23
 20
28.371666666666659
 30
0.0
 11
0.0000000000000009
 21
28.0
 31
0.0
  0
LINE
  5
CC6
  8
250
  6
CONTINUOUS
 10
0.0000000000000009
 20
28.0
 30
0.0
 11
2.23
 21
28.0
 31
0.0
  0
VIEWPORT
  5
22
 67
     1
  8
0
 10
261.51769911999997
 20
148.5
 30
0.0
 40
523.03539823000006
 41
297.0
 68
     1
 69
     1
1001
ACAD
1000
MVIEW
1002
{
1070
    16
1010
0.0
1020
0.0
1030
0.0
1010
0.0
1020
0.0
1030
1.0
1040
0.0
1040
297.0
1040
261.51769911999997
1040
148.5
1040
50.0
1040
0.0
1040
0.0
1070
     0
1070
   100
1070
     1
1070
     1
1070
     0
1070
     0
1070
     0
1070
     0
1040
0.0
1040
0.0
1040
0.0
1040
1.0
1040
1.0
1040
10.0
1040
10.0
1070
     0
1002
{
1002
}
1002
}
1001
GENIUS_GENOBJ-N-SDF_13
1002
{
1000
OWNER
1000
GEN
1002
}
1001
GENIUS_GENODEF_13
1002
{
1000
HIER
1070
     0
1002
}
1002
{
1000
MANEDIT
1070
     0
1002
}
1002
{
1000
NOSEL
1070
     0
1002
}
1002
{
1000
BEHIND
1070
     0
1002
}
1002
{
1000
OTHER
1070
     0
1002
}
1002
{
1000
REACTOR
1002
}
1001
GENIUS_GENSCREG_15
1000
PF
1040
1.0
1000
DF
1040
1.0
1000
MIN
1011
0.0000000049999471
1021
0.0
1031
0.0
1021
0.0
1031
0.0
1000
MAX
1011
523.035398235
1021
0.0
1031
0.0
1021
297.0
1031
0.0
1000
FLAGS
1070
     4
  0
ENDSEC
  0
EOF
