  0
SECTION
  2
HEADER
  9
$ACADVER
  1
AC1009
  9
$INSBASE
 10
0.0
 20
0.0
 30
0.0
  9
$EXTMIN
 10
-47.617489896762201
 20
-23.467801395030559
 30
-0.0000000349181948
  9
$EXTMAX
 10
22.002204873837861
 20
47.012842642325431
 30
0.0000000814935747
  9
$LIMMIN
 10
0.0
 20
0.0
  9
$LIMMAX
 10
297.0
 20
210.0
  9
$ORTHOMODE
 70
     0
  9
$REGENMODE
 70
     1
  9
$FILLMODE
 70
     1
  9
$QTEXTMODE
 70
     0
  9
$MIRRTEXT
 70
     1
  9
$DRAGMODE
 70
     2
  9
$LTSCALE
 40
10.0
  9
$OSMODE
 70
   639
  9
$ATTMODE
 70
     1
  9
$TEXTSIZE
 40
3.0
  9
$TRACEWID
 40
1.0
  9
$TEXTSTYLE
  7
YOKO
  9
$CLAYER
  8
240
  9
$CELTYPE
  6
BYLAYER
  9
$CECOLOR
 62
   256
  9
$DIMSCALE
 40
1.0
  9
$DIMASZ
 40
2.2299999999999991
  9
$DIMEXO
 40
0.5
  9
$DIMDLI
 40
2.5
  9
$DIMRND
 40
0.0
  9
$DIMDLE
 40
0.0
  9
$DIMEXE
 40
1.0
  9
$DIMTP
 40
0.0
  9
$DIMTM
 40
0.0
  9
$DIMTXT
 40
3.0
  9
$DIMCEN
 40
0.0
  9
$DIMTSZ
 40
0.0
  9
$DIMTOL
 70
     0
  9
$DIMLIM
 70
     0
  9
$DIMTIH
 70
     0
  9
$DIMTOH
 70
     0
  9
$DIMSE1
 70
     0
  9
$DIMSE2
 70
     0
  9
$DIMTAD
 70
     3
  9
$DIMZIN
 70
     8
  9
$DIMBLK
  1
OPEN
  9
$DIMASO
 70
     1
  9
$DIMSHO
 70
     1
  9
$DIMPOST
  1

  9
$DIMAPOST
  1

  9
$DIMALT
 70
     0
  9
$DIMALTD
 70
     2
  9
$DIMALTF
 40
25.399999999999999
  9
$DIMLFAC
 40
1.0
  9
$DIMTOFL
 70
     1
  9
$DIMTVP
 40
0.0
  9
$DIMTIX
 70
     0
  9
$DIMSOXD
 70
     0
  9
$DIMSAH
 70
     0
  9
$DIMBLK1
  1

  9
$DIMBLK2
  1

  9
$DIMSTYLE
  2
BIGT
  9
$DIMCLRD
 70
   256
  9
$DIMCLRE
 70
   256
  9
$DIMCLRT
 70
    40
  9
$DIMTFAC
 40
1.0
  9
$DIMGAP
 40
1.0
  9
$LUNITS
 70
     2
  9
$LUPREC
 70
     2
  9
$SKETCHINC
 40
1.0
  9
$FILLETRAD
 40
0.0
  9
$AUNITS
 70
     0
  9
$AUPREC
 70
     3
  9
$MENU
  1
.
  9
$ELEVATION
 40
0.0
  9
$PELEVATION
 40
0.0
  9
$THICKNESS
 40
0.0
  9
$LIMCHECK
 70
     0
  9
$BLIPMODE
 70
     0
  9
$CHAMFERA
 40
10.0
  9
$CHAMFERB
 40
10.0
  9
$SKPOLY
 70
     0
  9
$TDCREATE
 40
2452880.4648967362
  9
$TDUPDATE
 40
2453612.5582237379
  9
$TDINDWG
 40
0.0696534838
  9
$TDUSRTIMER
 40
0.0696533102
  9
$USRTIMER
 70
     1
  9
$ANGBASE
 50
0.0
  9
$ANGDIR
 70
     0
  9
$PDMODE
 70
    35
  9
$PDSIZE
 40
2.0
  9
$PLINEWID
 40
0.0
  9
$COORDS
 70
     2
  9
$SPLFRAME
 70
     0
  9
$SPLINETYPE
 70
     6
  9
$SPLINESEGS
 70
     8
  9
$ATTDIA
 70
     1
  9
$ATTREQ
 70
     1
  9
$HANDLING
 70
     1
  9
$HANDSEED
  5
2B98
  9
$SURFTAB1
 70
     6
  9
$SURFTAB2
 70
     6
  9
$SURFTYPE
 70
     6
  9
$SURFU
 70
     6
  9
$SURFV
 70
     6
  9
$UCSNAME
  2

  9
$UCSORG
 10
0.0
 20
0.0
 30
0.0
  9
$UCSXDIR
 10
1.0
 20
0.0
 30
0.0
  9
$UCSYDIR
 10
0.0
 20
1.0
 30
0.0
  9
$PUCSNAME
  2

  9
$PUCSORG
 10
0.0
 20
0.0
 30
0.0
  9
$PUCSXDIR
 10
1.0
 20
0.0
 30
0.0
  9
$PUCSYDIR
 10
0.0
 20
1.0
 30
0.0
  9
$USERI1
 70
     1
  9
$USERI2
 70
     0
  9
$USERI3
 70
     0
  9
$USERI4
 70
     0
  9
$USERI5
 70
     0
  9
$USERR1
 40
0.0
  9
$USERR2
 40
0.0
  9
$USERR3
 40
0.0
  9
$USERR4
 40
0.0
  9
$USERR5
 40
0.0
  9
$WORLDVIEW
 70
     1
  9
$SHADEDGE
 70
     3
  9
$SHADEDIF
 70
    70
  9
$TILEMODE
 70
     1
  9
$MAXACTVP
 70
    16
  9
$PLIMCHECK
 70
     0
  9
$PEXTMIN
 10
1.0000000000000000E+020
 20
1.0000000000000000E+020
 30
1.0000000000000000E+020
  9
$PEXTMAX
 10
-1.0000000000000000E+020
 20
-1.0000000000000000E+020
 30
-1.0000000000000000E+020
  9
$PLIMMIN
 10
0.0
 20
0.0
  9
$PLIMMAX
 10
420.0
 20
297.0
  9
$UNITMODE
 70
     0
  9
$VISRETAIN
 70
     0
  9
$PLINEGEN
 70
     0
  9
$PSLTSCALE
 70
     1
  0
ENDSEC
  0
SECTION
  2
TABLES
  0
TABLE
  2
VPORT
 70
    17
  0
VPORT
  2
*ACTIVE
 70
     0
 10
0.0
 20
0.0
 11
1.0
 21
1.0
 12
-12.807642511462181
 22
11.77252062364744
 13
0.0
 23
0.0
 14
7.0
 24
7.0
 15
7.0
 25
7.0
 16
0.0
 26
0.0
 36
1.0
 17
0.0
 27
0.0
 37
0.0
 40
70.90142400175813
 41
1.266932270916334
 42
50.0
 43
0.0
 44
0.0
 50
0.0
 51
0.0
 71
     0
 72
  2000
 73
     1
 74
     0
 75
     0
 76
     0
 77
     0
 78
     0
  0
ENDTAB
  0
TABLE
  2
LTYPE
 70
    16
  0
LTYPE
  2
CONTINUOUS
 70
     0
  3
Solid line
 72
    65
 73
     0
 40
0.0
  0
LTYPE
  2
CENTER2
 70
     0
  3
___ _ ___ _ ___ _ ___ _ ___ _ ___ _ ___ _ ___ _
 72
    65
 73
     4
 40
1.125
 49
0.75
 49
-0.125
 49
0.125
 49
-0.125
  0
LTYPE
  2
HIDDEN2
 70
     0
  3
_ _ _ _ _ _ _ _ _ _ _ _ _ _ _ _ _ _ _ _ _ _ _ _
 72
    65
 73
     2
 40
0.1875
 49
0.125
 49
-0.0625
  0
LTYPE
  2
HIDDEN
 70
     0
  3
Hidden __ __ __ __ __ __ __ __ __ __ __ __ __ _
 72
    65
 73
     2
 40
9.5249999999999986
 49
6.3499999999999988
 49
-3.1749999999999989
  0
LTYPE
  2
PHANTOM2
 70
     0
  3
Phantom (.5x) ___ _ _ ___ _ _ ___ _ _ ___ _ _
 72
    65
 73
     6
 40
31.75
 49
15.875
 49
-3.1749999999999989
 49
3.1749999999999989
 49
-3.1749999999999989
 49
3.1749999999999989
 49
-3.1749999999999989
  0
LTYPE
  2
CENTER
 70
     0
  3
Center ____ _ ____ _ ____ _ ____ _ ____ _ ____
 72
    65
 73
     4
 40
50.799999999999997
 49
31.75
 49
-6.3499999999999988
 49
6.3499999999999988
 49
-6.3499999999999988
  0
LTYPE
  2
AM_ISO02W050
 70
     0
  3
__ __ __ __ __ __ __ __ __ __ __ __ __ __ __
 72
    65
 73
     2
 40
7.5
 49
6.0
 49
-1.5
  0
LTYPE
  2
AM_ISO08W050
 70
     0
  3
____ . ____ . ____ . ____ . ____ . ____ . ____
 72
    65
 73
     4
 40
18.0
 49
12.0
 49
-1.5
 49
3.0
 49
-1.5
  0
LTYPE
  2
AM_ISO09W050
 70
     0
  3
_____ . . _____ . . _____ . . ____ .. ____
 72
    65
 73
     6
 40
22.5
 49
12.0
 49
-1.5
 49
3.0
 49
-1.5
 49
3.0
 49
-1.5
  0
LTYPE
  2
AMCONSTR
 70
     0
  3
_______________________
 72
    65
 73
     2
 40
9999.0
 49
9999.0
 49
0.0
  0
LTYPE
  2
AM_ISO08W050X2
 70
     0
  3
__ . __ . __ . __ . __ . __
 72
    65
 73
     4
 40
9.0
 49
6.0
 49
-0.75
 49
1.5
 49
-0.75
  0
LTYPE
  2
AM_ISO02W050X2
 70
     0
  3
 _ _ _ _ _ _ _ _ _ _ _ _
 72
    65
 73
     2
 40
3.75
 49
3.0
 49
-0.75
  0
LTYPE
  2
AMZIGZAG
 70
     0
  3
/\/-/\/-/\/-/\/-/\/-/\/
 72
    65
 73
     2
 40
11.0001
 49
0.0001
 49
-11.0
  0
LTYPE
  2
ACISOWELD
 70
     0
  3
_ _ _ _ _
 72
    65
 73
     2
 40
2.0
 49
2.0
 49
-1.0
  0
LTYPE
  2
ACISOTGB
 70
     0
  3
__ . . __ . .
 72
    65
 73
     6
 40
9.0
 49
4.0
 49
-1.0
 49
1.0
 49
-1.0
 49
1.0
 49
-1.0
  0
LTYPE
  2
ACISOTGL
 70
     0
  3
_ _ _ _ _
 72
    65
 73
     2
 40
3.0
 49
2.0
 49
-1.0
  0
ENDTAB
  0
TABLE
  2
LAYER
 70
     7
  0
LAYER
  2
0
 70
     0
 62
     7
  6
CONTINUOUS
  0
LAYER
  2
240
 70
     0
 62
     4
  6
CONTINUOUS
  0
LAYER
  2
241
 70
     0
 62
   211
  6
CONTINUOUS
  0
LAYER
  2
243
 70
     0
 62
   211
  6
HIDDEN2
  0
LAYER
  2
245
 70
     0
 62
     2
  6
CENTER2
  0
LAYER
  2
250
 70
     0
 62
     3
  6
CONTINUOUS
  0
LAYER
  2
DEFPOINTS
 70
     0
 62
     7
  6
CONTINUOUS
  0
ENDTAB
  0
TABLE
  2
STYLE
 70
     5
  0
STYLE
  2
STANDARD
 70
     0
 40
0.0
 41
1.0
 50
0.0
 71
     0
 42
3.0
  3
romans.shx
  4
BIGFONT.SHX
  0
STYLE
  2
YOKO
 70
     0
 40
0.0
 41
1.0
 50
0.0
 71
     0
 42
3.0
  3
romans.shx
  4
extfont.shx
  0
STYLE
  2

 70
     1
 40
0.0
 41
1.0
 50
0.0
 71
     0
 42
3.0
  3
ltypeshp.shx
  4

  0
STYLE
  2
ACISOTS
 70
     0
 40
1.0
 41
1.0
 50
0.0
 71
     0
 42
3.0
  3
isocp.shx
  4
extfont.shx
  0
STYLE
  2
ACISOGDT
 70
     0
 40
0.0
 41
1.0
 50
0.0
 71
     0
 42
3.0
  3
amgdt.shx
  4

  0
ENDTAB
  0
TABLE
  2
VIEW
 70
     1
  0
VIEW
  2
OLE1
 70
     0
 40
77.499082256445774
 10
-10.98937271570578
 20
12.769510003097221
 41
109.989449663587
 11
0.0
 21
0.0
 31
1.0
 12
0.0
 22
0.0
 32
0.0
 42
50.0
 43
0.0
 44
0.0
 50
0.0
 71
     0
  0
ENDTAB
  0
TABLE
  2
UCS
 70
     0
  0
ENDTAB
  0
TABLE
  2
APPID
 70
    16
  0
APPID
  2
ACAD
 70
     0
  0
APPID
  2
GLOBAL
 70
     0
  0
APPID
  2
DETAIL
 70
     0
  0
APPID
  2
GRPNAME
 70
     0
  0
APPID
  2
GPARA
 70
     0
  0
APPID
  2
ITEMNAME
 70
     0
  0
APPID
  2
MCAD_NO_VIS
 70
     0
  0
APPID
  2
ACAD_TEMP_GRAPHIC
 70
     0
  0
APPID
  2
AD_DRAW
 70
     0
  0
APPID
  2
ACATTRIBSERVICES
 70
     0
  0
APPID
  2
DESIGNERASSEMBLIES
 70
     0
  0
APPID
  2
ACADM_DIM_EDIT
 70
     0
  0
APPID
  2
AMDT_DM_ADJ
 70
     0
  0
APPID
  2
GENIUS_GENSCREG_15
 70
     0
  0
APPID
  2
GENIUS_GENODEF_13
 70
     0
  0
APPID
  2
GENIUS_GENOBJ-N-SDF_13
 70
     0
  0
ENDTAB
  0
TABLE
  2
DIMSTYLE
 70
     9
  0
DIMSTYLE
  2
STANDARD
 70
     0
  3

  4

  5

  6

  7

 40
1.0
 41
2.0
 42
2.0
 43
3.75
 44
2.0
 45
0.0
 46
0.0
 47
0.0
 48
0.0
140
4.0
141
0.09
142
0.0
143
25.399999999999999
144
1.0
145
0.0
146
1.0
147
1.0
 71
     0
 72
     0
 73
     1
 74
     1
 75
     0
 76
     0
 77
     0
 78
     8
170
     0
171
     2
172
     0
173
     1
174
     0
175
     0
176
   256
177
   256
178
   256
  0
DIMSTYLE
  2
BIGT
 70
     0
  3

  4

  5
OPEN
  6

  7

 40
1.0
 41
2.2299999999999991
 42
0.5
 43
2.5
 44
1.0
 45
0.0
 46
0.0
 47
0.0
 48
0.0
140
3.5
141
0.0
142
0.0
143
25.399999999999999
144
1.0
145
0.0
146
1.0
147
1.0
 71
     0
 72
     0
 73
     0
 74
     0
 75
     0
 76
     0
 77
     3
 78
     9
170
     0
171
     2
172
     1
173
     0
174
     0
175
     0
176
   256
177
   256
178
    40
  0
DIMSTYLE
  2
AM_ISO
 70
     0
  3

  4
"
  5

  6

  7

 40
1.0
 41
2.5
 42
1.0
 43
10.0
 44
1.0
 45
0.0
 46
0.0
 47
0.1
 48
0.1
140
3.5
141
0.0
142
0.0
143
0.0393701
144
1.0
145
0.0
146
0.71
147
1.5
 71
     0
 72
     0
 73
     0
 74
     0
 75
     0
 76
     0
 77
     1
 78
     8
170
     0
171
     2
172
     1
173
     0
174
     0
175
     0
176
   256
177
   256
178
     2
  0
DIMSTYLE
  2
AM_ISO$3
 70
     0
  3

  4
"
  5

  6

  7

 40
1.0
 41
2.5
 42
1.0
 43
10.0
 44
1.0
 45
0.0
 46
0.0
 47
0.1
 48
0.1
140
3.5
141
0.0
142
0.0
143
0.0393701
144
1.0
145
0.0
146
0.71
147
1.5
 71
     0
 72
     0
 73
     0
 74
     1
 75
     0
 76
     0
 77
     1
 78
     8
170
     0
171
     2
172
     0
173
     0
174
     0
175
     0
176
   256
177
   256
178
     2
  0
DIMSTYLE
  2
AM_ISO$4
 70
     0
  3

  4
"
  5

  6

  7

 40
1.0
 41
2.5
 42
1.0
 43
10.0
 44
1.0
 45
0.0
 46
0.0
 47
0.1
 48
0.1
140
3.5
141
0.0
142
0.0
143
0.0393701
144
1.0
145
0.0
146
0.71
147
1.5
 71
     0
 72
     0
 73
     0
 74
     1
 75
     0
 76
     0
 77
     1
 78
     8
170
     0
171
     2
172
     0
173
     0
174
     0
175
     0
176
   256
177
   256
178
     2
  0
DIMSTYLE
  2
AM_ISO$6
 70
     0
  3

  4
"
  5

  6

  7

 40
1.0
 41
2.5
 42
1.0
 43
10.0
 44
1.0
 45
0.0
 46
0.0
 47
0.1
 48
0.1
140
3.5
141
0.0
142
0.0
143
0.0393701
144
1.0
145
0.0
146
0.71
147
1.5
 71
     0
 72
     0
 73
     0
 74
     0
 75
     0
 76
     0
 77
     0
 78
     8
170
     0
171
     2
172
     1
173
     0
174
     0
175
     0
176
   256
177
   256
178
     2
  0
DIMSTYLE
  2
AM_ISO$7
 70
     0
  3

  4
"
  5

  6

  7

 40
1.0
 41
2.5
 42
1.0
 43
10.0
 44
1.0
 45
0.0
 46
0.0
 47
0.1
 48
0.1
140
5.0
141
0.0
142
0.0
143
0.0393701
144
1.0
145
0.0
146
0.71
147
1.5
 71
     0
 72
     0
 73
     0
 74
     0
 75
     0
 76
     0
 77
     1
 78
     8
170
     0
171
     2
172
     1
173
     0
174
     0
175
     0
176
   256
177
   256
178
     2
  0
DIMSTYLE
  2
AM_ISO$SF
 70
     0
  3

  4
"
  5

  6

  7

 40
1.0
 41
2.5
 42
1.0
 43
10.0
 44
1.0
 45
0.0
 46
0.0
 47
0.1
 48
0.1
140
3.5
141
0.0
142
0.0
143
0.0393701
144
1.0
145
0.0
146
0.71
147
1.5
 71
     0
 72
     0
 73
     0
 74
     0
 75
     1
 76
     1
 77
     1
 78
     8
170
     0
171
     2
172
     1
173
     0
174
     0
175
     0
176
   256
177
   256
178
     2
  0
DIMSTYLE
  2
AM_ISO$SH
 70
     0
  3

  4
"
  5

  6
GENAXEH
  7

 40
1.0
 41
2.5
 42
1.0
 43
10.0
 44
1.0
 45
0.0
 46
0.0
 47
0.1
 48
0.1
140
3.5
141
0.0
142
0.0
143
0.0393701
144
2.0
145
0.0
146
0.71
147
1.5
 71
     0
 72
     0
 73
     0
 74
     0
 75
     1
 76
     1
 77
     1
 78
     8
170
     0
171
     2
172
     1
173
     1
174
     0
175
     0
176
   256
177
   256
178
     2
  0
ENDTAB
  0
ENDSEC
  0
SECTION
  2
BLOCKS
  0
BLOCK
  8
0
  2
$MODEL_SPACE
 70
     0
 10
0.0
 20
0.0
 30
0.0
  3
$MODEL_SPACE
  1

  0
ENDBLK
  5
1C
  8
0
  0
BLOCK
 67
     1
  8
0
  2
$PAPER_SPACE
 70
     0
 10
0.0
 20
0.0
 30
0.0
  3
$PAPER_SPACE
  1

  0
ENDBLK
  5
19
 67
     1
  8
0
  0
BLOCK
  8
0
  2
_OPEN
 70
     0
 10
0.0
 20
0.0
 30
0.0
  3
_OPEN
  1

  0
LINE
  5
595
  8
0
  6
BYBLOCK
 62
     0
 10
-1.0
 20
0.1666666666666666
 30
0.0
 11
0.0
 21
0.0
 31
0.0
  0
LINE
  5
596
  8
0
  6
BYBLOCK
 62
     0
 10
-1.0
 20
-0.1666666666666666
 30
0.0
 11
0.0
 21
0.0
 31
0.0
  0
LINE
  5
597
  8
0
  6
BYBLOCK
 62
     0
 10
0.0
 20
0.0
 30
0.0
 11
-1.0
 21
0.0
 31
0.0
  0
ENDBLK
  5
599
  8
0
  0
BLOCK
  8
0
  2
A$C71E42CA7
 70
     0
 10
0.0
 20
0.0
 30
0.0
  3
A$C71E42CA7
  1

  0
LINE
  5
2A3B
  8
240
 10
-4.5999999999999943
 20
19.112949874816358
 30
0.0
 11
-4.5999999999999943
 21
22.000000000000021
 31
0.0
1001
GRPNAME
1000
PASTMDHA
  0
LINE
  5
2A3C
  8
241
 10
-28.085857157145711
 20
0.0
 30
0.0
 11
-28.085857157145711
 21
23.000000000000021
 31
0.0
1001
GRPNAME
1000
PASTMDHA
  0
LINE
  5
2A3D
  8
241
 10
-29.73674969975977
 20
0.0
 30
0.0
 11
-29.73674969975977
 21
23.349999999999991
 31
0.0
1001
GRPNAME
1000
PASTMDHA
  0
LINE
  5
2A3E
  8
240
 10
-31.799999999999979
 20
0.0
 30
0.0
 11
-31.799999999999979
 21
22.849999999999991
 31
0.0
1001
GRPNAME
1000
PASTMDHA
  0
LINE
  5
2A3F
  8
243
 10
-13.19999999999996
 20
14.25000000000002
 30
0.0
 11
-45.59999999999998
 21
10.84462277737733
 31
0.0
1001
GRPNAME
1000
NBS20 0Z
  0
LINE
  5
2A40
  8
245
 10
-47.596458681809587
 20
0.0
 30
0.0
 11
1.3524573908453299
 21
0.0
 31
0.0
1001
GRPNAME
1000
PASTMDHA
  0
LINE
  5
2A41
  8
243
 10
-13.19999999999996
 20
-14.25000000000002
 30
0.0
 11
-45.59999999999998
 21
-10.84462277737733
 31
0.0
1001
GRPNAME
1000
NBS20 10
  0
LINE
  5
2A42
  8
243
 10
-45.59999999999998
 20
9.5
 30
0.0
 11
-7.9000000000000608
 21
9.5
 31
0.0
  0
LINE
  5
2A43
  8
243
 10
-45.59999999999998
 20
-9.5
 30
0.0
 11
-7.9000000000000608
 21
-9.5
 31
0.0
  0
LINE
  5
2A44
  8
243
 10
-45.59999999999998
 20
0.0
 30
0.0
 11
-45.59999999999998
 21
10.844622777392059
 31
0.0
1001
GRPNAME
1000
NBS20 0Z
  0
LINE
  5
2A45
  8
243
 10
-45.59999999999998
 20
0.0
 30
0.0
 11
-45.59999999999998
 21
-10.844622777392059
 31
0.0
1001
GRPNAME
1000
NBS20 10
  0
LINE
  5
2A46
  8
241
 10
-4.5999999999999943
 20
-19.112949874816358
 30
0.0
 11
-4.5999999999999943
 21
0.0
 31
0.0
1001
GRPNAME
1000
PASTMDHB
  0
LINE
  5
2A47
  8
241
 10
-28.085857157145711
 20
0.0
 30
0.0
 11
-28.085857157145711
 21
-23.000000000000021
 31
0.0
1001
GRPNAME
1000
PASTMDHB
  0
LINE
  5
2A48
  8
241
 10
-29.73674969975977
 20
0.0
 30
0.0
 11
-29.73674969975977
 21
-23.349999999999991
 31
0.0
1001
GRPNAME
1000
PASTMDHB
  0
LINE
  5
2A49
  8
240
 10
-31.799999999999979
 20
0.0
 30
0.0
 11
-31.799999999999979
 21
-22.849999999999991
 31
0.0
1001
GRPNAME
1000
PASTMDHB
  0
LINE
  5
2A4A
  8
240
 10
-0.1473656296414845
 20
-14.74690601242772
 30
0.0
 11
-4.5416167127646636
 21
-19.073022758672089
 31
0.0
  0
LINE
  5
2A4B
  8
240
 10
-28.085857157145711
 20
-23.000000000000021
 30
0.0
 11
-5.5999999999999943
 21
-23.000000000000021
 31
0.0
1001
GRPNAME
1000
PASTMDHB
  0
LINE
  5
2A4C
  8
240
 10
-31.299999999999979
 20
-23.349999999999991
 30
0.0
 11
-29.73674969975977
 21
-23.349999999999991
 31
0.0
1001
GRPNAME
1000
PASTMDHB
  0
ARC
  5
2A4D
  8
240
 10
-31.299999999999979
 20
-22.849999999999991
 30
0.0
 40
0.5
 50
180.00000001543759
 51
270.000000015431
1001
GRPNAME
1000
PASTMDHB
  0
ARC
  5
2A4E
  8
240
 10
-28.799999999999979
 20
-23.70000000000001
 30
0.0
 40
1.0000000000000111
 50
44.427004298393399
 51
159.512685182865
1001
GRPNAME
1000
PASTMDHB
  0
LINE
  5
2A4F
  8
240
 10
-4.5999999999999943
 20
-19.112949874816358
 30
0.0
 11
-4.5999999999999943
 21
-22.000000000000021
 31
0.0
1001
GRPNAME
1000
PASTMDHB
  0
ARC
  5
2A50
  8
240
 10
-5.5999999999999943
 20
-22.000000000000021
 30
0.0
 40
1.0
 50
270.00000001286139
 51
0.0000000128647076
1001
GRPNAME
1000
PASTMDHB
  0
ARC
  5
2A51
  8
240
 10
-4.68192882710707
 20
-18.930500793457039
 30
0.0
 40
0.2000000000000976
 50
294.18248191434031
 51
314.55234347064982
  0
LINE
  5
2A52
  8
243
 10
-10.599999999999991
 20
14.25000000000002
 30
0.0
 11
-7.5999999999999943
 21
12.51794919243107
 31
0.0
1001
GRPNAME
1000
NBS20 0Z
  0
LINE
  5
2A53
  8
243
 10
-10.599999999999991
 20
-14.25000000000002
 30
0.0
 11
-7.5999999999999943
 21
-12.51794919243107
 31
0.0
1001
GRPNAME
1000
NBS20 10
  0
LINE
  5
2A54
  8
243
 10
-10.799999999999921
 20
-14.25000000000002
 30
0.0
 11
-10.599999999999991
 21
-14.25000000000002
 31
0.0
1001
GRPNAME
1000
NBS20 10
  0
LINE
  5
2A55
  8
243
 10
-10.799999999999979
 20
-12.50000000000002
 30
0.0
 11
-10.799999999999921
 21
-14.25000000000002
 31
0.0
1001
GRPNAME
1000
NBS20 10
  0
LINE
  5
2A56
  8
243
 10
-13.19999999999996
 20
-12.50000000000002
 30
0.0
 11
-13.19999999999996
 21
-14.25000000000002
 31
0.0
1001
GRPNAME
1000
NBS20 10
  0
LINE
  5
2A57
  8
243
 10
-13.19999999999996
 20
-12.50000000000002
 30
0.0
 11
-10.799999999999979
 21
-12.50000000000002
 31
0.0
1001
GRPNAME
1000
NBS20 10
  0
LINE
  5
2A58
  8
243
 10
-10.799999999999979
 20
12.50000000000002
 30
0.0
 11
-10.799999999999921
 21
14.25000000000002
 31
0.0
1001
GRPNAME
1000
NBS20 0Z
  0
LINE
  5
2A59
  8
243
 10
-10.799999999999921
 20
14.25000000000002
 30
0.0
 11
-10.599999999999991
 21
14.25000000000002
 31
0.0
1001
GRPNAME
1000
NBS20 0Z
  0
LINE
  5
2A5A
  8
243
 10
-13.19999999999996
 20
12.50000000000002
 30
0.0
 11
-13.19999999999996
 21
14.25000000000002
 31
0.0
1001
GRPNAME
1000
NBS20 0Z
  0
LINE
  5
2A5B
  8
243
 10
-13.19999999999996
 20
12.50000000000002
 30
0.0
 11
-10.799999999999979
 21
12.50000000000002
 31
0.0
1001
GRPNAME
1000
NBS20 0Z
  0
LINE
  5
2A5C
  8
243
 10
-7.5999999999999943
 20
0.0
 30
0.0
 11
-7.5999999999999943
 21
12.51794919243107
 31
0.0
1001
GRPNAME
1000
NBS20 0Z
  0
LINE
  5
2A5D
  8
241
 10
-4.5999999999999943
 20
19.112949874816358
 30
0.0
 11
-4.5999999999999943
 21
0.0
 31
0.0
1001
GRPNAME
1000
PASTMDHA
  0
LINE
  5
2A5E
  8
240
 10
0.0
 20
0.0
 30
0.0
 11
0.0
 21
14.46334688574855
 31
0.0
1001
GRPNAME
1000
PASTMD5Y
  0
LINE
  5
2A5F
  8
243
 10
-7.5999999999999943
 20
0.0
 30
0.0
 11
-7.5999999999999943
 21
-12.51794919243107
 31
0.0
1001
GRPNAME
1000
NBS20 10
  0
LINE
  5
2A60
  8
240
 10
0.0
 20
0.0
 30
0.0
 11
0.0
 21
-14.46334688574855
 31
0.0
  0
ARC
  5
2A61
  8
243
 10
-7.9000000000000608
 20
-9.7999999999999527
 30
0.0
 40
0.2999999999999545
 50
0.0000000282917718
 51
90.000000028281136
  0
LINE
  5
2A62
  8
240
 10
0.0
 20
-14.46334688574855
 30
0.0
 11
-0.0151830023530124
 21
-14.52001062194139
 31
0.0
  0
ARC
  5
2A63
  8
240
 10
-0.4981459154975312
 20
-14.390601099390089
 30
0.0
 40
0.5000000000000171
 50
314.55234353848812
 51
345.00000017225273
  0
ARC
  5
2A64
  8
243
 10
-7.9000000000000608
 20
9.7999999999999527
 30
0.0
 40
0.2999999999999545
 50
269.99999996142702
 51
359.99999996141639
  0
LINE
  5
2A65
  8
240
 10
-0.1473656296414845
 20
14.74690601242772
 30
0.0
 11
-4.5416167127646636
 21
19.073022758672089
 31
0.0
1001
GRPNAME
1000
PASTMD5Y
  0
ARC
  5
2A66
  8
240
 10
-4.68192882710707
 20
18.930500793457039
 30
0.0
 40
0.2
 50
45.447656529350169
 51
65.817518085646881
1001
GRPNAME
1000
PASTMD5Y
  0
LINE
  5
2A67
  8
240
 10
0.0
 20
14.46334688574855
 30
0.0
 11
-0.0151830023530124
 21
14.52001062194139
 31
0.0
1001
GRPNAME
1000
PASTMD5Y
  0
ARC
  5
2A68
  8
240
 10
-0.4981459154975312
 20
14.390601099390089
 30
0.0
 40
0.4999999999999955
 50
14.99999982774729
 51
45.44765646151189
1001
GRPNAME
1000
PASTMD5Y
  0
LINE
  5
2A69
  8
240
 10
-28.085857157145711
 20
23.000000000000021
 30
0.0
 11
-5.5999999999999943
 21
23.000000000000021
 31
0.0
1001
GRPNAME
1000
PASTMDHA
  0
LINE
  5
2A6A
  8
240
 10
-31.299999999999979
 20
23.349999999999991
 30
0.0
 11
-29.73674969975977
 21
23.349999999999991
 31
0.0
1001
GRPNAME
1000
PASTMDHA
  0
ARC
  5
2A6B
  8
240
 10
-31.299999999999979
 20
22.849999999999991
 30
0.0
 40
0.5
 50
89.999999987140185
 51
179.9999999871352
1001
GRPNAME
1000
PASTMDHA
  0
ARC
  5
2A6C
  8
240
 10
-28.799999999999979
 20
23.70000000000001
 30
0.0
 40
1.000000000000002
 50
200.4873149022952
 51
315.57299578676708
1001
GRPNAME
1000
PASTMDHA
  0
ARC
  5
2A6D
  8
240
 10
-5.5999999999999943
 20
22.000000000000021
 30
0.0
 40
1.0
 50
0.0000000899747877
 51
90.000000089977988
1001
GRPNAME
1000
PASTMDHA
  0
ENDBLK
  5
2A6F
  8
0
  0
BLOCK
  8
0
  2
GENAXEH
 70
     0
 10
0.0
 20
0.0
 30
0.0
  3
GENAXEH
  1

  0
LINE
  5
2B3A
  8
0
 10
-1.0
 20
0.0
 30
0.0
 11
1.0
 21
0.0
 31
0.0
  0
ENDBLK
  5
2B3C
  8
0
  0
BLOCK
  8
0
  2
*U6
 70
     1
 10
0.0
 20
0.0
 30
0.0
  3
*U6
  1

  0
TEXT
  5
2B8B
  8
250
 62
    40
 10
19.999999999999989
 20
-4.0714285714285721
 30
0.0
 40
3.0
  1
\U+2205
 50
90.0
  0
TEXT
  5
2B8C
  8
250
 62
    40
 10
19.999999999999989
 20
-1.3571428571428581
 30
0.0
 40
3.0
  1
46
 50
90.0
  0
ENDBLK
  5
2B8E
  8
0
  0
BLOCK
  8
0
  2
*U7
 70
     1
 10
0.0
 20
0.0
 30
0.0
  3
*U7
  1

  0
TEXT
  5
2B90
  8
250
 62
    40
 10
12.999999999999989
 20
-8.6571428571428601
 30
0.0
 40
3.0
  1
\U+2205
 50
90.0
  0
TEXT
  5
2B91
  8
250
 62
    40
 10
12.999999999999989
 20
-5.9428571428571457
 30
0.0
 40
3.0
  1
18ü`19
 50
90.0
  0
ENDBLK
  5
2B93
  8
0
  0
ENDSEC
  0
SECTION
  2
ENTITIES
  0
INSERT
  5
2A70
  8
240
  2
A$C71E42CA7
 10
0.0
 20
0.0
 30
0.0
  0
LINE
  5
2B4B
  8
250
 10
-7.4000000001481379
 20
-9.5
 30
0.0
 11
14.999999999999989
 21
-9.5000000000000089
 31
0.0
  0
LINE
  5
2B4C
  8
250
 10
-7.4000000002020272
 20
9.5
 30
0.0
 11
15.0
 21
9.4999999999999911
 31
0.0
  0
LINE
  5
2B4D
  8
250
 10
13.999999999999989
 20
-7.270000000000004
 30
0.0
 11
14.0
 21
7.2699999999999907
 31
0.0
  0
LINE
  5
2B51
  8
250
 10
-5.0999999997755179
 20
-23.000000000000021
 30
0.0
 11
21.999999999999989
 21
-23.000000000000028
 31
0.0
  0
LINE
  5
2B52
  8
250
 10
-5.0999999999999943
 20
23.000000000000021
 30
0.0
 11
21.999999999999989
 21
23.000000000000021
 31
0.0
  0
LINE
  5
2B53
  8
250
 10
20.999999999999989
 20
-20.770000000000032
 30
0.0
 11
21.0
 21
20.770000000000021
 31
0.0
  0
TEXT
  5
2B58
  8
250
 10
19.999999999999989
 20
-4.0714285714285721
 30
0.0
 40
3.0
  1
\U+2205
 50
90.0
1001
ACAD
1000
MTEXTBEGIN
1070
    73
1070
     1
1070
    44
1040
1.0
1070
    74
1070
     0
1000
MTEXTEND
  0
TEXT
  5
2B59
  8
250
 10
19.999999999999989
 20
-1.3571428571428581
 30
0.0
 40
3.0
  1
46
 50
90.0
1001
ACAD
1000
MTEXTBEGIN
1070
    73
1070
     1
1070
    44
1040
1.0
1070
    74
1070
     0
1000
MTEXTEND
  0
LINE
  5
2B5A
  8
250
 10
20.62833333333333
 20
20.770000000000021
 30
0.0
 11
21.0
 21
23.000000000000021
 31
0.0
  0
LINE
  5
2B5B
  8
250
 10
21.37166666666667
 20
20.770000000000021
 30
0.0
 11
21.0
 21
23.000000000000021
 31
0.0
  0
LINE
  5
2B5C
  8
250
 10
21.0
 20
23.000000000000021
 30
0.0
 11
21.0
 21
20.770000000000021
 31
0.0
  0
LINE
  5
2B5D
  8
250
 10
21.371666666666648
 20
-20.770000000000032
 30
0.0
 11
20.999999999999989
 21
-23.000000000000028
 31
0.0
  0
LINE
  5
2B5E
  8
250
 10
20.62833333333332
 20
-20.770000000000032
 30
0.0
 11
20.999999999999989
 21
-23.000000000000028
 31
0.0
  0
LINE
  5
2B5F
  8
250
 10
20.999999999999989
 20
-23.000000000000028
 30
0.0
 11
20.999999999999989
 21
-20.770000000000032
 31
0.0
  0
TEXT
  5
2B60
  8
250
 10
12.999999999999989
 20
-8.6571428571428601
 30
0.0
 40
3.0
  1
\U+2205
 50
90.0
1001
ACAD
1000
MTEXTBEGIN
1070
    73
1070
     1
1070
    44
1040
1.0
1070
    74
1070
     0
1000
MTEXTEND
  0
TEXT
  5
2B61
  8
250
 10
12.999999999999989
 20
-5.9428571428571457
 30
0.0
 40
3.0
  1
18ü`19
 50
90.0
1001
ACAD
1000
MTEXTBEGIN
1070
    73
1070
     1
1070
    44
1040
1.0
1070
    74
1070
     0
1000
MTEXTEND
  0
LINE
  5
2B62
  8
250
 10
13.62833333333333
 20
7.2699999999999916
 30
0.0
 11
14.0
 21
9.4999999999999911
 31
0.0
  0
LINE
  5
2B63
  8
250
 10
14.371666666666661
 20
7.2699999999999916
 30
0.0
 11
14.0
 21
9.4999999999999911
 31
0.0
  0
LINE
  5
2B64
  8
250
 10
14.0
 20
9.4999999999999911
 30
0.0
 11
14.0
 21
7.2699999999999916
 31
0.0
  0
LINE
  5
2B65
  8
250
 10
14.371666666666661
 20
-7.2700000000000102
 30
0.0
 11
13.999999999999989
 21
-9.5000000000000089
 31
0.0
  0
LINE
  5
2B66
  8
250
 10
13.62833333333332
 20
-7.2700000000000102
 30
0.0
 11
13.999999999999989
 21
-9.5000000000000089
 31
0.0
  0
LINE
  5
2B67
  8
250
 10
13.999999999999989
 20
-9.5000000000000089
 30
0.0
 11
13.999999999999989
 21
-7.2700000000000102
 31
0.0
  0
TEXT
  5
2B68
  8
243
 10
-35.952380952380949
 20
42.0
 30
0.0
 40
5.0
  1
MPS20-1819
  7
YOKO
1001
ITEMNAME
1000
DI010
1001
ACAD
1000
MTEXTBEGIN
1070
    73
1070
     1
1070
    44
1040
1.0
1070
    74
1070
     0
1000
MTEXTEND
  0
VIEWPORT
  5
22
 67
     1
  8
0
 10
261.51769911504419
 20
148.5
 30
0.0
 40
523.0353982300885
 41
297.0
 68
     1
 69
     1
1001
ACAD
1000
MVIEW
1002
{
1070
    16
1010
0.0
1020
0.0
1030
0.0
1010
0.0
1020
0.0
1030
1.0
1040
0.0
1040
297.0
1040
261.51769911504419
1040
148.5
1040
50.0
1040
0.0
1040
0.0
1070
     0
1070
   100
1070
     1
1070
     1
1070
     0
1070
     0
1070
     0
1070
     0
1040
0.0
1040
0.0
1040
0.0
1040
1.0
1040
1.0
1040
10.0
1040
10.0
1070
     0
1002
{
1002
}
1002
}
1001
GENIUS_GENODEF_13
1002
{
1000
HIER
1070
     0
1002
}
1002
{
1000
MANEDIT
1070
     0
1002
}
1002
{
1000
NOSEL
1070
     0
1002
}
1002
{
1000
BEHIND
1070
     0
1002
}
1002
{
1000
OTHER
1070
     0
1002
}
1002
{
1000
REACTOR
1002
}
1001
GENIUS_GENOBJ-N-SDF_13
1002
{
1000
OWNER
1000
GEN
1002
}
1001
GENIUS_GENSCREG_15
1000
PF
1040
1.0
1000
DF
1040
1.0
1000
MIN
1011
0.0
1021
0.0
1031
0.0
1021
0.0
1031
0.0
1000
MAX
1011
523.0353982300885
1021
0.0
1031
0.0
1021
297.0
1031
0.0
1000
FLAGS
1070
     2
  0
ENDSEC
  0
EOF
