  0
SECTION
  2
HEADER
  9
$ACADVER
  1
AC1009
  9
$INSBASE
 10
0.0
 20
0.0
 30
0.0
  9
$EXTMIN
 10
-44.11727595694947
 20
-21.467679332164209
 30
-0.0000000349181948
  9
$EXTMAX
 10
22.01069529855647
 20
47.014091552899629
 30
0.0000000814935747
  9
$LIMMIN
 10
0.0
 20
0.0
  9
$LIMMAX
 10
297.0
 20
210.0
  9
$ORTHOMODE
 70
     0
  9
$REGENMODE
 70
     1
  9
$FILLMODE
 70
     1
  9
$QTEXTMODE
 70
     0
  9
$MIRRTEXT
 70
     1
  9
$DRAGMODE
 70
     2
  9
$LTSCALE
 40
10.0
  9
$OSMODE
 70
   639
  9
$ATTMODE
 70
     1
  9
$TEXTSIZE
 40
3.0
  9
$TRACEWID
 40
1.0
  9
$TEXTSTYLE
  7
YOKO
  9
$CLAYER
  8
240
  9
$CELTYPE
  6
BYLAYER
  9
$CECOLOR
 62
   256
  9
$DIMSCALE
 40
1.0
  9
$DIMASZ
 40
2.2299999999999991
  9
$DIMEXO
 40
0.5
  9
$DIMDLI
 40
2.5
  9
$DIMRND
 40
0.0
  9
$DIMDLE
 40
0.0
  9
$DIMEXE
 40
1.0
  9
$DIMTP
 40
0.0
  9
$DIMTM
 40
0.0
  9
$DIMTXT
 40
3.0
  9
$DIMCEN
 40
0.0
  9
$DIMTSZ
 40
0.0
  9
$DIMTOL
 70
     0
  9
$DIMLIM
 70
     0
  9
$DIMTIH
 70
     0
  9
$DIMTOH
 70
     0
  9
$DIMSE1
 70
     0
  9
$DIMSE2
 70
     0
  9
$DIMTAD
 70
     3
  9
$DIMZIN
 70
     8
  9
$DIMBLK
  1
OPEN
  9
$DIMASO
 70
     1
  9
$DIMSHO
 70
     1
  9
$DIMPOST
  1

  9
$DIMAPOST
  1

  9
$DIMALT
 70
     0
  9
$DIMALTD
 70
     2
  9
$DIMALTF
 40
25.399999999999999
  9
$DIMLFAC
 40
1.0
  9
$DIMTOFL
 70
     1
  9
$DIMTVP
 40
0.0
  9
$DIMTIX
 70
     0
  9
$DIMSOXD
 70
     0
  9
$DIMSAH
 70
     0
  9
$DIMBLK1
  1

  9
$DIMBLK2
  1

  9
$DIMSTYLE
  2
BIGT
  9
$DIMCLRD
 70
   256
  9
$DIMCLRE
 70
   256
  9
$DIMCLRT
 70
    40
  9
$DIMTFAC
 40
1.0
  9
$DIMGAP
 40
1.0
  9
$LUNITS
 70
     2
  9
$LUPREC
 70
     2
  9
$SKETCHINC
 40
1.0
  9
$FILLETRAD
 40
0.0
  9
$AUNITS
 70
     0
  9
$AUPREC
 70
     3
  9
$MENU
  1
.
  9
$ELEVATION
 40
0.0
  9
$PELEVATION
 40
0.0
  9
$THICKNESS
 40
0.0
  9
$LIMCHECK
 70
     0
  9
$BLIPMODE
 70
     0
  9
$CHAMFERA
 40
10.0
  9
$CHAMFERB
 40
10.0
  9
$SKPOLY
 70
     0
  9
$TDCREATE
 40
2452880.4648967362
  9
$TDUPDATE
 40
2453612.54159794
  9
$TDINDWG
 40
0.1366024537
  9
$TDUSRTIMER
 40
0.1366024537
  9
$USRTIMER
 70
     1
  9
$ANGBASE
 50
0.0
  9
$ANGDIR
 70
     0
  9
$PDMODE
 70
    35
  9
$PDSIZE
 40
2.0
  9
$PLINEWID
 40
0.0
  9
$COORDS
 70
     2
  9
$SPLFRAME
 70
     0
  9
$SPLINETYPE
 70
     6
  9
$SPLINESEGS
 70
     8
  9
$ATTDIA
 70
     1
  9
$ATTREQ
 70
     1
  9
$HANDLING
 70
     1
  9
$HANDSEED
  5
28E0
  9
$SURFTAB1
 70
     6
  9
$SURFTAB2
 70
     6
  9
$SURFTYPE
 70
     6
  9
$SURFU
 70
     6
  9
$SURFV
 70
     6
  9
$UCSNAME
  2

  9
$UCSORG
 10
0.0
 20
0.0
 30
0.0
  9
$UCSXDIR
 10
1.0
 20
0.0
 30
0.0
  9
$UCSYDIR
 10
0.0
 20
1.0
 30
0.0
  9
$PUCSNAME
  2

  9
$PUCSORG
 10
0.0
 20
0.0
 30
0.0
  9
$PUCSXDIR
 10
1.0
 20
0.0
 30
0.0
  9
$PUCSYDIR
 10
0.0
 20
1.0
 30
0.0
  9
$USERI1
 70
     1
  9
$USERI2
 70
     0
  9
$USERI3
 70
     0
  9
$USERI4
 70
     0
  9
$USERI5
 70
     0
  9
$USERR1
 40
0.0
  9
$USERR2
 40
0.0
  9
$USERR3
 40
0.0
  9
$USERR4
 40
0.0
  9
$USERR5
 40
0.0
  9
$WORLDVIEW
 70
     1
  9
$SHADEDGE
 70
     3
  9
$SHADEDIF
 70
    70
  9
$TILEMODE
 70
     1
  9
$MAXACTVP
 70
    16
  9
$PLIMCHECK
 70
     0
  9
$PEXTMIN
 10
1.0000000000000000E+020
 20
1.0000000000000000E+020
 30
1.0000000000000000E+020
  9
$PEXTMAX
 10
-1.0000000000000000E+020
 20
-1.0000000000000000E+020
 30
-1.0000000000000000E+020
  9
$PLIMMIN
 10
0.0
 20
0.0
  9
$PLIMMAX
 10
420.0
 20
297.0
  9
$UNITMODE
 70
     0
  9
$VISRETAIN
 70
     0
  9
$PLINEGEN
 70
     0
  9
$PSLTSCALE
 70
     1
  0
ENDSEC
  0
SECTION
  2
TABLES
  0
TABLE
  2
VPORT
 70
    11
  0
VPORT
  2
*ACTIVE
 70
     0
 10
0.0
 20
0.0
 11
1.0
 21
1.0
 12
-11.053290329196489
 22
12.77320611036771
 13
0.0
 23
0.0
 14
7.0
 24
7.0
 15
7.0
 25
7.0
 16
0.0
 26
0.0
 36
1.0
 17
0.0
 27
0.0
 37
0.0
 40
68.890617278407504
 41
1.266932270916334
 42
50.0
 43
0.0
 44
0.0
 50
0.0
 51
0.0
 71
     0
 72
  2000
 73
     1
 74
     0
 75
     0
 76
     0
 77
     0
 78
     0
  0
ENDTAB
  0
TABLE
  2
LTYPE
 70
    16
  0
LTYPE
  2
CONTINUOUS
 70
     0
  3
Solid line
 72
    65
 73
     0
 40
0.0
  0
LTYPE
  2
CENTER2
 70
     0
  3
___ _ ___ _ ___ _ ___ _ ___ _ ___ _ ___ _ ___ _
 72
    65
 73
     4
 40
1.125
 49
0.75
 49
-0.125
 49
0.125
 49
-0.125
  0
LTYPE
  2
HIDDEN2
 70
     0
  3
_ _ _ _ _ _ _ _ _ _ _ _ _ _ _ _ _ _ _ _ _ _ _ _
 72
    65
 73
     2
 40
0.1875
 49
0.125
 49
-0.0625
  0
LTYPE
  2
HIDDEN
 70
     0
  3
Hidden __ __ __ __ __ __ __ __ __ __ __ __ __ _
 72
    65
 73
     2
 40
9.5249999999999986
 49
6.3499999999999988
 49
-3.1749999999999989
  0
LTYPE
  2
PHANTOM2
 70
     0
  3
Phantom (.5x) ___ _ _ ___ _ _ ___ _ _ ___ _ _
 72
    65
 73
     6
 40
31.75
 49
15.875
 49
-3.1749999999999989
 49
3.1749999999999989
 49
-3.1749999999999989
 49
3.1749999999999989
 49
-3.1749999999999989
  0
LTYPE
  2
CENTER
 70
     0
  3
Center ____ _ ____ _ ____ _ ____ _ ____ _ ____
 72
    65
 73
     4
 40
50.799999999999997
 49
31.75
 49
-6.3499999999999988
 49
6.3499999999999988
 49
-6.3499999999999988
  0
LTYPE
  2
AM_ISO02W050
 70
     0
  3
__ __ __ __ __ __ __ __ __ __ __ __ __ __ __
 72
    65
 73
     2
 40
7.5
 49
6.0
 49
-1.5
  0
LTYPE
  2
AM_ISO08W050
 70
     0
  3
____ . ____ . ____ . ____ . ____ . ____ . ____
 72
    65
 73
     4
 40
18.0
 49
12.0
 49
-1.5
 49
3.0
 49
-1.5
  0
LTYPE
  2
AM_ISO09W050
 70
     0
  3
_____ . . _____ . . _____ . . ____ .. ____
 72
    65
 73
     6
 40
22.5
 49
12.0
 49
-1.5
 49
3.0
 49
-1.5
 49
3.0
 49
-1.5
  0
LTYPE
  2
AMCONSTR
 70
     0
  3
_______________________
 72
    65
 73
     2
 40
9999.0
 49
9999.0
 49
0.0
  0
LTYPE
  2
AM_ISO08W050X2
 70
     0
  3
__ . __ . __ . __ . __ . __
 72
    65
 73
     4
 40
9.0
 49
6.0
 49
-0.75
 49
1.5
 49
-0.75
  0
LTYPE
  2
AM_ISO02W050X2
 70
     0
  3
 _ _ _ _ _ _ _ _ _ _ _ _
 72
    65
 73
     2
 40
3.75
 49
3.0
 49
-0.75
  0
LTYPE
  2
AMZIGZAG
 70
     0
  3
/\/-/\/-/\/-/\/-/\/-/\/
 72
    65
 73
     2
 40
11.0001
 49
0.0001
 49
-11.0
  0
LTYPE
  2
ACISOWELD
 70
     0
  3
_ _ _ _ _
 72
    65
 73
     2
 40
2.0
 49
2.0
 49
-1.0
  0
LTYPE
  2
ACISOTGB
 70
     0
  3
__ . . __ . .
 72
    65
 73
     6
 40
9.0
 49
4.0
 49
-1.0
 49
1.0
 49
-1.0
 49
1.0
 49
-1.0
  0
LTYPE
  2
ACISOTGL
 70
     0
  3
_ _ _ _ _
 72
    65
 73
     2
 40
3.0
 49
2.0
 49
-1.0
  0
ENDTAB
  0
TABLE
  2
LAYER
 70
     7
  0
LAYER
  2
0
 70
     0
 62
     7
  6
CONTINUOUS
  0
LAYER
  2
240
 70
     0
 62
     4
  6
CONTINUOUS
  0
LAYER
  2
241
 70
     0
 62
   211
  6
CONTINUOUS
  0
LAYER
  2
243
 70
     0
 62
   211
  6
HIDDEN2
  0
LAYER
  2
245
 70
     0
 62
     2
  6
CENTER2
  0
LAYER
  2
250
 70
     0
 62
     3
  6
CONTINUOUS
  0
LAYER
  2
DEFPOINTS
 70
     0
 62
     7
  6
CONTINUOUS
  0
ENDTAB
  0
TABLE
  2
STYLE
 70
     5
  0
STYLE
  2
STANDARD
 70
     0
 40
0.0
 41
1.0
 50
0.0
 71
     0
 42
3.0
  3
romans.shx
  4
BIGFONT.SHX
  0
STYLE
  2
YOKO
 70
     0
 40
0.0
 41
1.0
 50
0.0
 71
     0
 42
3.0
  3
romans.shx
  4
extfont.shx
  0
STYLE
  2

 70
     1
 40
0.0
 41
1.0
 50
0.0
 71
     0
 42
3.0
  3
ltypeshp.shx
  4

  0
STYLE
  2
ACISOTS
 70
     0
 40
1.0
 41
1.0
 50
0.0
 71
     0
 42
3.0
  3
isocp.shx
  4
extfont.shx
  0
STYLE
  2
ACISOGDT
 70
     0
 40
0.0
 41
1.0
 50
0.0
 71
     0
 42
3.0
  3
amgdt.shx
  4

  0
ENDTAB
  0
TABLE
  2
VIEW
 70
     0
  0
ENDTAB
  0
TABLE
  2
UCS
 70
     0
  0
ENDTAB
  0
TABLE
  2
APPID
 70
    16
  0
APPID
  2
ACAD
 70
     0
  0
APPID
  2
GLOBAL
 70
     0
  0
APPID
  2
DETAIL
 70
     0
  0
APPID
  2
GRPNAME
 70
     0
  0
APPID
  2
GPARA
 70
     0
  0
APPID
  2
ITEMNAME
 70
     0
  0
APPID
  2
MCAD_NO_VIS
 70
     0
  0
APPID
  2
ACAD_TEMP_GRAPHIC
 70
     0
  0
APPID
  2
AD_DRAW
 70
     0
  0
APPID
  2
ACATTRIBSERVICES
 70
     0
  0
APPID
  2
DESIGNERASSEMBLIES
 70
     0
  0
APPID
  2
ACADM_DIM_EDIT
 70
     0
  0
APPID
  2
AMDT_DM_ADJ
 70
     0
  0
APPID
  2
GENIUS_GENSCREG_15
 70
     0
  0
APPID
  2
GENIUS_GENOBJ-N-SDF_13
 70
     0
  0
APPID
  2
GENIUS_GENODEF_13
 70
     0
  0
ENDTAB
  0
TABLE
  2
DIMSTYLE
 70
     9
  0
DIMSTYLE
  2
STANDARD
 70
     0
  3

  4

  5

  6

  7

 40
1.0
 41
2.0
 42
2.0
 43
3.75
 44
2.0
 45
0.0
 46
0.0
 47
0.0
 48
0.0
140
4.0
141
0.09
142
0.0
143
25.399999999999999
144
1.0
145
0.0
146
1.0
147
1.0
 71
     0
 72
     0
 73
     1
 74
     1
 75
     0
 76
     0
 77
     0
 78
     8
170
     0
171
     2
172
     0
173
     1
174
     0
175
     0
176
   256
177
   256
178
   256
  0
DIMSTYLE
  2
BIGT
 70
     0
  3

  4

  5
OPEN
  6

  7

 40
1.0
 41
2.2299999999999991
 42
0.5
 43
2.5
 44
1.0
 45
0.0
 46
0.0
 47
0.0
 48
0.0
140
3.5
141
0.0
142
0.0
143
25.399999999999999
144
1.0
145
0.0
146
1.0
147
1.0
 71
     0
 72
     0
 73
     0
 74
     0
 75
     0
 76
     0
 77
     3
 78
     9
170
     0
171
     2
172
     1
173
     0
174
     0
175
     0
176
   256
177
   256
178
    40
  0
DIMSTYLE
  2
AM_ISO
 70
     0
  3

  4
"
  5

  6

  7

 40
1.0
 41
2.5
 42
1.0
 43
10.0
 44
1.0
 45
0.0
 46
0.0
 47
0.1
 48
0.1
140
3.5
141
0.0
142
0.0
143
0.0393701
144
1.0
145
0.0
146
0.71
147
1.5
 71
     0
 72
     0
 73
     0
 74
     0
 75
     0
 76
     0
 77
     1
 78
     8
170
     0
171
     2
172
     1
173
     0
174
     0
175
     0
176
   256
177
   256
178
     2
  0
DIMSTYLE
  2
AM_ISO$3
 70
     0
  3

  4
"
  5

  6

  7

 40
1.0
 41
2.5
 42
1.0
 43
10.0
 44
1.0
 45
0.0
 46
0.0
 47
0.1
 48
0.1
140
3.5
141
0.0
142
0.0
143
0.0393701
144
1.0
145
0.0
146
0.71
147
1.5
 71
     0
 72
     0
 73
     0
 74
     1
 75
     0
 76
     0
 77
     1
 78
     8
170
     0
171
     2
172
     0
173
     0
174
     0
175
     0
176
   256
177
   256
178
     2
  0
DIMSTYLE
  2
AM_ISO$4
 70
     0
  3

  4
"
  5

  6

  7

 40
1.0
 41
2.5
 42
1.0
 43
10.0
 44
1.0
 45
0.0
 46
0.0
 47
0.1
 48
0.1
140
3.5
141
0.0
142
0.0
143
0.0393701
144
1.0
145
0.0
146
0.71
147
1.5
 71
     0
 72
     0
 73
     0
 74
     1
 75
     0
 76
     0
 77
     1
 78
     8
170
     0
171
     2
172
     0
173
     0
174
     0
175
     0
176
   256
177
   256
178
     2
  0
DIMSTYLE
  2
AM_ISO$6
 70
     0
  3

  4
"
  5

  6

  7

 40
1.0
 41
2.5
 42
1.0
 43
10.0
 44
1.0
 45
0.0
 46
0.0
 47
0.1
 48
0.1
140
3.5
141
0.0
142
0.0
143
0.0393701
144
1.0
145
0.0
146
0.71
147
1.5
 71
     0
 72
     0
 73
     0
 74
     0
 75
     0
 76
     0
 77
     0
 78
     8
170
     0
171
     2
172
     1
173
     0
174
     0
175
     0
176
   256
177
   256
178
     2
  0
DIMSTYLE
  2
AM_ISO$7
 70
     0
  3

  4
"
  5

  6

  7

 40
1.0
 41
2.5
 42
1.0
 43
10.0
 44
1.0
 45
0.0
 46
0.0
 47
0.1
 48
0.1
140
5.0
141
0.0
142
0.0
143
0.0393701
144
1.0
145
0.0
146
0.71
147
1.5
 71
     0
 72
     0
 73
     0
 74
     0
 75
     0
 76
     0
 77
     1
 78
     8
170
     0
171
     2
172
     1
173
     0
174
     0
175
     0
176
   256
177
   256
178
     2
  0
DIMSTYLE
  2
AM_ISO$SF
 70
     0
  3

  4
"
  5

  6

  7

 40
1.0
 41
2.5
 42
1.0
 43
10.0
 44
1.0
 45
0.0
 46
0.0
 47
0.1
 48
0.1
140
3.5
141
0.0
142
0.0
143
0.0393701
144
1.0
145
0.0
146
0.71
147
1.5
 71
     0
 72
     0
 73
     0
 74
     0
 75
     1
 76
     1
 77
     1
 78
     8
170
     0
171
     2
172
     1
173
     0
174
     0
175
     0
176
   256
177
   256
178
     2
  0
DIMSTYLE
  2
AM_ISO$SH
 70
     0
  3

  4
"
  5

  6
GENAXEH
  7

 40
1.0
 41
2.5
 42
1.0
 43
10.0
 44
1.0
 45
0.0
 46
0.0
 47
0.1
 48
0.1
140
3.5
141
0.0
142
0.0
143
0.0393701
144
2.0
145
0.0
146
0.71
147
1.5
 71
     0
 72
     0
 73
     0
 74
     0
 75
     1
 76
     1
 77
     1
 78
     8
170
     0
171
     2
172
     1
173
     1
174
     0
175
     0
176
   256
177
   256
178
     2
  0
ENDTAB
  0
ENDSEC
  0
SECTION
  2
BLOCKS
  0
BLOCK
  8
0
  2
$MODEL_SPACE
 70
     0
 10
0.0
 20
0.0
 30
0.0
  3
$MODEL_SPACE
  1

  0
ENDBLK
  5
1C
  8
0
  0
BLOCK
 67
     1
  8
0
  2
$PAPER_SPACE
 70
     0
 10
0.0
 20
0.0
 30
0.0
  3
$PAPER_SPACE
  1

  0
ENDBLK
  5
19
 67
     1
  8
0
  0
BLOCK
  8
0
  2
_OPEN
 70
     0
 10
0.0
 20
0.0
 30
0.0
  3
_OPEN
  1

  0
LINE
  5
595
  8
0
  6
BYBLOCK
 62
     0
 10
-1.0
 20
0.1666666666666666
 30
0.0
 11
0.0
 21
0.0
 31
0.0
  0
LINE
  5
596
  8
0
  6
BYBLOCK
 62
     0
 10
-1.0
 20
-0.1666666666666666
 30
0.0
 11
0.0
 21
0.0
 31
0.0
  0
LINE
  5
597
  8
0
  6
BYBLOCK
 62
     0
 10
0.0
 20
0.0
 30
0.0
 11
-1.0
 21
0.0
 31
0.0
  0
ENDBLK
  5
599
  8
0
  0
BLOCK
  8
0
  2
A$C0AAC7776
 70
     0
 10
0.0
 20
0.0
 30
0.0
  3
A$C0AAC7776
  1

  0
LINE
  5
277B
  8
243
 10
-12.70000000000001
 20
12.75
 30
0.0
 11
-42.099999999999973
 21
9.6599354831894821
 31
0.0
1001
GRPNAME
1000
NBS16 09
  0
LINE
  5
277C
  8
243
 10
-12.70000000000001
 20
-12.75
 30
0.0
 11
-42.099999999999973
 21
-9.6599354831894821
 31
0.0
1001
GRPNAME
1000
NBS16 0B
  0
LINE
  5
277D
  8
245
 10
-44.09645835202538
 20
0.0
 30
0.0
 11
1.8524577206304389
 21
0.0
 31
0.0
1001
GRPNAME
1000
PASTMDCT
  0
LINE
  5
277E
  8
243
 10
-42.099999999999881
 20
8.0
 30
0.0
 11
-7.3999999999999471
 21
8.0
 31
0.0
  0
LINE
  5
277F
  8
243
 10
-42.099999999999881
 20
-8.0
 30
0.0
 11
-7.3999999999999471
 21
-8.0
 31
0.0
  0
LINE
  5
2780
  8
243
 10
-42.099999999999973
 20
0.0
 30
0.0
 11
-42.099999999999973
 21
9.6599354831894821
 31
0.0
1001
GRPNAME
1000
NBS16 09
  0
LINE
  5
2781
  8
243
 10
-42.099999999999973
 20
0.0
 30
0.0
 11
-42.099999999999973
 21
-9.6599354831894821
 31
0.0
1001
GRPNAME
1000
NBS16 0B
  0
LINE
  5
2782
  8
241
 10
-4.0999999999999934
 20
0.0
 30
0.0
 11
-4.0999999999999934
 21
-17.16466620536616
 31
0.0
1001
GRPNAME
1000
PASTMDCV
  0
LINE
  5
2783
  8
241
 10
-27.549107457385912
 20
0.0
 30
0.0
 11
-27.549107457385912
 21
-21.0
 31
0.0
1001
GRPNAME
1000
PASTMDCV
  0
LINE
  5
2784
  8
241
 10
-29.3274638626133
 20
0.0
 30
0.0
 11
-29.3274638626133
 21
-21.349999999999991
 31
0.0
1001
GRPNAME
1000
PASTMDCV
  0
LINE
  5
2785
  8
240
 10
-31.199999999999939
 20
-20.849999999999991
 30
0.0
 11
-31.199999999999939
 21
0.0
 31
0.0
1001
GRPNAME
1000
PASTMDCV
  0
LINE
  5
2786
  8
240
 10
-0.1436840949336045
 20
-13.24628903444704
 30
0.0
 11
-4.041359582613806
 21
-17.164064382925488
 31
0.0
  0
LINE
  5
2787
  8
240
 10
-27.549107457385912
 20
-21.0
 30
0.0
 11
-5.0999999999999943
 21
-21.0
 31
0.0
1001
GRPNAME
1000
PASTMDCV
  0
LINE
  5
2788
  8
240
 10
-30.699999999999939
 20
-21.349999999999991
 30
0.0
 11
-29.3274638626133
 21
-21.349999999999991
 31
0.0
1001
GRPNAME
1000
PASTMDCV
  0
ARC
  5
2789
  8
240
 10
-30.699999999999939
 20
-20.849999999999991
 30
0.0
 40
0.5
 50
180.00000001286469
 51
270.00000001285821
1001
GRPNAME
1000
PASTMDCV
  0
ARC
  5
278A
  8
240
 10
-28.263250300240209
 20
-21.699999999999989
 30
0.0
 40
0.9999999999999764
 50
44.427004131299
 51
135.00000013049299
1001
GRPNAME
1000
PASTMDCV
  0
LINE
  5
278B
  8
240
 10
-28.970357081426709
 20
-20.992893218813428
 30
0.0
 11
-29.3274638626133
 21
-21.349999999999991
 31
0.0
1001
GRPNAME
1000
PASTMDCV
  0
LINE
  5
278C
  8
240
 10
-4.0999999999999934
 20
-17.16466620536616
 30
0.0
 11
-4.0999999999999934
 21
-20.0
 31
0.0
1001
GRPNAME
1000
PASTMDCV
  0
LINE
  5
278D
  8
241
 10
-4.1068224733541268
 20
-18.753071585282889
 30
0.0
 11
-4.1000076386119133
 21
-18.778504894786089
 31
0.0
1001
GRPNAME
1000
PASTMDB6
  0
LINE
  5
278E
  8
241
 10
-4.1068224733541268
 20
-18.753071585282889
 30
0.0
 11
-4.1000076386119133
 21
-18.778504894786089
 31
0.0
1001
GRPNAME
1000
PASTMDB5
  0
ARC
  5
278F
  8
240
 10
-5.0999999999999943
 20
-20.0
 30
0.0
 40
1.0
 50
270.00000000000318
 51
0.0
1001
GRPNAME
1000
PASTMDCV
  0
ARC
  5
2790
  8
241
 10
-4.1831441789253461
 20
-17.023007202148449
 30
0.0
 40
0.1999999999999893
 50
294.56231681072751
 51
315.14735368490949
  0
LINE
  5
2791
  8
240
 10
-27.549107457385912
 20
21.0
 30
0.0
 11
-5.0999999999999943
 21
21.0
 31
0.0
1001
GRPNAME
1000
PASTMDCT
  0
LINE
  5
2792
  8
243
 10
-7.0999999999999943
 20
11.0179491924311
 30
0.0
 11
-7.0999999999999943
 21
0.0
 31
0.0
1001
GRPNAME
1000
NBS16 09
  0
LINE
  5
2793
  8
241
 10
-27.549107457385912
 20
0.0
 30
0.0
 11
-27.549107457385912
 21
21.0
 31
0.0
1001
GRPNAME
1000
PASTMDCT
  0
LINE
  5
2794
  8
241
 10
-29.3274638626133
 20
0.0
 30
0.0
 11
-29.3274638626133
 21
21.349999999999991
 31
0.0
1001
GRPNAME
1000
PASTMDCT
  0
LINE
  5
2795
  8
240
 10
-31.199999999999939
 20
20.849999999999991
 30
0.0
 11
-31.199999999999939
 21
0.0
 31
0.0
1001
GRPNAME
1000
PASTMDCT
  0
LINE
  5
2796
  8
243
 10
-7.0999999999999943
 20
-11.0179491924311
 30
0.0
 11
-7.0999999999999943
 21
0.0
 31
0.0
1001
GRPNAME
1000
NBS16 0B
  0
LINE
  5
2797
  8
243
 10
-10.299999999999979
 20
-12.74999999999994
 30
0.0
 11
-10.099999999999991
 21
-12.75
 31
0.0
1001
GRPNAME
1000
NBS16 0B
  0
LINE
  5
2798
  8
243
 10
-12.70000000000001
 20
-11.0
 30
0.0
 11
-10.299999999999979
 21
-11.0
 31
0.0
1001
GRPNAME
1000
NBS16 0B
  0
LINE
  5
2799
  8
243
 10
-12.70000000000001
 20
-11.0
 30
0.0
 11
-12.70000000000001
 21
-12.75
 31
0.0
1001
GRPNAME
1000
NBS16 0B
  0
LINE
  5
279A
  8
243
 10
-10.299999999999979
 20
-12.74999999999994
 30
0.0
 11
-10.299999999999979
 21
-11.0
 31
0.0
1001
GRPNAME
1000
NBS16 0B
  0
LINE
  5
279B
  8
243
 10
-10.099999999999991
 20
-12.75
 30
0.0
 11
-7.0999999999999943
 21
-11.0179491924311
 31
0.0
1001
GRPNAME
1000
NBS16 0B
  0
ARC
  5
279C
  8
243
 10
-7.3999999999999471
 20
-8.2999999999999527
 30
0.0
 40
0.2999999999999545
 50
359.9999999331792
 51
89.999999933201224
  0
LINE
  5
279D
  8
240
 10
-30.699999999999939
 20
21.349999999999991
 30
0.0
 11
-29.3274638626133
 21
21.349999999999991
 31
0.0
1001
GRPNAME
1000
PASTMDCT
  0
ARC
  5
279E
  8
240
 10
-30.699999999999939
 20
20.849999999999991
 30
0.0
 40
0.5
 50
89.999999989716358
 51
179.99999998970819
1001
GRPNAME
1000
PASTMDCT
  0
ARC
  5
279F
  8
240
 10
-28.263250300240209
 20
21.699999999999989
 30
0.0
 40
0.9999999999999779
 50
224.9999999273569
 51
315.57299592655028
1001
GRPNAME
1000
PASTMDCT
  0
LINE
  5
27A0
  8
240
 10
-28.970357081426709
 20
20.992893218813428
 30
0.0
 11
-29.3274638626133
 21
21.349999999999991
 31
0.0
1001
GRPNAME
1000
PASTMDCT
  0
ARC
  5
27A1
  8
243
 10
-7.3999999999999471
 20
8.2999999999999527
 30
0.0
 40
0.2999999999999545
 50
269.99999994594538
 51
359.99999994599023
  0
LINE
  5
27A2
  8
243
 10
-10.299999999999979
 20
12.74999999999994
 30
0.0
 11
-10.099999999999991
 21
12.75
 31
0.0
1001
GRPNAME
1000
NBS16 09
  0
LINE
  5
27A3
  8
243
 10
-12.70000000000001
 20
11.0
 30
0.0
 11
-10.299999999999979
 21
11.0
 31
0.0
1001
GRPNAME
1000
NBS16 09
  0
LINE
  5
27A4
  8
243
 10
-12.70000000000001
 20
11.0
 30
0.0
 11
-12.70000000000001
 21
12.75
 31
0.0
1001
GRPNAME
1000
NBS16 09
  0
LINE
  5
27A5
  8
243
 10
-10.299999999999979
 20
12.74999999999994
 30
0.0
 11
-10.299999999999979
 21
11.0
 31
0.0
1001
GRPNAME
1000
NBS16 09
  0
LINE
  5
27A6
  8
243
 10
-10.099999999999991
 20
12.75
 30
0.0
 11
-7.0999999999999943
 21
11.0179491924311
 31
0.0
1001
GRPNAME
1000
NBS16 09
  0
LINE
  5
27A7
  8
241
 10
-4.0999999999999934
 20
0.0
 30
0.0
 11
-4.0999999999999934
 21
17.16466620536616
 31
0.0
1001
GRPNAME
1000
PASTMDCT
  0
LINE
  5
27A8
  8
240
 10
0.0
 20
0.0
 30
0.0
 11
0.0
 21
12.9663930996371
 31
0.0
1001
GRPNAME
1000
PASTMDDD
  0
LINE
  5
27A9
  8
240
 10
0.0
 20
0.0
 30
0.0
 11
0.0
 21
-12.9663930996371
 31
0.0
  0
ARC
  5
27AA
  8
240
 10
-0.4981455857125355
 20
-12.89364608250443
 30
0.0
 40
0.4999999999999693
 50
315.14735375142448
 51
345.00000017225187
  0
LINE
  5
27AB
  8
240
 10
0.0
 20
-12.9663930996371
 30
0.0
 11
-0.0151826725680451
 21
-13.023055605055729
 31
0.0
  0
LINE
  5
27AC
  8
240
 10
0.0
 20
12.9663930996371
 30
0.0
 11
-0.0151826725680451
 21
13.023055605055729
 31
0.0
1001
GRPNAME
1000
PASTMDDD
  0
ARC
  5
27AD
  8
240
 10
-0.4981455857125355
 20
12.89364608250443
 30
0.0
 40
0.4999999999999682
 50
14.999999827748081
 51
44.852646248575411
1001
GRPNAME
1000
PASTMDDD
  0
LINE
  5
27AE
  8
240
 10
-4.0999999999999934
 20
17.16466620536616
 30
0.0
 11
-4.0999999999999934
 21
20.0
 31
0.0
1001
GRPNAME
1000
PASTMDCT
  0
LINE
  5
27AF
  8
240
 10
-0.1436840949336045
 20
13.24628903444704
 30
0.0
 11
-4.041359582613806
 21
17.164064382925488
 31
0.0
1001
GRPNAME
1000
PASTMDDD
  0
ARC
  5
27B0
  8
241
 10
-4.1831441789253461
 20
17.023007202148449
 30
0.0
 40
0.1999999999999855
 50
44.852646315090517
 51
65.437683189272406
1001
GRPNAME
1000
PASTMDDD
  0
LINE
  5
27B1
  8
241
 10
-4.1068224733541268
 20
18.753071585282889
 30
0.0
 11
-4.1000076386119133
 21
18.778504894786089
 31
0.0
1001
GRPNAME
1000
PASTMDAW
  0
LINE
  5
27B2
  8
241
 10
-4.1068224733541268
 20
18.753071585282889
 30
0.0
 11
-4.1000076386119133
 21
18.778504894786089
 31
0.0
1001
GRPNAME
1000
PASTMDAV
  0
ARC
  5
27B3
  8
240
 10
-5.0999999999999943
 20
20.0
 30
0.0
 40
1.0
 50
0.0
 51
89.999999999996732
1001
GRPNAME
1000
PASTMDCT
  0
ENDBLK
  5
27B5
  8
0
  0
BLOCK
  8
0
  2
GENAXEH
 70
     0
 10
0.0
 20
0.0
 30
0.0
  3
GENAXEH
  1

  0
LINE
  5
2880
  8
0
 10
-1.0
 20
0.0
 30
0.0
 11
1.0
 21
0.0
 31
0.0
  0
ENDBLK
  5
2882
  8
0
  0
BLOCK
  8
0
  2
*U6
 70
     1
 10
0.0
 20
0.0
 30
0.0
  3
*U6
  1

  0
TEXT
  5
28D3
  8
250
 62
    40
 10
19.999999999999989
 20
-4.0714285714285801
 30
0.0
 40
3.0
  1
\U+2205
 50
90.0
  0
TEXT
  5
28D4
  8
250
 62
    40
 10
19.999999999999989
 20
-1.357142857142865
 30
0.0
 40
3.0
  1
42
 50
90.0
  0
ENDBLK
  5
28D6
  8
0
  0
BLOCK
  8
0
  2
*U7
 70
     1
 10
0.0
 20
0.0
 30
0.0
  3
*U7
  1

  0
TEXT
  5
28DC
  8
250
 62
    40
 10
12.946192209630709
 20
-8.7285714285714331
 30
0.0
 40
3.0
  1
\U+2205
 50
90.0
  0
TEXT
  5
28DD
  8
250
 62
    40
 10
12.946192209630709
 20
-6.0142857142857169
 30
0.0
 40
3.0
  1
15ü`16
 50
90.0
  0
ENDBLK
  5
28DF
  8
0
  0
ENDSEC
  0
SECTION
  2
ENTITIES
  0
INSERT
  5
27B6
  8
240
  2
A$C0AAC7776
 10
0.0
 20
0.0
 30
0.0
  0
LINE
  5
289A
  8
250
 10
-6.8999999999999471
 20
-8.0
 30
0.0
 11
14.946192209630709
 21
-8.0000000000000071
 31
0.0
  0
LINE
  5
289B
  8
250
 10
-6.9000000002829731
 20
8.0
 30
0.0
 11
14.946192209630709
 21
7.999999999999992
 31
0.0
  0
LINE
  5
289C
  8
250
 10
13.946192209630709
 20
-5.7700000000000067
 30
0.0
 11
13.946192209630709
 21
5.7699999999999951
 31
0.0
  0
LINE
  5
28A0
  8
250
 10
-4.5999999999999357
 20
-21.0
 30
0.0
 11
21.999999999999989
 21
-21.0
 31
0.0
  0
LINE
  5
28A1
  8
250
 10
-4.5999999999999943
 20
20.999999999999979
 30
0.0
 11
22.0
 21
20.999999999999979
 31
0.0
  0
LINE
  5
28A2
  8
250
 10
20.999999999999989
 20
-18.77
 30
0.0
 11
21.0
 21
18.769999999999978
 31
0.0
  0
TEXT
  5
28A6
  8
250
 10
19.999999999999989
 20
-4.0714285714285801
 30
0.0
 40
3.0
  1
\U+2205
 50
90.0
1001
ACAD
1000
MTEXTBEGIN
1070
    73
1070
     1
1070
    44
1040
1.0
1070
    74
1070
     0
1000
MTEXTEND
  0
TEXT
  5
28A7
  8
250
 10
19.999999999999989
 20
-1.357142857142865
 30
0.0
 40
3.0
  1
42
 50
90.0
1001
ACAD
1000
MTEXTBEGIN
1070
    73
1070
     1
1070
    44
1040
1.0
1070
    74
1070
     0
1000
MTEXTEND
  0
LINE
  5
28A8
  8
250
 10
20.62833333333333
 20
18.769999999999978
 30
0.0
 11
21.0
 21
20.999999999999979
 31
0.0
  0
LINE
  5
28A9
  8
250
 10
21.37166666666667
 20
18.769999999999978
 30
0.0
 11
21.0
 21
20.999999999999979
 31
0.0
  0
LINE
  5
28AA
  8
250
 10
21.0
 20
20.999999999999979
 30
0.0
 11
21.0
 21
18.769999999999978
 31
0.0
  0
LINE
  5
28AB
  8
250
 10
21.371666666666648
 20
-18.77
 30
0.0
 11
20.999999999999989
 21
-21.0
 31
0.0
  0
LINE
  5
28AC
  8
250
 10
20.62833333333332
 20
-18.77
 30
0.0
 11
20.999999999999989
 21
-21.0
 31
0.0
  0
LINE
  5
28AD
  8
250
 10
20.999999999999989
 20
-21.0
 30
0.0
 11
20.999999999999989
 21
-18.77
 31
0.0
  0
TEXT
  5
28AE
  8
250
 10
12.946192209630709
 20
-8.7285714285714331
 30
0.0
 40
3.0
  1
\U+2205
 50
90.0
  0
TEXT
  5
28AF
  8
250
 10
12.946192209630709
 20
-6.0142857142857169
 30
0.0
 40
3.0
  1
15ü`16
 50
90.0
  0
LINE
  5
28B0
  8
250
 10
13.574525542964039
 20
5.769999999999996
 30
0.0
 11
13.946192209630709
 21
7.9999999999999938
 31
0.0
  0
LINE
  5
28B1
  8
250
 10
14.317858876297381
 20
5.769999999999996
 30
0.0
 11
13.946192209630709
 21
7.9999999999999938
 31
0.0
  0
LINE
  5
28B2
  8
250
 10
13.946192209630709
 20
7.9999999999999938
 30
0.0
 11
13.946192209630709
 21
5.769999999999996
 31
0.0
  0
LINE
  5
28B3
  8
250
 10
14.31785887629737
 20
-5.7700000000000076
 30
0.0
 11
13.946192209630709
 21
-8.0000000000000071
 31
0.0
  0
LINE
  5
28B4
  8
250
 10
13.574525542964039
 20
-5.7700000000000076
 30
0.0
 11
13.946192209630709
 21
-8.0000000000000071
 31
0.0
  0
LINE
  5
28B5
  8
250
 10
13.946192209630709
 20
-8.0000000000000071
 30
0.0
 11
13.946192209630709
 21
-5.7700000000000076
 31
0.0
  0
TEXT
  5
28B6
  8
243
 10
-35.952380952380949
 20
42.0
 30
0.0
 40
5.0
  1
MPS16-1516
  7
YOKO
1001
ITEMNAME
1000
DI010
1001
ACAD
1000
MTEXTBEGIN
1070
    73
1070
     1
1070
    44
1040
1.0
1070
    74
1070
     0
1000
MTEXTEND
  0
VIEWPORT
  5
22
 67
     1
  8
0
 10
261.51769911504419
 20
148.5
 30
0.0
 40
523.0353982300885
 41
297.0
 68
     1
 69
     1
1001
ACAD
1000
MVIEW
1002
{
1070
    16
1010
0.0
1020
0.0
1030
0.0
1010
0.0
1020
0.0
1030
1.0
1040
0.0
1040
297.0
1040
261.51769911504419
1040
148.5
1040
50.0
1040
0.0
1040
0.0
1070
     0
1070
   100
1070
     1
1070
     1
1070
     0
1070
     0
1070
     0
1070
     0
1040
0.0
1040
0.0
1040
0.0
1040
1.0
1040
1.0
1040
10.0
1040
10.0
1070
     0
1002
{
1002
}
1002
}
1001
GENIUS_GENOBJ-N-SDF_13
1002
{
1000
OWNER
1000
GEN
1002
}
1001
GENIUS_GENODEF_13
1002
{
1000
HIER
1070
     0
1002
}
1002
{
1000
MANEDIT
1070
     0
1002
}
1002
{
1000
NOSEL
1070
     0
1002
}
1002
{
1000
BEHIND
1070
     0
1002
}
1002
{
1000
OTHER
1070
     0
1002
}
1002
{
1000
REACTOR
1002
}
1001
GENIUS_GENSCREG_15
1000
PF
1040
1.0
1000
DF
1040
1.0
1000
MIN
1011
0.0
1021
4.2719740718471331E+096
1031
0.0
1021
0.0
1031
0.0
1000
MAX
1011
523.0353982300885
1021
4.2719740718471331E+096
1031
0.0
1021
297.0
1031
0.0
1000
FLAGS
1070
     2
  0
ENDSEC
  0
EOF
