  0
SECTION
  2
HEADER
  9
$ACADVER
  1
AC1009
  9
$INSBASE
 10
0.0
 20
0.0
 30
0.0
  9
$EXTMIN
 10
-45.10167530296917
 20
-21.457083043743069
 30
-0.0000000000112498
  9
$EXTMAX
 10
22.00523305280478
 20
47.009117997180681
 30
0.0000000000002956
  9
$LIMMIN
 10
0.0
 20
0.0
  9
$LIMMAX
 10
297.0
 20
210.0
  9
$ORTHOMODE
 70
     0
  9
$REGENMODE
 70
     1
  9
$FILLMODE
 70
     1
  9
$QTEXTMODE
 70
     0
  9
$MIRRTEXT
 70
     1
  9
$DRAGMODE
 70
     2
  9
$LTSCALE
 40
10.0
  9
$OSMODE
 70
   639
  9
$ATTMODE
 70
     1
  9
$TEXTSIZE
 40
3.0
  9
$TRACEWID
 40
1.0
  9
$TEXTSTYLE
  7
YOKO
  9
$CLAYER
  8
240
  9
$CELTYPE
  6
BYLAYER
  9
$CECOLOR
 62
   256
  9
$DIMSCALE
 40
1.0
  9
$DIMASZ
 40
2.2299999999999991
  9
$DIMEXO
 40
0.5
  9
$DIMDLI
 40
2.5
  9
$DIMRND
 40
0.0
  9
$DIMDLE
 40
0.0
  9
$DIMEXE
 40
1.0
  9
$DIMTP
 40
0.0
  9
$DIMTM
 40
0.0
  9
$DIMTXT
 40
3.0
  9
$DIMCEN
 40
0.0
  9
$DIMTSZ
 40
0.0
  9
$DIMTOL
 70
     0
  9
$DIMLIM
 70
     0
  9
$DIMTIH
 70
     0
  9
$DIMTOH
 70
     0
  9
$DIMSE1
 70
     0
  9
$DIMSE2
 70
     0
  9
$DIMTAD
 70
     3
  9
$DIMZIN
 70
     8
  9
$DIMBLK
  1
OPEN
  9
$DIMASO
 70
     1
  9
$DIMSHO
 70
     1
  9
$DIMPOST
  1

  9
$DIMAPOST
  1

  9
$DIMALT
 70
     0
  9
$DIMALTD
 70
     2
  9
$DIMALTF
 40
25.399999999999999
  9
$DIMLFAC
 40
1.0
  9
$DIMTOFL
 70
     1
  9
$DIMTVP
 40
0.0
  9
$DIMTIX
 70
     0
  9
$DIMSOXD
 70
     0
  9
$DIMSAH
 70
     0
  9
$DIMBLK1
  1

  9
$DIMBLK2
  1

  9
$DIMSTYLE
  2
BIGT
  9
$DIMCLRD
 70
   256
  9
$DIMCLRE
 70
   256
  9
$DIMCLRT
 70
    40
  9
$DIMTFAC
 40
1.0
  9
$DIMGAP
 40
1.0
  9
$LUNITS
 70
     2
  9
$LUPREC
 70
     2
  9
$SKETCHINC
 40
1.0
  9
$FILLETRAD
 40
0.0
  9
$AUNITS
 70
     0
  9
$AUPREC
 70
     3
  9
$MENU
  1
.
  9
$ELEVATION
 40
0.0
  9
$PELEVATION
 40
0.0
  9
$THICKNESS
 40
0.0
  9
$LIMCHECK
 70
     0
  9
$BLIPMODE
 70
     0
  9
$CHAMFERA
 40
10.0
  9
$CHAMFERB
 40
10.0
  9
$SKPOLY
 70
     0
  9
$TDCREATE
 40
2452880.4648967362
  9
$TDUPDATE
 40
2453612.6956801498
  9
$TDINDWG
 40
0.0618845833
  9
$TDUSRTIMER
 40
0.0618843981
  9
$USRTIMER
 70
     1
  9
$ANGBASE
 50
0.0
  9
$ANGDIR
 70
     0
  9
$PDMODE
 70
    35
  9
$PDSIZE
 40
2.0
  9
$PLINEWID
 40
0.0
  9
$COORDS
 70
     2
  9
$SPLFRAME
 70
     0
  9
$SPLINETYPE
 70
     6
  9
$SPLINESEGS
 70
     8
  9
$ATTDIA
 70
     1
  9
$ATTREQ
 70
     1
  9
$HANDLING
 70
     1
  9
$HANDSEED
  5
2545
  9
$SURFTAB1
 70
     6
  9
$SURFTAB2
 70
     6
  9
$SURFTYPE
 70
     6
  9
$SURFU
 70
     6
  9
$SURFV
 70
     6
  9
$UCSNAME
  2

  9
$UCSORG
 10
0.0
 20
0.0
 30
0.0
  9
$UCSXDIR
 10
1.0
 20
0.0
 30
0.0
  9
$UCSYDIR
 10
0.0
 20
1.0
 30
0.0
  9
$PUCSNAME
  2

  9
$PUCSORG
 10
0.0
 20
0.0
 30
0.0
  9
$PUCSXDIR
 10
1.0
 20
0.0
 30
0.0
  9
$PUCSYDIR
 10
0.0
 20
1.0
 30
0.0
  9
$USERI1
 70
     1
  9
$USERI2
 70
     0
  9
$USERI3
 70
     0
  9
$USERI4
 70
     0
  9
$USERI5
 70
     0
  9
$USERR1
 40
0.0
  9
$USERR2
 40
0.0
  9
$USERR3
 40
0.0
  9
$USERR4
 40
0.0
  9
$USERR5
 40
0.0
  9
$WORLDVIEW
 70
     1
  9
$SHADEDGE
 70
     3
  9
$SHADEDIF
 70
    70
  9
$TILEMODE
 70
     1
  9
$MAXACTVP
 70
    16
  9
$PLIMCHECK
 70
     0
  9
$PEXTMIN
 10
1.0000000000000000E+020
 20
1.0000000000000000E+020
 30
1.0000000000000000E+020
  9
$PEXTMAX
 10
-1.0000000000000000E+020
 20
-1.0000000000000000E+020
 30
-1.0000000000000000E+020
  9
$PLIMMIN
 10
0.0
 20
0.0
  9
$PLIMMAX
 10
420.0
 20
297.0
  9
$UNITMODE
 70
     0
  9
$VISRETAIN
 70
     0
  9
$PLINEGEN
 70
     0
  9
$PSLTSCALE
 70
     1
  0
ENDSEC
  0
SECTION
  2
TABLES
  0
TABLE
  2
VPORT
 70
    71
  0
VPORT
  2
*ACTIVE
 70
     0
 10
0.0
 20
0.0
 11
1.0
 21
1.0
 12
-11.54822112508219
 22
12.776017476718801
 13
0.0
 23
0.0
 14
7.0
 24
7.0
 15
7.0
 25
7.0
 16
0.0
 26
0.0
 36
1.0
 17
0.0
 27
0.0
 37
0.0
 40
68.870131430545712
 41
1.5029527559055109
 42
50.0
 43
0.0
 44
0.0
 50
0.0
 51
0.0
 71
     0
 72
  2000
 73
     1
 74
     0
 75
     0
 76
     0
 77
     0
 78
     0
  0
ENDTAB
  0
TABLE
  2
LTYPE
 70
    19
  0
LTYPE
  2
CONTINUOUS
 70
     0
  3
Solid line
 72
    65
 73
     0
 40
0.0
  0
LTYPE
  2
CENTER2
 70
     0
  3
___ _ ___ _ ___ _ ___ _ ___ _ ___ _ ___ _ ___ _
 72
    65
 73
     4
 40
1.125
 49
0.75
 49
-0.125
 49
0.125
 49
-0.125
  0
LTYPE
  2
HIDDEN2
 70
     0
  3
_ _ _ _ _ _ _ _ _ _ _ _ _ _ _ _ _ _ _ _ _ _ _ _
 72
    65
 73
     2
 40
0.1875
 49
0.125
 49
-0.0625
  0
LTYPE
  2
HIDDEN
 70
     0
  3
Hidden __ __ __ __ __ __ __ __ __ __ __ __ __ _
 72
    65
 73
     2
 40
9.5249999999999986
 49
6.3499999999999979
 49
-3.174999999999998
  0
LTYPE
  2
PHANTOM2
 70
     0
  3
Phantom (.5x) ___ _ _ ___ _ _ ___ _ _ ___ _ _
 72
    65
 73
     6
 40
31.75
 49
15.875
 49
-3.174999999999998
 49
3.174999999999998
 49
-3.174999999999998
 49
3.174999999999998
 49
-3.174999999999998
  0
LTYPE
  2
CENTER
 70
     0
  3
Center ____ _ ____ _ ____ _ ____ _ ____ _ ____
 72
    65
 73
     4
 40
50.799999999999997
 49
31.75
 49
-6.3499999999999979
 49
6.3499999999999979
 49
-6.3499999999999979
  0
LTYPE
  2
AMCONSTR
 70
     0
  3
_______________________
 72
    65
 73
     2
 40
9999.0
 49
9999.0
 49
0.0
  0
LTYPE
  2
AMZIGZAG2
 70
     0
  3
/\/-/\/-/\/-/\/-/\/-/\/
 72
    65
 73
     2
 40
0.4401
 49
0.0001
 49
-0.4400000000000001
  0
LTYPE
  2
ACANSTGB
 70
     0
  3
__ . . __ . .
 72
    65
 73
     6
 40
0.35433070866
 49
0.15748031496
 49
-0.03937007874
 49
0.03937007874
 49
-0.03937007874
 49
0.03937007874
 49
-0.03937007874
  0
LTYPE
  2
ACANSTGL
 70
     0
  3
_ _ _ _ _
 72
    65
 73
     2
 40
0.11811023622
 49
0.07874015748
 49
-0.03937007874
  0
ENDTAB
  0
TABLE
  2
LAYER
 70
     9
  0
LAYER
  2
0
 70
     0
 62
     7
  6
CONTINUOUS
  0
LAYER
  2
240
 70
     0
 62
     4
  6
CONTINUOUS
  0
LAYER
  2
241
 70
     0
 62
   211
  6
CONTINUOUS
  0
LAYER
  2
243
 70
     0
 62
   211
  6
HIDDEN2
  0
LAYER
  2
245
 70
     0
 62
     2
  6
CENTER2
  0
LAYER
  2
250
 70
     0
 62
     3
  6
CONTINUOUS
  0
LAYER
  2
DEFPOINTS
 70
     0
 62
     7
  6
CONTINUOUS
  0
ENDTAB
  0
TABLE
  2
STYLE
 70
     7
  0
STYLE
  2
STANDARD
 70
     0
 40
0.0
 41
1.0
 50
0.0
 71
     0
 42
3.0
  3
romans.shx
  4
BIGFONT.SHX
  0
STYLE
  2
YOKO
 70
     0
 40
0.0
 41
1.0
 50
0.0
 71
     0
 42
3.0
  3
romans.shx
  4
extfont.shx
  0
STYLE
  2

 70
     1
 40
0.0
 41
1.0
 50
0.0
 71
     0
 42
3.0
  3
ltypeshp.shx
  4

  0
STYLE
  2
ACANSTS
 70
     0
 40
1.0
 41
1.0
 50
0.0
 71
     0
 42
3.0
  3
romans.shx
  4
extfont.shx
  0
STYLE
  2
ACANSGDT
 70
     0
 40
0.0
 41
1.0
 50
0.0
 71
     0
 42
3.0
  3
amgdtans.shx
  4

  0
ENDTAB
  0
TABLE
  2
VIEW
 70
     0
  0
ENDTAB
  0
TABLE
  2
UCS
 70
     0
  0
ENDTAB
  0
TABLE
  2
APPID
 70
    16
  0
APPID
  2
ACAD
 70
     0
  0
APPID
  2
GLOBAL
 70
     0
  0
APPID
  2
DETAIL
 70
     0
  0
APPID
  2
GRPNAME
 70
     0
  0
APPID
  2
GPARA
 70
     0
  0
APPID
  2
ITEMNAME
 70
     0
  0
APPID
  2
MCAD_NO_VIS
 70
     0
  0
APPID
  2
ACAD_TEMP_GRAPHIC
 70
     0
  0
APPID
  2
AD_DRAW
 70
     0
  0
APPID
  2
ACATTRIBSERVICES
 70
     0
  0
APPID
  2
DESIGNERASSEMBLIES
 70
     0
  0
APPID
  2
ACADM_DIM_EDIT
 70
     0
  0
APPID
  2
AMDT_DM_ADJ
 70
     0
  0
APPID
  2
GENIUS_GENSCREG_15
 70
     0
  0
APPID
  2
GENIUS_GENODEF_13
 70
     0
  0
APPID
  2
GENIUS_GENOBJ-N-SDF_13
 70
     0
  0
ENDTAB
  0
TABLE
  2
DIMSTYLE
 70
    15
  0
DIMSTYLE
  2
STANDARD
 70
     0
  3

  4

  5

  6

  7

 40
1.0
 41
2.0
 42
2.0
 43
3.75
 44
2.0
 45
0.0
 46
0.0
 47
0.0
 48
0.0
140
4.0
141
0.09
142
0.0
143
25.399999999999999
144
1.0
145
0.0
146
1.0
147
1.0
 71
     0
 72
     0
 73
     1
 74
     1
 75
     0
 76
     0
 77
     0
 78
     8
170
     0
171
     2
172
     0
173
     1
174
     0
175
     0
176
   256
177
   256
178
   256
  0
DIMSTYLE
  2
BIGT
 70
     0
  3

  4

  5

  6

  7

 40
1.0
 41
2.2299999999999991
 42
0.5
 43
2.5
 44
1.0
 45
0.0
 46
0.0
 47
0.0
 48
0.0
140
3.5
141
0.0
142
0.0
143
25.399999999999999
144
1.0
145
0.0
146
1.0
147
1.0
 71
     0
 72
     0
 73
     0
 74
     0
 75
     0
 76
     0
 77
     3
 78
     9
170
     0
171
     2
172
     1
173
     0
174
     0
175
     0
176
   256
177
   256
178
    40
  0
DIMSTYLE
  2
AM_ANSI
 70
     0
  3

  4
mm
  5

  6

  7

 40
1.0
 41
0.1
 42
0.05
 43
0.5
 44
0.1
 45
0.0
 46
0.0
 47
0.1
 48
0.1
140
0.12
141
0.0
142
0.0
143
25.399999999999999
144
1.0
145
0.0
146
0.71
147
0.06
 71
     0
 72
     0
 73
     1
 74
     1
 75
     0
 76
     0
 77
     0
 78
     7
170
     0
171
     2
172
     0
173
     0
174
     0
175
     0
176
   256
177
   256
178
     2
  0
DIMSTYLE
  2
AM_ANSI$3
 70
     0
  3

  4
mm
  5

  6

  7

 40
1.0
 41
0.1
 42
0.05
 43
0.5
 44
0.1
 45
0.0
 46
0.0
 47
0.1
 48
0.1
140
0.12
141
0.0
142
0.0
143
25.399999999999999
144
1.0
145
0.0
146
0.71
147
0.06
 71
     0
 72
     0
 73
     1
 74
     1
 75
     0
 76
     0
 77
     0
 78
     7
170
     0
171
     2
172
     0
173
     0
174
     0
175
     0
176
   256
177
   256
178
     2
  0
DIMSTYLE
  2
AM_ANSI$4
 70
     0
  3

  4
mm
  5

  6

  7

 40
1.0
 41
0.1
 42
0.05
 43
0.5
 44
0.1
 45
0.0
 46
0.0
 47
0.1
 48
0.1
140
0.12
141
0.0
142
0.0
143
25.399999999999999
144
1.0
145
0.0
146
0.71
147
0.06
 71
     0
 72
     0
 73
     1
 74
     1
 75
     0
 76
     0
 77
     0
 78
     7
170
     0
171
     2
172
     0
173
     0
174
     0
175
     0
176
   256
177
   256
178
     2
  0
DIMSTYLE
  2
AM_ANSI$7
 70
     0
  3

  4
mm
  5

  6

  7

 40
1.0
 41
0.1
 42
0.05
 43
0.5
 44
0.1
 45
0.0
 46
0.0
 47
0.1
 48
0.1
140
0.24
141
0.0
142
0.0
143
25.399999999999999
144
1.0
145
0.0
146
0.71
147
0.06
 71
     0
 72
     0
 73
     1
 74
     1
 75
     0
 76
     0
 77
     0
 78
     7
170
     0
171
     2
172
     0
173
     0
174
     0
175
     0
176
   256
177
   256
178
     2
  0
DIMSTYLE
  2
AM_ANSI$SF
 70
     0
  3

  4
mm
  5

  6

  7

 40
1.0
 41
0.1
 42
0.05
 43
0.5
 44
0.1
 45
0.0
 46
0.0
 47
0.1
 48
0.1
140
0.12
141
0.0
142
0.0
143
25.399999999999999
144
1.0
145
0.0
146
0.71
147
0.06
 71
     0
 72
     0
 73
     1
 74
     1
 75
     1
 76
     1
 77
     0
 78
     7
170
     0
171
     2
172
     0
173
     0
174
     0
175
     0
176
   256
177
   256
178
     2
  0
DIMSTYLE
  2
AM_ANSI$SH
 70
     0
  3

  4
mm
  5

  6
GENAXEH
  7

 40
1.0
 41
0.1
 42
0.05
 43
0.5
 44
0.1
 45
0.0
 46
0.0
 47
0.1
 48
0.1
140
0.12
141
0.0
142
0.0
143
25.399999999999999
144
1.0
145
0.0
146
0.71
147
0.06
 71
     0
 72
     0
 73
     1
 74
     1
 75
     1
 76
     1
 77
     0
 78
     7
170
     0
171
     2
172
     0
173
     1
174
     0
175
     0
176
   256
177
   256
178
     2
  0
ENDTAB
  0
ENDSEC
  0
SECTION
  2
BLOCKS
  0
BLOCK
  8
0
  2
$MODEL_SPACE
 70
     0
 10
0.0
 20
0.0
 30
0.0
  3
$MODEL_SPACE
  1

  0
ENDBLK
  5
234F
  8
0
  0
BLOCK
 67
     1
  8
0
  2
$PAPER_SPACE
 70
     0
 10
0.0
 20
0.0
 30
0.0
  3
$PAPER_SPACE
  1

  0
ENDBLK
  5
234B
 67
     1
  8
0
  0
BLOCK
  8
0
  2
_OPEN
 70
     0
 10
0.0
 20
0.0
 30
0.0
  3
_OPEN
  1

  0
LINE
  5
595
  8
0
  6
BYBLOCK
 62
     0
 10
-1.0
 20
0.1666666666666666
 30
0.0
 11
0.0
 21
0.0
 31
0.0
  0
LINE
  5
596
  8
0
  6
BYBLOCK
 62
     0
 10
-1.0
 20
-0.1666666666666666
 30
0.0
 11
0.0
 21
0.0
 31
0.0
  0
LINE
  5
597
  8
0
  6
BYBLOCK
 62
     0
 10
0.0
 20
0.0
 30
0.0
 11
-1.0
 21
0.0
 31
0.0
  0
ENDBLK
  5
599
  8
0
  0
BLOCK
  8
0
  2
GENAXEH
 70
     0
 10
0.0
 20
0.0
 30
0.0
  3
GENAXEH
  1

  0
LINE
  5
22CE
  8
0
 10
-1.0
 20
0.0
 30
0.0
 11
1.0
 21
0.0
 31
0.0
  0
ENDBLK
  5
22D0
  8
0
  0
BLOCK
  8
0
  2
A$C7DE16BA7
 70
     0
 10
0.0
 20
0.0
 30
0.0
  3
A$C7DE16BA7
  1

  0
LINE
  5
248F
  8
243
 10
-37.000000000000007
 20
-5.75
 30
0.0
 11
-8.0999999999999943
 21
-5.7499999999999991
 31
0.0
1001
GRPNAME
1000
PASTMDCT
  0
LINE
  5
2490
  8
243
 10
-37.000000000000007
 20
5.75
 30
0.0
 11
-8.0999999999999943
 21
5.7499999999999991
 31
0.0
1001
GRPNAME
1000
PASTMDCT
  0
ARC
  5
2491
  8
240
 10
-6.0999999999999934
 20
20.0
 30
0.0
 40
1.0
 50
0.0
 51
89.999999999996732
1001
GRPNAME
1000
PASTMDCT
  0
LINE
  5
2492
  8
241
 10
-5.1068224733541259
 20
18.753071585282878
 30
0.0
 11
-5.1000076386119124
 21
18.778504894786082
 31
0.0
1001
GRPNAME
1000
PASTMDAV
  0
LINE
  5
2493
  8
241
 10
-5.1068224733541259
 20
18.753071585282878
 30
0.0
 11
-5.1000076386119124
 21
18.778504894786082
 31
0.0
1001
GRPNAME
1000
PASTMDAW
  0
ARC
  5
2494
  8
241
 10
-5.1980827978341297
 20
17.02300720214842
 30
0.0
 40
0.1999999999999815
 50
37.752642313066957
 51
60.634715445705837
1001
GRPNAME
1000
PASTMDCS
  0
LINE
  5
2495
  8
240
 10
-5.0999999999999934
 20
17.16466620536616
 30
0.0
 11
-5.0999999999999934
 21
20.0
 31
0.0
1001
GRPNAME
1000
PASTMDCT
  0
ARC
  5
2496
  8
240
 10
-0.4714326284562845
 20
10.42904256311092
 30
0.0
 40
0.500000000000004
 50
19.4615556252317
 51
37.752642262363899
1001
GRPNAME
1000
PASTMDCS
  0
LINE
  5
2497
  8
240
 10
-5.039950530245874
 20
17.145457951216741
 30
0.0
 11
-0.0761019594856123
 21
10.735169435781719
 31
0.0
1001
GRPNAME
1000
PASTMDCS
  0
ARC
  5
2498
  8
240
 10
-0.4714326284562845
 20
-10.42904256311092
 30
0.0
 40
0.5000000000000038
 50
322.24735773763598
 51
340.53844437476738
  0
LINE
  5
2499
  8
240
 10
0.0
 20
0.0
 30
0.0
 11
0.0
 21
-10.59562970795351
 31
0.0
  0
LINE
  5
249A
  8
240
 10
0.0
 20
0.0
 30
0.0
 11
0.0
 21
10.595629707953499
 31
0.0
1001
GRPNAME
1000
PASTMDCS
  0
LINE
  5
249B
  8
241
 10
-5.0999999999999934
 20
0.0
 30
0.0
 11
-5.0999999999999934
 21
17.16466620536616
 31
0.0
1001
GRPNAME
1000
PASTMDCT
  0
LINE
  5
249C
  8
243
 10
-11.299999999999979
 20
12.74999999999994
 30
0.0
 11
-11.299999999999979
 21
11.0
 31
0.0
1001
GRPNAME
1000
NBS16 09
  0
LINE
  5
249D
  8
243
 10
-13.70000000000001
 20
11.0
 30
0.0
 11
-13.70000000000001
 21
12.75
 31
0.0
1001
GRPNAME
1000
NBS16 09
  0
LINE
  5
249E
  8
243
 10
-13.70000000000001
 20
11.0
 30
0.0
 11
-11.299999999999979
 21
11.0
 31
0.0
1001
GRPNAME
1000
NBS16 09
  0
LINE
  5
249F
  8
243
 10
-11.299999999999979
 20
12.74999999999994
 30
0.0
 11
-11.099999999999991
 21
12.75
 31
0.0
1001
GRPNAME
1000
NBS16 09
  0
LINE
  5
24A0
  8
243
 10
-11.099999999999991
 20
12.75
 30
0.0
 11
-8.0999999999999943
 21
11.0179491924311
 31
0.0
1001
GRPNAME
1000
NBS16 09
  0
LINE
  5
24A1
  8
240
 10
-29.970357081426709
 20
20.992893218813428
 30
0.0
 11
-30.327463862613289
 21
21.349999999999991
 31
0.0
1001
GRPNAME
1000
PASTMDCT
  0
ARC
  5
24A2
  8
240
 10
-29.263250300240209
 20
21.699999999999989
 30
0.0
 40
0.9999999999999779
 50
224.9999999273569
 51
315.57299592655028
1001
GRPNAME
1000
PASTMDCT
  0
ARC
  5
24A3
  8
240
 10
-31.69999999999995
 20
20.849999999999991
 30
0.0
 40
0.5
 50
89.999999989716343
 51
179.99999998970819
1001
GRPNAME
1000
PASTMDCT
  0
LINE
  5
24A4
  8
240
 10
-31.69999999999995
 20
21.349999999999991
 30
0.0
 11
-30.327463862613289
 21
21.349999999999991
 31
0.0
1001
GRPNAME
1000
PASTMDCT
  0
LINE
  5
24A5
  8
243
 10
-11.299999999999979
 20
-12.74999999999994
 30
0.0
 11
-11.299999999999979
 21
-11.0
 31
0.0
1001
GRPNAME
1000
NBS16 0B
  0
LINE
  5
24A6
  8
243
 10
-13.70000000000001
 20
-11.0
 30
0.0
 11
-13.70000000000001
 21
-12.75
 31
0.0
1001
GRPNAME
1000
NBS16 0B
  0
LINE
  5
24A7
  8
243
 10
-11.299999999999979
 20
-12.74999999999994
 30
0.0
 11
-11.099999999999991
 21
-12.75
 31
0.0
1001
GRPNAME
1000
NBS16 0B
  0
LINE
  5
24A8
  8
243
 10
-13.70000000000001
 20
-11.0
 30
0.0
 11
-11.299999999999979
 21
-11.0
 31
0.0
1001
GRPNAME
1000
NBS16 0B
  0
LINE
  5
24A9
  8
243
 10
-11.099999999999991
 20
-12.75
 30
0.0
 11
-8.0999999999999943
 21
-11.0179491924311
 31
0.0
1001
GRPNAME
1000
NBS16 0B
  0
LINE
  5
24AA
  8
243
 10
-8.0999999999999943
 20
-11.0179491924311
 30
0.0
 11
-8.0999999999999943
 21
0.0
 31
0.0
1001
GRPNAME
1000
NBS16 0B
  0
LINE
  5
24AB
  8
240
 10
-32.199999999999953
 20
20.849999999999991
 30
0.0
 11
-32.199999999999953
 21
0.0
 31
0.0
1001
GRPNAME
1000
PASTMDCT
  0
LINE
  5
24AC
  8
241
 10
-30.327463862613289
 20
0.0
 30
0.0
 11
-30.327463862613289
 21
21.349999999999991
 31
0.0
1001
GRPNAME
1000
PASTMDCT
  0
LINE
  5
24AD
  8
241
 10
-28.549107457385912
 20
0.0
 30
0.0
 11
-28.549107457385912
 21
21.0
 31
0.0
1001
GRPNAME
1000
PASTMDCT
  0
LINE
  5
24AE
  8
243
 10
-8.0999999999999943
 20
11.0179491924311
 30
0.0
 11
-8.0999999999999943
 21
0.0
 31
0.0
1001
GRPNAME
1000
NBS16 09
  0
LINE
  5
24AF
  8
240
 10
-28.549107457385912
 20
21.0
 30
0.0
 11
-6.0999999999999934
 21
21.0
 31
0.0
1001
GRPNAME
1000
PASTMDCT
  0
ARC
  5
24B0
  8
241
 10
-5.1980827978341297
 20
-17.02300720214842
 30
0.0
 40
0.2000000000000696
 50
299.36528455429408
 51
322.24735768693301
  0
ARC
  5
24B1
  8
240
 10
-6.0999999999999934
 20
-20.0
 30
0.0
 40
1.0
 50
270.00000000000318
 51
0.0
1001
GRPNAME
1000
PASTMDCV
  0
LINE
  5
24B2
  8
241
 10
-5.1068224733541259
 20
-18.753071585282878
 30
0.0
 11
-5.1000076386119124
 21
-18.778504894786082
 31
0.0
1001
GRPNAME
1000
PASTMDB5
  0
LINE
  5
24B3
  8
241
 10
-5.1068224733541259
 20
-18.753071585282878
 30
0.0
 11
-5.1000076386119124
 21
-18.778504894786082
 31
0.0
1001
GRPNAME
1000
PASTMDB6
  0
LINE
  5
24B4
  8
240
 10
-5.0999999999999934
 20
-17.16466620536616
 30
0.0
 11
-5.0999999999999934
 21
-20.0
 31
0.0
1001
GRPNAME
1000
PASTMDCV
  0
LINE
  5
24B5
  8
240
 10
-29.970357081426709
 20
-20.992893218813428
 30
0.0
 11
-30.327463862613289
 21
-21.349999999999991
 31
0.0
1001
GRPNAME
1000
PASTMDCV
  0
ARC
  5
24B6
  8
240
 10
-29.263250300240209
 20
-21.699999999999989
 30
0.0
 40
0.9999999999999764
 50
44.427004131299
 51
135.00000013049299
1001
GRPNAME
1000
PASTMDCV
  0
ARC
  5
24B7
  8
240
 10
-31.69999999999995
 20
-20.849999999999991
 30
0.0
 40
0.5
 50
180.0000000128646
 51
270.00000001285821
1001
GRPNAME
1000
PASTMDCV
  0
LINE
  5
24B8
  8
240
 10
-31.69999999999995
 20
-21.349999999999991
 30
0.0
 11
-30.327463862613289
 21
-21.349999999999991
 31
0.0
1001
GRPNAME
1000
PASTMDCV
  0
LINE
  5
24B9
  8
240
 10
-28.549107457385912
 20
-21.0
 30
0.0
 11
-6.0999999999999934
 21
-21.0
 31
0.0
1001
GRPNAME
1000
PASTMDCV
  0
LINE
  5
24BA
  8
240
 10
-5.039950530245874
 20
-17.145457951216741
 30
0.0
 11
-0.0761019594856123
 21
-10.735169435781719
 31
0.0
  0
LINE
  5
24BB
  8
240
 10
-32.199999999999953
 20
-20.849999999999991
 30
0.0
 11
-32.199999999999953
 21
0.0
 31
0.0
1001
GRPNAME
1000
PASTMDCV
  0
LINE
  5
24BC
  8
241
 10
-30.327463862613289
 20
0.0
 30
0.0
 11
-30.327463862613289
 21
-21.349999999999991
 31
0.0
1001
GRPNAME
1000
PASTMDCV
  0
LINE
  5
24BD
  8
241
 10
-28.549107457385912
 20
0.0
 30
0.0
 11
-28.549107457385912
 21
-21.0
 31
0.0
1001
GRPNAME
1000
PASTMDCV
  0
LINE
  5
24BE
  8
241
 10
-5.0999999999999934
 20
0.0
 30
0.0
 11
-5.0999999999999934
 21
-17.16466620536616
 31
0.0
1001
GRPNAME
1000
PASTMDCV
  0
ARC
  5
24BF
  8
243
 10
-38.81038669902307
 20
5.6500000000000332
 30
0.0
 40
1.999999999999956
 50
25.150663324860819
 51
89.99999991231806
  0
LINE
  5
24C0
  8
243
 10
-43.09999999999976
 20
7.6500000000000332
 30
0.0
 11
-38.81038669902307
 21
7.6500000000000332
 31
0.0
  0
ARC
  5
24C1
  8
243
 10
-38.79999999999999
 20
-5.6500000000000332
 30
0.0
 40
2.0
 50
269.99999989973509
 51
359.99999989973333
  0
LINE
  5
24C2
  8
243
 10
-43.09999999999976
 20
-7.6500000000000332
 30
0.0
 11
-38.81038669902307
 21
-7.6500000000000332
 31
0.0
  0
LINE
  5
24C3
  8
243
 10
-37.0
 20
-0.3000000000000114
 30
0.0
 11
-37.0
 21
-6.500000000000056
 31
0.0
  0
LINE
  5
24C4
  8
243
 10
-43.099999999999973
 20
0.0
 30
0.0
 11
-43.099999999999973
 21
-9.6599354831894821
 31
0.0
1001
GRPNAME
1000
NBS16 0B
  0
LINE
  5
24C5
  8
243
 10
-37.0
 20
0.3000000000000114
 30
0.0
 11
-37.0
 21
6.500000000000056
 31
0.0
  0
LINE
  5
24C6
  8
243
 10
-43.099999999999973
 20
0.0
 30
0.0
 11
-43.099999999999973
 21
9.6599354831894821
 31
0.0
1001
GRPNAME
1000
NBS16 09
  0
LINE
  5
24C7
  8
245
 10
-45.096458352025387
 20
0.0
 30
0.0
 11
0.85245772063044
 21
0.0
 31
0.0
1001
GRPNAME
1000
PASTMDCT
  0
LINE
  5
24C8
  8
243
 10
-13.70000000000001
 20
-12.75
 30
0.0
 11
-43.099999999999973
 21
-9.6599354831894821
 31
0.0
1001
GRPNAME
1000
NBS16 0B
  0
LINE
  5
24C9
  8
243
 10
-13.70000000000001
 20
12.75
 30
0.0
 11
-43.099999999999973
 21
9.6599354831894821
 31
0.0
1001
GRPNAME
1000
NBS16 09
  0
ENDBLK
  5
24CB
  8
0
  0
BLOCK
  8
0
  2
*U10
 70
     1
 10
0.0
 20
0.0
 30
0.0
  3
*U10
  1

  0
TEXT
  5
2541
  8
240
 62
    40
 10
11.86662575324317
 20
-10.871428571428581
 30
0.0
 40
3.0
  1
\U+2205
 50
90.0
  0
TEXT
  5
2542
  8
240
 62
    40
 10
11.86662575324317
 20
-8.1571428571428601
 30
0.0
 40
3.0
  1
11ü`11.5
 50
90.0
  0
ENDBLK
  5
2544
  8
0
  0
ENDSEC
  0
SECTION
  2
ENTITIES
  0
LINE
  5
22EE
  8
250
 10
-5.5999999999999348
 20
-21.0
 30
0.0
 11
21.999999999999989
 21
-21.0
 31
0.0
  0
LINE
  5
22EF
  8
250
 10
-5.5999999999999934
 20
21.0
 30
0.0
 11
22.0
 21
20.999999999999989
 31
0.0
  0
LINE
  5
22F0
  8
250
 10
20.999999999999989
 20
-18.77
 30
0.0
 11
21.0
 21
18.769999999999989
 31
0.0
  0
TEXT
  5
22F4
  8
250
 10
19.999999999999989
 20
-4.0714285714285721
 30
0.0
 40
3.0
  1
\U+2205
 50
90.0
1001
ACAD
1000
MTEXTBEGIN
1070
    73
1070
     1
1070
    44
1040
1.0
1070
    74
1070
     0
1000
MTEXTEND
  0
TEXT
  5
22F5
  8
250
 10
19.999999999999989
 20
-1.3571428571428581
 30
0.0
 40
3.0
  1
42
 50
90.0
1001
ACAD
1000
MTEXTBEGIN
1070
    73
1070
     1
1070
    44
1040
1.0
1070
    74
1070
     0
1000
MTEXTEND
  0
LINE
  5
22F6
  8
250
 10
20.62833333333333
 20
18.769999999999989
 30
0.0
 11
21.0
 21
20.999999999999989
 31
0.0
  0
LINE
  5
22F7
  8
250
 10
21.37166666666667
 20
18.769999999999989
 30
0.0
 11
21.0
 21
20.999999999999989
 31
0.0
  0
LINE
  5
22F8
  8
250
 10
21.0
 20
20.999999999999989
 30
0.0
 11
21.0
 21
18.769999999999989
 31
0.0
  0
LINE
  5
22F9
  8
250
 10
21.371666666666648
 20
-18.77
 30
0.0
 11
20.999999999999989
 21
-21.0
 31
0.0
  0
LINE
  5
22FA
  8
250
 10
20.62833333333332
 20
-18.77
 30
0.0
 11
20.999999999999989
 21
-21.0
 31
0.0
  0
LINE
  5
22FB
  8
250
 10
20.999999999999989
 20
-21.0
 30
0.0
 11
20.999999999999989
 21
-18.77
 31
0.0
  0
TEXT
  5
2304
  8
243
 10
-35.952380952380963
 20
42.0
 30
0.0
 40
5.0
  1
MPS16-11115
  7
YOKO
1001
ITEMNAME
1000
DI010
1001
ACAD
1000
MTEXTBEGIN
1070
    73
1070
     1
1070
    44
1040
1.0
1070
    74
1070
     0
1000
MTEXTEND
  0
INSERT
  5
24CD
  8
240
  2
A$C7DE16BA7
 10
0.0
 20
0.0
 30
0.0
  0
LINE
  5
2514
  8
250
 10
-7.5999999999999952
 20
5.7499999999999991
 30
0.0
 11
13.86662575324317
 21
5.749999999999992
 31
0.0
  0
LINE
  5
2515
  8
250
 10
-7.5999999999999934
 20
-5.7499999999999991
 30
0.0
 11
13.86662575324317
 21
-5.7500000000000053
 31
0.0
  0
LINE
  5
2516
  8
250
 10
12.86662575324317
 20
3.5199999999999938
 30
0.0
 11
12.86662575324317
 21
-3.5200000000000049
 31
0.0
  0
TEXT
  5
251A
  8
250
 10
11.86662575324317
 20
-10.871428571428581
 30
0.0
 40
3.0
  1
\U+2205
 50
90.0
  0
TEXT
  5
251B
  8
250
 10
11.86662575324317
 20
-8.1571428571428601
 30
0.0
 40
3.0
  1
11ü`11.5
 50
90.0
  0
LINE
  5
251C
  8
250
 10
13.238292419909831
 20
-3.5200000000000049
 30
0.0
 11
12.86662575324317
 21
-5.7500000000000044
 31
0.0
  0
LINE
  5
251D
  8
250
 10
12.4949590865765
 20
-3.5200000000000049
 30
0.0
 11
12.86662575324317
 21
-5.7500000000000044
 31
0.0
  0
LINE
  5
251E
  8
250
 10
12.86662575324317
 20
-5.7500000000000044
 30
0.0
 11
12.86662575324317
 21
-3.5200000000000049
 31
0.0
  0
LINE
  5
251F
  8
250
 10
12.4949590865765
 20
3.5199999999999938
 30
0.0
 11
12.86662575324317
 21
5.7499999999999929
 31
0.0
  0
LINE
  5
2520
  8
250
 10
13.23829241990984
 20
3.5199999999999938
 30
0.0
 11
12.86662575324317
 21
5.7499999999999929
 31
0.0
  0
LINE
  5
2521
  8
250
 10
12.86662575324317
 20
5.7499999999999929
 30
0.0
 11
12.86662575324317
 21
3.5199999999999938
 31
0.0
  0
VIEWPORT
  5
22
 67
     1
  8
0
 10
261.51769911504419
 20
148.5
 30
0.0
 40
523.0353982300885
 41
297.0
 68
     1
 69
     1
1001
ACAD
1000
MVIEW
1002
{
1070
    16
1010
0.0
1020
0.0
1030
0.0
1010
0.0
1020
0.0
1030
1.0
1040
0.0
1040
297.0
1040
261.51769911504419
1040
148.5
1040
50.0
1040
0.0
1040
0.0
1070
     0
1070
   100
1070
     1
1070
     1
1070
     0
1070
     0
1070
     0
1070
     0
1040
0.0
1040
0.0
1040
0.0
1040
1.0
1040
1.0
1040
10.0
1040
10.0
1070
     0
1002
{
1002
}
1002
}
1001
GENIUS_GENODEF_13
1002
{
1000
HIER
1070
     0
1002
}
1002
{
1000
MANEDIT
1070
     0
1002
}
1002
{
1000
NOSEL
1070
     0
1002
}
1002
{
1000
BEHIND
1070
     0
1002
}
1002
{
1000
OTHER
1070
     0
1002
}
1002
{
1000
REACTOR
1002
}
1001
GENIUS_GENOBJ-N-SDF_13
1002
{
1000
OWNER
1000
GEN
1002
}
1001
GENIUS_GENSCREG_15
1000
PF
1040
1.0
1000
DF
1040
1.0
1000
MIN
1011
0.0
1021
0.0
1031
0.0
1021
0.0
1031
0.0
1000
MAX
1011
523.0353982300885
1021
0.0
1031
0.0
1021
297.0
1031
0.0
1000
FLAGS
1070
     2
  0
ENDSEC
  0
EOF
