  0
SECTION
  2
HEADER
  9
$ACADVER
  1
AC1009
  9
$INSBASE
 10
0.0
 20
0.0
 30
0.0
  9
$EXTMIN
 10
-45.117336988380544
 20
-21.467679332164209
 30
-0.0000000349181948
  9
$EXTMAX
 10
22.013624330764738
 20
47.014091552899629
 30
0.0000000814935747
  9
$LIMMIN
 10
0.0
 20
0.0
  9
$LIMMAX
 10
297.0
 20
210.0
  9
$ORTHOMODE
 70
     0
  9
$REGENMODE
 70
     1
  9
$FILLMODE
 70
     1
  9
$QTEXTMODE
 70
     0
  9
$MIRRTEXT
 70
     1
  9
$DRAGMODE
 70
     2
  9
$LTSCALE
 40
10.0
  9
$OSMODE
 70
   639
  9
$ATTMODE
 70
     1
  9
$TEXTSIZE
 40
3.0
  9
$TRACEWID
 40
1.0
  9
$TEXTSTYLE
  7
YOKO
  9
$CLAYER
  8
240
  9
$CELTYPE
  6
BYLAYER
  9
$CECOLOR
 62
   256
  9
$DIMSCALE
 40
1.0
  9
$DIMASZ
 40
2.2299999999999991
  9
$DIMEXO
 40
0.5
  9
$DIMDLI
 40
2.5
  9
$DIMRND
 40
0.0
  9
$DIMDLE
 40
0.0
  9
$DIMEXE
 40
1.0
  9
$DIMTP
 40
0.0
  9
$DIMTM
 40
0.0
  9
$DIMTXT
 40
3.0
  9
$DIMCEN
 40
0.0
  9
$DIMTSZ
 40
0.0
  9
$DIMTOL
 70
     0
  9
$DIMLIM
 70
     0
  9
$DIMTIH
 70
     0
  9
$DIMTOH
 70
     0
  9
$DIMSE1
 70
     0
  9
$DIMSE2
 70
     0
  9
$DIMTAD
 70
     3
  9
$DIMZIN
 70
     8
  9
$DIMBLK
  1
OPEN
  9
$DIMASO
 70
     1
  9
$DIMSHO
 70
     1
  9
$DIMPOST
  1

  9
$DIMAPOST
  1

  9
$DIMALT
 70
     0
  9
$DIMALTD
 70
     2
  9
$DIMALTF
 40
25.399999999999999
  9
$DIMLFAC
 40
1.0
  9
$DIMTOFL
 70
     1
  9
$DIMTVP
 40
0.0
  9
$DIMTIX
 70
     0
  9
$DIMSOXD
 70
     0
  9
$DIMSAH
 70
     0
  9
$DIMBLK1
  1

  9
$DIMBLK2
  1

  9
$DIMSTYLE
  2
BIGT
  9
$DIMCLRD
 70
   256
  9
$DIMCLRE
 70
   256
  9
$DIMCLRT
 70
    40
  9
$DIMTFAC
 40
1.0
  9
$DIMGAP
 40
1.0
  9
$LUNITS
 70
     2
  9
$LUPREC
 70
     2
  9
$SKETCHINC
 40
1.0
  9
$FILLETRAD
 40
0.0
  9
$AUNITS
 70
     0
  9
$AUPREC
 70
     3
  9
$MENU
  1
.
  9
$ELEVATION
 40
0.0
  9
$PELEVATION
 40
0.0
  9
$THICKNESS
 40
0.0
  9
$LIMCHECK
 70
     0
  9
$BLIPMODE
 70
     0
  9
$CHAMFERA
 40
10.0
  9
$CHAMFERB
 40
10.0
  9
$SKPOLY
 70
     0
  9
$TDCREATE
 40
2452880.4648967362
  9
$TDUPDATE
 40
2453612.504570486
  9
$TDINDWG
 40
0.0591001042
  9
$TDUSRTIMER
 40
0.0591001042
  9
$USRTIMER
 70
     1
  9
$ANGBASE
 50
0.0
  9
$ANGDIR
 70
     0
  9
$PDMODE
 70
    35
  9
$PDSIZE
 40
2.0
  9
$PLINEWID
 40
0.0
  9
$COORDS
 70
     2
  9
$SPLFRAME
 70
     0
  9
$SPLINETYPE
 70
     6
  9
$SPLINESEGS
 70
     8
  9
$ATTDIA
 70
     1
  9
$ATTREQ
 70
     1
  9
$HANDLING
 70
     1
  9
$HANDSEED
  5
2454
  9
$SURFTAB1
 70
     6
  9
$SURFTAB2
 70
     6
  9
$SURFTYPE
 70
     6
  9
$SURFU
 70
     6
  9
$SURFV
 70
     6
  9
$UCSNAME
  2

  9
$UCSORG
 10
0.0
 20
0.0
 30
0.0
  9
$UCSXDIR
 10
1.0
 20
0.0
 30
0.0
  9
$UCSYDIR
 10
0.0
 20
1.0
 30
0.0
  9
$PUCSNAME
  2

  9
$PUCSORG
 10
0.0
 20
0.0
 30
0.0
  9
$PUCSXDIR
 10
1.0
 20
0.0
 30
0.0
  9
$PUCSYDIR
 10
0.0
 20
1.0
 30
0.0
  9
$USERI1
 70
     1
  9
$USERI2
 70
     0
  9
$USERI3
 70
     0
  9
$USERI4
 70
     0
  9
$USERI5
 70
     0
  9
$USERR1
 40
0.0
  9
$USERR2
 40
0.0
  9
$USERR3
 40
0.0
  9
$USERR4
 40
0.0
  9
$USERR5
 40
0.0
  9
$WORLDVIEW
 70
     1
  9
$SHADEDGE
 70
     3
  9
$SHADEDIF
 70
    70
  9
$TILEMODE
 70
     1
  9
$MAXACTVP
 70
    16
  9
$PLIMCHECK
 70
     0
  9
$PEXTMIN
 10
1.0000000000000000E+020
 20
1.0000000000000000E+020
 30
1.0000000000000000E+020
  9
$PEXTMAX
 10
-1.0000000000000000E+020
 20
-1.0000000000000000E+020
 30
-1.0000000000000000E+020
  9
$PLIMMIN
 10
0.0
 20
0.0
  9
$PLIMMAX
 10
420.0
 20
297.0
  9
$UNITMODE
 70
     0
  9
$VISRETAIN
 70
     0
  9
$PLINEGEN
 70
     0
  9
$PSLTSCALE
 70
     1
  0
ENDSEC
  0
SECTION
  2
TABLES
  0
TABLE
  2
VPORT
 70
    11
  0
VPORT
  2
*ACTIVE
 70
     0
 10
0.0
 20
0.0
 11
1.0
 21
1.0
 12
-11.551856328807901
 22
12.77320611036771
 13
0.0
 23
0.0
 14
7.0
 24
7.0
 15
7.0
 25
7.0
 16
0.0
 26
0.0
 36
1.0
 17
0.0
 27
0.0
 37
0.0
 40
68.890617278407504
 41
1.266932270916334
 42
50.0
 43
0.0
 44
0.0
 50
0.0
 51
0.0
 71
     0
 72
  2000
 73
     1
 74
     0
 75
     0
 76
     0
 77
     0
 78
     0
  0
ENDTAB
  0
TABLE
  2
LTYPE
 70
    16
  0
LTYPE
  2
CONTINUOUS
 70
     0
  3
Solid line
 72
    65
 73
     0
 40
0.0
  0
LTYPE
  2
CENTER2
 70
     0
  3
___ _ ___ _ ___ _ ___ _ ___ _ ___ _ ___ _ ___ _
 72
    65
 73
     4
 40
1.125
 49
0.75
 49
-0.125
 49
0.125
 49
-0.125
  0
LTYPE
  2
HIDDEN2
 70
     0
  3
_ _ _ _ _ _ _ _ _ _ _ _ _ _ _ _ _ _ _ _ _ _ _ _
 72
    65
 73
     2
 40
0.1875
 49
0.125
 49
-0.0625
  0
LTYPE
  2
HIDDEN
 70
     0
  3
Hidden __ __ __ __ __ __ __ __ __ __ __ __ __ _
 72
    65
 73
     2
 40
9.5249999999999986
 49
6.3499999999999988
 49
-3.1749999999999989
  0
LTYPE
  2
PHANTOM2
 70
     0
  3
Phantom (.5x) ___ _ _ ___ _ _ ___ _ _ ___ _ _
 72
    65
 73
     6
 40
31.75
 49
15.875
 49
-3.1749999999999989
 49
3.1749999999999989
 49
-3.1749999999999989
 49
3.1749999999999989
 49
-3.1749999999999989
  0
LTYPE
  2
CENTER
 70
     0
  3
Center ____ _ ____ _ ____ _ ____ _ ____ _ ____
 72
    65
 73
     4
 40
50.799999999999997
 49
31.75
 49
-6.3499999999999988
 49
6.3499999999999988
 49
-6.3499999999999988
  0
LTYPE
  2
AM_ISO02W050
 70
     0
  3
__ __ __ __ __ __ __ __ __ __ __ __ __ __ __
 72
    65
 73
     2
 40
7.5
 49
6.0
 49
-1.5
  0
LTYPE
  2
AM_ISO08W050
 70
     0
  3
____ . ____ . ____ . ____ . ____ . ____ . ____
 72
    65
 73
     4
 40
18.0
 49
12.0
 49
-1.5
 49
3.0
 49
-1.5
  0
LTYPE
  2
AM_ISO09W050
 70
     0
  3
_____ . . _____ . . _____ . . ____ .. ____
 72
    65
 73
     6
 40
22.5
 49
12.0
 49
-1.5
 49
3.0
 49
-1.5
 49
3.0
 49
-1.5
  0
LTYPE
  2
AMCONSTR
 70
     0
  3
_______________________
 72
    65
 73
     2
 40
9999.0
 49
9999.0
 49
0.0
  0
LTYPE
  2
AM_ISO08W050X2
 70
     0
  3
__ . __ . __ . __ . __ . __
 72
    65
 73
     4
 40
9.0
 49
6.0
 49
-0.75
 49
1.5
 49
-0.75
  0
LTYPE
  2
AM_ISO02W050X2
 70
     0
  3
 _ _ _ _ _ _ _ _ _ _ _ _
 72
    65
 73
     2
 40
3.75
 49
3.0
 49
-0.75
  0
LTYPE
  2
AMZIGZAG
 70
     0
  3
/\/-/\/-/\/-/\/-/\/-/\/
 72
    65
 73
     2
 40
11.0001
 49
0.0001
 49
-11.0
  0
LTYPE
  2
ACISOWELD
 70
     0
  3
_ _ _ _ _
 72
    65
 73
     2
 40
2.0
 49
2.0
 49
-1.0
  0
LTYPE
  2
ACISOTGB
 70
     0
  3
__ . . __ . .
 72
    65
 73
     6
 40
9.0
 49
4.0
 49
-1.0
 49
1.0
 49
-1.0
 49
1.0
 49
-1.0
  0
LTYPE
  2
ACISOTGL
 70
     0
  3
_ _ _ _ _
 72
    65
 73
     2
 40
3.0
 49
2.0
 49
-1.0
  0
ENDTAB
  0
TABLE
  2
LAYER
 70
     7
  0
LAYER
  2
0
 70
     0
 62
     7
  6
CONTINUOUS
  0
LAYER
  2
240
 70
     0
 62
     4
  6
CONTINUOUS
  0
LAYER
  2
241
 70
     0
 62
   211
  6
CONTINUOUS
  0
LAYER
  2
243
 70
     0
 62
   211
  6
HIDDEN2
  0
LAYER
  2
245
 70
     0
 62
     2
  6
CENTER2
  0
LAYER
  2
250
 70
     0
 62
     3
  6
CONTINUOUS
  0
LAYER
  2
DEFPOINTS
 70
     0
 62
     7
  6
CONTINUOUS
  0
ENDTAB
  0
TABLE
  2
STYLE
 70
     5
  0
STYLE
  2
STANDARD
 70
     0
 40
0.0
 41
1.0
 50
0.0
 71
     0
 42
3.0
  3
romans.shx
  4
BIGFONT.SHX
  0
STYLE
  2
YOKO
 70
     0
 40
0.0
 41
1.0
 50
0.0
 71
     0
 42
3.0
  3
romans.shx
  4
extfont.shx
  0
STYLE
  2

 70
     1
 40
0.0
 41
1.0
 50
0.0
 71
     0
 42
3.0
  3
ltypeshp.shx
  4

  0
STYLE
  2
ACISOTS
 70
     0
 40
1.0
 41
1.0
 50
0.0
 71
     0
 42
3.0
  3
isocp.shx
  4
extfont.shx
  0
STYLE
  2
ACISOGDT
 70
     0
 40
0.0
 41
1.0
 50
0.0
 71
     0
 42
3.0
  3
amgdt.shx
  4

  0
ENDTAB
  0
TABLE
  2
VIEW
 70
     0
  0
ENDTAB
  0
TABLE
  2
UCS
 70
     0
  0
ENDTAB
  0
TABLE
  2
APPID
 70
    16
  0
APPID
  2
ACAD
 70
     0
  0
APPID
  2
GLOBAL
 70
     0
  0
APPID
  2
DETAIL
 70
     0
  0
APPID
  2
GRPNAME
 70
     0
  0
APPID
  2
GPARA
 70
     0
  0
APPID
  2
ITEMNAME
 70
     0
  0
APPID
  2
MCAD_NO_VIS
 70
     0
  0
APPID
  2
ACAD_TEMP_GRAPHIC
 70
     0
  0
APPID
  2
AD_DRAW
 70
     0
  0
APPID
  2
ACATTRIBSERVICES
 70
     0
  0
APPID
  2
DESIGNERASSEMBLIES
 70
     0
  0
APPID
  2
ACADM_DIM_EDIT
 70
     0
  0
APPID
  2
AMDT_DM_ADJ
 70
     0
  0
APPID
  2
GENIUS_GENSCREG_15
 70
     0
  0
APPID
  2
GENIUS_GENODEF_13
 70
     0
  0
APPID
  2
GENIUS_GENOBJ-N-SDF_13
 70
     0
  0
ENDTAB
  0
TABLE
  2
DIMSTYLE
 70
     9
  0
DIMSTYLE
  2
STANDARD
 70
     0
  3

  4

  5

  6

  7

 40
1.0
 41
2.0
 42
2.0
 43
3.75
 44
2.0
 45
0.0
 46
0.0
 47
0.0
 48
0.0
140
4.0
141
0.09
142
0.0
143
25.399999999999999
144
1.0
145
0.0
146
1.0
147
1.0
 71
     0
 72
     0
 73
     1
 74
     1
 75
     0
 76
     0
 77
     0
 78
     8
170
     0
171
     2
172
     0
173
     1
174
     0
175
     0
176
   256
177
   256
178
   256
  0
DIMSTYLE
  2
BIGT
 70
     0
  3

  4

  5
OPEN
  6

  7

 40
1.0
 41
2.2299999999999991
 42
0.5
 43
2.5
 44
1.0
 45
0.0
 46
0.0
 47
0.0
 48
0.0
140
3.5
141
0.0
142
0.0
143
25.399999999999999
144
1.0
145
0.0
146
1.0
147
1.0
 71
     0
 72
     0
 73
     0
 74
     0
 75
     0
 76
     0
 77
     3
 78
     9
170
     0
171
     2
172
     1
173
     0
174
     0
175
     0
176
   256
177
   256
178
    40
  0
DIMSTYLE
  2
AM_ISO
 70
     0
  3

  4
"
  5

  6

  7

 40
1.0
 41
2.5
 42
1.0
 43
10.0
 44
1.0
 45
0.0
 46
0.0
 47
0.1
 48
0.1
140
3.5
141
0.0
142
0.0
143
0.0393701
144
1.0
145
0.0
146
0.71
147
1.5
 71
     0
 72
     0
 73
     0
 74
     0
 75
     0
 76
     0
 77
     1
 78
     8
170
     0
171
     2
172
     1
173
     0
174
     0
175
     0
176
   256
177
   256
178
     2
  0
DIMSTYLE
  2
AM_ISO$3
 70
     0
  3

  4
"
  5

  6

  7

 40
1.0
 41
2.5
 42
1.0
 43
10.0
 44
1.0
 45
0.0
 46
0.0
 47
0.1
 48
0.1
140
3.5
141
0.0
142
0.0
143
0.0393701
144
1.0
145
0.0
146
0.71
147
1.5
 71
     0
 72
     0
 73
     0
 74
     1
 75
     0
 76
     0
 77
     1
 78
     8
170
     0
171
     2
172
     0
173
     0
174
     0
175
     0
176
   256
177
   256
178
     2
  0
DIMSTYLE
  2
AM_ISO$4
 70
     0
  3

  4
"
  5

  6

  7

 40
1.0
 41
2.5
 42
1.0
 43
10.0
 44
1.0
 45
0.0
 46
0.0
 47
0.1
 48
0.1
140
3.5
141
0.0
142
0.0
143
0.0393701
144
1.0
145
0.0
146
0.71
147
1.5
 71
     0
 72
     0
 73
     0
 74
     1
 75
     0
 76
     0
 77
     1
 78
     8
170
     0
171
     2
172
     0
173
     0
174
     0
175
     0
176
   256
177
   256
178
     2
  0
DIMSTYLE
  2
AM_ISO$6
 70
     0
  3

  4
"
  5

  6

  7

 40
1.0
 41
2.5
 42
1.0
 43
10.0
 44
1.0
 45
0.0
 46
0.0
 47
0.1
 48
0.1
140
3.5
141
0.0
142
0.0
143
0.0393701
144
1.0
145
0.0
146
0.71
147
1.5
 71
     0
 72
     0
 73
     0
 74
     0
 75
     0
 76
     0
 77
     0
 78
     8
170
     0
171
     2
172
     1
173
     0
174
     0
175
     0
176
   256
177
   256
178
     2
  0
DIMSTYLE
  2
AM_ISO$7
 70
     0
  3

  4
"
  5

  6

  7

 40
1.0
 41
2.5
 42
1.0
 43
10.0
 44
1.0
 45
0.0
 46
0.0
 47
0.1
 48
0.1
140
5.0
141
0.0
142
0.0
143
0.0393701
144
1.0
145
0.0
146
0.71
147
1.5
 71
     0
 72
     0
 73
     0
 74
     0
 75
     0
 76
     0
 77
     1
 78
     8
170
     0
171
     2
172
     1
173
     0
174
     0
175
     0
176
   256
177
   256
178
     2
  0
DIMSTYLE
  2
AM_ISO$SF
 70
     0
  3

  4
"
  5

  6

  7

 40
1.0
 41
2.5
 42
1.0
 43
10.0
 44
1.0
 45
0.0
 46
0.0
 47
0.1
 48
0.1
140
3.5
141
0.0
142
0.0
143
0.0393701
144
1.0
145
0.0
146
0.71
147
1.5
 71
     0
 72
     0
 73
     0
 74
     0
 75
     1
 76
     1
 77
     1
 78
     8
170
     0
171
     2
172
     1
173
     0
174
     0
175
     0
176
   256
177
   256
178
     2
  0
DIMSTYLE
  2
AM_ISO$SH
 70
     0
  3

  4
"
  5

  6
GENAXEH
  7

 40
1.0
 41
2.5
 42
1.0
 43
10.0
 44
1.0
 45
0.0
 46
0.0
 47
0.1
 48
0.1
140
3.5
141
0.0
142
0.0
143
0.0393701
144
2.0
145
0.0
146
0.71
147
1.5
 71
     0
 72
     0
 73
     0
 74
     0
 75
     1
 76
     1
 77
     1
 78
     8
170
     0
171
     2
172
     1
173
     1
174
     0
175
     0
176
   256
177
   256
178
     2
  0
ENDTAB
  0
ENDSEC
  0
SECTION
  2
BLOCKS
  0
BLOCK
  8
0
  2
$MODEL_SPACE
 70
     0
 10
0.0
 20
0.0
 30
0.0
  3
$MODEL_SPACE
  1

  0
ENDBLK
  5
1C
  8
0
  0
BLOCK
 67
     1
  8
0
  2
$PAPER_SPACE
 70
     0
 10
0.0
 20
0.0
 30
0.0
  3
$PAPER_SPACE
  1

  0
ENDBLK
  5
19
 67
     1
  8
0
  0
BLOCK
  8
0
  2
_OPEN
 70
     0
 10
0.0
 20
0.0
 30
0.0
  3
_OPEN
  1

  0
LINE
  5
595
  8
0
  6
BYBLOCK
 62
     0
 10
-1.0
 20
0.1666666666666666
 30
0.0
 11
0.0
 21
0.0
 31
0.0
  0
LINE
  5
596
  8
0
  6
BYBLOCK
 62
     0
 10
-1.0
 20
-0.1666666666666666
 30
0.0
 11
0.0
 21
0.0
 31
0.0
  0
LINE
  5
597
  8
0
  6
BYBLOCK
 62
     0
 10
0.0
 20
0.0
 30
0.0
 11
-1.0
 21
0.0
 31
0.0
  0
ENDBLK
  5
599
  8
0
  0
BLOCK
  8
0
  2
A$C062851C6
 70
     0
 10
0.0
 20
0.0
 30
0.0
  3
A$C062851C6
  1

  0
LINE
  5
22EC
  8
243
 10
-13.70000000000001
 20
12.75
 30
0.0
 11
-43.099999999999973
 21
9.6599354831894821
 31
0.0
1001
GRPNAME
1000
NBS16 09
  0
LINE
  5
22ED
  8
243
 10
-13.70000000000001
 20
-12.75
 30
0.0
 11
-43.099999999999973
 21
-9.6599354831894821
 31
0.0
1001
GRPNAME
1000
NBS16 0B
  0
LINE
  5
22EE
  8
245
 10
-45.096458352025387
 20
0.0
 30
0.0
 11
0.85245772063044
 21
0.0
 31
0.0
1001
GRPNAME
1000
PASTMDCT
  0
LINE
  5
22EF
  8
243
 10
-36.799999999999983
 20
5.5
 30
0.0
 11
-8.5999999999999943
 21
5.5
 31
0.0
  0
LINE
  5
22F0
  8
243
 10
-36.799999999999983
 20
-5.5
 30
0.0
 11
-8.5999999999999943
 21
-5.5
 31
0.0
  0
LINE
  5
22F1
  8
243
 10
-43.099999999999973
 20
0.0
 30
0.0
 11
-43.099999999999973
 21
9.6599354831894821
 31
0.0
1001
GRPNAME
1000
NBS16 09
  0
LINE
  5
22F2
  8
243
 10
-36.799999999999983
 20
5.6500000000000341
 30
0.0
 11
-36.799999999999983
 21
-5.6500000000000341
 31
0.0
  0
LINE
  5
22F3
  8
243
 10
-43.099999999999973
 20
0.0
 30
0.0
 11
-43.099999999999973
 21
-9.6599354831894821
 31
0.0
1001
GRPNAME
1000
NBS16 0B
  0
LINE
  5
22F4
  8
243
 10
-43.09999999999976
 20
-7.6500000000000341
 30
0.0
 11
-38.799999999999983
 21
-7.6500000000000341
 31
0.0
  0
ARC
  5
22F5
  8
243
 10
-38.799999999999983
 20
-5.6500000000000341
 30
0.0
 40
2.0
 50
269.99999989973509
 51
359.99999989973333
  0
LINE
  5
22F6
  8
243
 10
-43.09999999999976
 20
7.6500000000000341
 30
0.0
 11
-38.799999999999983
 21
7.6500000000000341
 31
0.0
  0
ARC
  5
22F7
  8
243
 10
-38.799999999999983
 20
5.6500000000000341
 30
0.0
 40
2.0
 50
0.0000000899772304
 51
90.000000089974762
  0
LINE
  5
22F8
  8
241
 10
-5.0999999999999943
 20
0.0
 30
0.0
 11
-5.0999999999999943
 21
-17.16466620536616
 31
0.0
1001
GRPNAME
1000
PASTMDCV
  0
LINE
  5
22F9
  8
241
 10
-28.549107457385912
 20
0.0
 30
0.0
 11
-28.549107457385912
 21
-21.0
 31
0.0
1001
GRPNAME
1000
PASTMDCV
  0
LINE
  5
22FA
  8
241
 10
-30.327463862613289
 20
0.0
 30
0.0
 11
-30.327463862613289
 21
-21.349999999999991
 31
0.0
1001
GRPNAME
1000
PASTMDCV
  0
LINE
  5
22FB
  8
240
 10
-32.199999999999953
 20
-20.849999999999991
 30
0.0
 11
-32.199999999999953
 21
0.0
 31
0.0
1001
GRPNAME
1000
PASTMDCV
  0
LINE
  5
22FC
  8
240
 10
-0.0656655518052389
 20
-10.23087897133032
 30
0.0
 11
-5.0401411741798361
 21
-17.139868199581141
 31
0.0
  0
LINE
  5
22FD
  8
240
 10
-28.549107457385912
 20
-21.0
 30
0.0
 11
-6.0999999999999943
 21
-21.0
 31
0.0
1001
GRPNAME
1000
PASTMDCV
  0
LINE
  5
22FE
  8
240
 10
-31.69999999999995
 20
-21.349999999999991
 30
0.0
 11
-30.327463862613289
 21
-21.349999999999991
 31
0.0
1001
GRPNAME
1000
PASTMDCV
  0
ARC
  5
22FF
  8
240
 10
-31.69999999999995
 20
-20.849999999999991
 30
0.0
 40
0.5
 50
180.00000001286469
 51
270.00000001285821
1001
GRPNAME
1000
PASTMDCV
  0
ARC
  5
2300
  8
240
 10
-29.263250300240209
 20
-21.699999999999989
 30
0.0
 40
0.9999999999999764
 50
44.427004131299
 51
135.00000013049299
1001
GRPNAME
1000
PASTMDCV
  0
LINE
  5
2301
  8
240
 10
-29.970357081426709
 20
-20.992893218813428
 30
0.0
 11
-30.327463862613289
 21
-21.349999999999991
 31
0.0
1001
GRPNAME
1000
PASTMDCV
  0
LINE
  5
2302
  8
240
 10
-5.0999999999999943
 20
-17.16466620536616
 30
0.0
 11
-5.0999999999999943
 21
-20.0
 31
0.0
1001
GRPNAME
1000
PASTMDCV
  0
LINE
  5
2303
  8
241
 10
-5.1068224733541268
 20
-18.753071585282889
 30
0.0
 11
-5.1000076386119133
 21
-18.778504894786089
 31
0.0
1001
GRPNAME
1000
PASTMDB6
  0
LINE
  5
2304
  8
241
 10
-5.1068224733541268
 20
-18.753071585282889
 30
0.0
 11
-5.1000076386119133
 21
-18.778504894786089
 31
0.0
1001
GRPNAME
1000
PASTMDB5
  0
ARC
  5
2305
  8
240
 10
-6.0999999999999943
 20
-20.0
 30
0.0
 40
1.0
 50
270.00000000000318
 51
0.0
1001
GRPNAME
1000
PASTMDCV
  0
ARC
  5
2306
  8
241
 10
-5.202448004840277
 20
-17.02300720214842
 30
0.0
 40
0.2000000000000493
 50
300.81060421909871
 51
324.24609442202689
  0
LINE
  5
2307
  8
240
 10
-28.549107457385912
 20
21.0
 30
0.0
 11
-6.0999999999999943
 21
21.0
 31
0.0
1001
GRPNAME
1000
PASTMDCT
  0
LINE
  5
2308
  8
243
 10
-8.0999999999999943
 20
11.0179491924311
 30
0.0
 11
-8.0999999999999943
 21
0.0
 31
0.0
1001
GRPNAME
1000
NBS16 09
  0
LINE
  5
2309
  8
241
 10
-28.549107457385912
 20
0.0
 30
0.0
 11
-28.549107457385912
 21
21.0
 31
0.0
1001
GRPNAME
1000
PASTMDCT
  0
LINE
  5
230A
  8
241
 10
-30.327463862613289
 20
0.0
 30
0.0
 11
-30.327463862613289
 21
21.349999999999991
 31
0.0
1001
GRPNAME
1000
PASTMDCT
  0
LINE
  5
230B
  8
240
 10
-32.199999999999953
 20
20.849999999999991
 30
0.0
 11
-32.199999999999953
 21
0.0
 31
0.0
1001
GRPNAME
1000
PASTMDCT
  0
LINE
  5
230C
  8
243
 10
-8.0999999999999943
 20
-11.0179491924311
 30
0.0
 11
-8.0999999999999943
 21
0.0
 31
0.0
1001
GRPNAME
1000
NBS16 0B
  0
LINE
  5
230D
  8
243
 10
-11.099999999999991
 20
-12.75
 30
0.0
 11
-8.0999999999999943
 21
-11.0179491924311
 31
0.0
1001
GRPNAME
1000
NBS16 0B
  0
LINE
  5
230E
  8
243
 10
-13.70000000000001
 20
-11.0
 30
0.0
 11
-11.299999999999979
 21
-11.0
 31
0.0
1001
GRPNAME
1000
NBS16 0B
  0
LINE
  5
230F
  8
243
 10
-11.299999999999979
 20
-12.74999999999994
 30
0.0
 11
-11.099999999999991
 21
-12.75
 31
0.0
1001
GRPNAME
1000
NBS16 0B
  0
LINE
  5
2310
  8
243
 10
-13.70000000000001
 20
-11.0
 30
0.0
 11
-13.70000000000001
 21
-12.75
 31
0.0
1001
GRPNAME
1000
NBS16 0B
  0
LINE
  5
2311
  8
243
 10
-11.299999999999979
 20
-12.74999999999994
 30
0.0
 11
-11.299999999999979
 21
-11.0
 31
0.0
1001
GRPNAME
1000
NBS16 0B
  0
ARC
  5
2312
  8
243
 10
-8.5999999999999943
 20
-6.0
 30
0.0
 40
0.5
 50
0.000000005145883
 51
90.000000005139327
  0
LINE
  5
2313
  8
240
 10
-31.69999999999995
 20
21.349999999999991
 30
0.0
 11
-30.327463862613289
 21
21.349999999999991
 31
0.0
1001
GRPNAME
1000
PASTMDCT
  0
ARC
  5
2314
  8
240
 10
-31.69999999999995
 20
20.849999999999991
 30
0.0
 40
0.5
 50
89.999999989716358
 51
179.99999998970819
1001
GRPNAME
1000
PASTMDCT
  0
ARC
  5
2315
  8
240
 10
-29.263250300240209
 20
21.699999999999989
 30
0.0
 40
0.9999999999999779
 50
224.9999999273569
 51
315.57299592655028
1001
GRPNAME
1000
PASTMDCT
  0
LINE
  5
2316
  8
240
 10
-29.970357081426709
 20
20.992893218813428
 30
0.0
 11
-30.327463862613289
 21
21.349999999999991
 31
0.0
1001
GRPNAME
1000
PASTMDCT
  0
ARC
  5
2317
  8
243
 10
-8.5999999999999943
 20
6.0
 30
0.0
 40
0.5
 50
269.99999998456877
 51
359.99999998456548
  0
LINE
  5
2318
  8
243
 10
-11.099999999999991
 20
12.75
 30
0.0
 11
-8.0999999999999943
 21
11.0179491924311
 31
0.0
1001
GRPNAME
1000
NBS16 09
  0
LINE
  5
2319
  8
243
 10
-11.299999999999979
 20
12.74999999999994
 30
0.0
 11
-11.099999999999991
 21
12.75
 31
0.0
1001
GRPNAME
1000
NBS16 09
  0
LINE
  5
231A
  8
243
 10
-13.70000000000001
 20
11.0
 30
0.0
 11
-11.299999999999979
 21
11.0
 31
0.0
1001
GRPNAME
1000
NBS16 09
  0
LINE
  5
231B
  8
243
 10
-13.70000000000001
 20
11.0
 30
0.0
 11
-13.70000000000001
 21
12.75
 31
0.0
1001
GRPNAME
1000
NBS16 09
  0
LINE
  5
231C
  8
243
 10
-11.299999999999979
 20
12.74999999999994
 30
0.0
 11
-11.299999999999979
 21
11.0
 31
0.0
1001
GRPNAME
1000
NBS16 09
  0
LINE
  5
231D
  8
241
 10
-5.0999999999999943
 20
0.0
 30
0.0
 11
-5.0999999999999943
 21
17.16466620536616
 31
0.0
1001
GRPNAME
1000
PASTMDCT
  0
LINE
  5
231E
  8
240
 10
0.0
 20
0.0
 30
0.0
 11
0.0
 21
10.10531362259122
 31
0.0
1001
GRPNAME
1000
PASTMDCM
  0
LINE
  5
231F
  8
240
 10
0.0
 20
0.0
 30
0.0
 11
0.0
 21
-10.105313622591209
 31
0.0
  0
ARC
  5
2320
  8
240
 10
-0.4714326284562845
 20
-9.9387264777485882
 30
0.0
 40
0.5000000000000293
 50
324.24609446826781
 51
340.53844437476312
  0
LINE
  5
2321
  8
240
 10
-0.0656655518052389
 20
10.23087897133032
 30
0.0
 11
-5.0401411741798361
 21
17.139868199581141
 31
0.0
1001
GRPNAME
1000
PASTMDCM
  0
ARC
  5
2322
  8
240
 10
-0.4714326284562845
 20
9.9387264777485882
 30
0.0
 40
0.500000000000023
 50
19.461555625238159
 51
35.753905531732102
1001
GRPNAME
1000
PASTMDCM
  0
LINE
  5
2323
  8
240
 10
-5.0999999999999943
 20
17.16466620536616
 30
0.0
 11
-5.0999999999999943
 21
20.0
 31
0.0
1001
GRPNAME
1000
PASTMDCT
  0
ARC
  5
2324
  8
241
 10
-5.202448004840277
 20
17.02300720214842
 30
0.0
 40
0.2000000000000387
 50
35.753905577973043
 51
59.189395780901279
1001
GRPNAME
1000
PASTMDCM
  0
LINE
  5
2325
  8
241
 10
-5.1068224733541268
 20
18.753071585282889
 30
0.0
 11
-5.1000076386119133
 21
18.778504894786089
 31
0.0
1001
GRPNAME
1000
PASTMDAW
  0
LINE
  5
2326
  8
241
 10
-5.1068224733541268
 20
18.753071585282889
 30
0.0
 11
-5.1000076386119133
 21
18.778504894786089
 31
0.0
1001
GRPNAME
1000
PASTMDAV
  0
ARC
  5
2327
  8
240
 10
-6.0999999999999943
 20
20.0
 30
0.0
 40
1.0
 50
0.0
 51
89.999999999996732
1001
GRPNAME
1000
PASTMDCT
  0
ENDBLK
  5
2329
  8
0
  0
BLOCK
  8
0
  2
GENAXEH
 70
     0
 10
0.0
 20
0.0
 30
0.0
  3
GENAXEH
  1

  0
LINE
  5
23F4
  8
0
 10
-1.0
 20
0.0
 30
0.0
 11
1.0
 21
0.0
 31
0.0
  0
ENDBLK
  5
23F6
  8
0
  0
BLOCK
  8
0
  2
*U6
 70
     1
 10
0.0
 20
0.0
 30
0.0
  3
*U6
  1

  0
TEXT
  5
2447
  8
250
 62
    40
 10
19.999999999999989
 20
-4.0714285714285721
 30
0.0
 40
3.0
  1
\U+2205
 50
90.0
  0
TEXT
  5
2448
  8
250
 62
    40
 10
19.999999999999989
 20
-1.3571428571428581
 30
0.0
 40
3.0
  1
42
 50
90.0
  0
ENDBLK
  5
244A
  8
0
  0
BLOCK
  8
0
  2
*U7
 70
     1
 10
0.0
 20
0.0
 30
0.0
  3
*U7
  1

  0
TEXT
  5
2450
  8
250
 62
    40
 10
12.9914931126811
 20
-8.300000000000006
 30
0.0
 40
3.0
  1
\U+2205
 50
90.0
  0
TEXT
  5
2451
  8
250
 62
    40
 10
12.9914931126811
 20
-5.5857142857142899
 30
0.0
 40
3.0
  1
10ü`11
 50
90.0
  0
ENDBLK
  5
2453
  8
0
  0
ENDSEC
  0
SECTION
  2
ENTITIES
  0
INSERT
  5
232A
  8
240
  2
A$C062851C6
 10
0.0
 20
0.0
 30
0.0
  0
LINE
  5
240E
  8
250
 10
-8.0999999999999943
 20
-5.5
 30
0.0
 11
14.9914931126811
 21
-5.5000000000000071
 31
0.0
  0
LINE
  5
240F
  8
250
 10
-8.1000000001346564
 20
5.5
 30
0.0
 11
14.9914931126811
 21
5.499999999999992
 31
0.0
  0
LINE
  5
2410
  8
250
 10
13.9914931126811
 20
-3.2700000000000071
 30
0.0
 11
13.9914931126811
 21
3.2699999999999938
 31
0.0
  0
LINE
  5
2414
  8
250
 10
-5.5999999999999357
 20
-21.0
 30
0.0
 11
21.999999999999989
 21
-21.0
 31
0.0
  0
LINE
  5
2415
  8
250
 10
-5.5999999999999357
 20
21.0
 30
0.0
 11
22.0
 21
20.999999999999989
 31
0.0
  0
LINE
  5
2416
  8
250
 10
20.999999999999989
 20
-18.77
 30
0.0
 11
21.0
 21
18.769999999999989
 31
0.0
  0
TEXT
  5
241A
  8
250
 10
19.999999999999989
 20
-4.0714285714285721
 30
0.0
 40
3.0
  1
\U+2205
 50
90.0
1001
ACAD
1000
MTEXTBEGIN
1070
    73
1070
     1
1070
    44
1040
1.0
1070
    74
1070
     0
1000
MTEXTEND
  0
TEXT
  5
241B
  8
250
 10
19.999999999999989
 20
-1.3571428571428581
 30
0.0
 40
3.0
  1
42
 50
90.0
1001
ACAD
1000
MTEXTBEGIN
1070
    73
1070
     1
1070
    44
1040
1.0
1070
    74
1070
     0
1000
MTEXTEND
  0
LINE
  5
241C
  8
250
 10
20.62833333333333
 20
18.769999999999989
 30
0.0
 11
21.0
 21
20.999999999999989
 31
0.0
  0
LINE
  5
241D
  8
250
 10
21.37166666666667
 20
18.769999999999989
 30
0.0
 11
21.0
 21
20.999999999999989
 31
0.0
  0
LINE
  5
241E
  8
250
 10
21.0
 20
20.999999999999989
 30
0.0
 11
21.0
 21
18.769999999999989
 31
0.0
  0
LINE
  5
241F
  8
250
 10
21.371666666666648
 20
-18.77
 30
0.0
 11
20.999999999999989
 21
-21.0
 31
0.0
  0
LINE
  5
2420
  8
250
 10
20.62833333333332
 20
-18.77
 30
0.0
 11
20.999999999999989
 21
-21.0
 31
0.0
  0
LINE
  5
2421
  8
250
 10
20.999999999999989
 20
-21.0
 30
0.0
 11
20.999999999999989
 21
-18.77
 31
0.0
  0
TEXT
  5
2422
  8
250
 10
12.9914931126811
 20
-8.300000000000006
 30
0.0
 40
3.0
  1
\U+2205
 50
90.0
  0
TEXT
  5
2423
  8
250
 10
12.9914931126811
 20
-5.5857142857142899
 30
0.0
 40
3.0
  1
10ü`11
 50
90.0
  0
LINE
  5
2424
  8
250
 10
13.61982644601443
 20
3.2699999999999938
 30
0.0
 11
13.9914931126811
 21
5.4999999999999929
 31
0.0
  0
LINE
  5
2425
  8
250
 10
14.363159779347759
 20
3.2699999999999938
 30
0.0
 11
13.9914931126811
 21
5.4999999999999929
 31
0.0
  0
LINE
  5
2426
  8
250
 10
13.9914931126811
 20
5.4999999999999929
 30
0.0
 11
13.9914931126811
 21
3.2699999999999938
 31
0.0
  0
LINE
  5
2427
  8
250
 10
14.363159779347759
 20
-3.2700000000000071
 30
0.0
 11
13.99149311268109
 21
-5.5000000000000062
 31
0.0
  0
LINE
  5
2428
  8
250
 10
13.61982644601443
 20
-3.2700000000000071
 30
0.0
 11
13.99149311268109
 21
-5.5000000000000062
 31
0.0
  0
LINE
  5
2429
  8
250
 10
13.99149311268109
 20
-5.5000000000000062
 30
0.0
 11
13.99149311268109
 21
-3.2700000000000071
 31
0.0
  0
TEXT
  5
242A
  8
243
 10
-35.952380952380949
 20
42.0
 30
0.0
 40
5.0
  1
MPS16-1011
  7
YOKO
1001
ITEMNAME
1000
DI010
1001
ACAD
1000
MTEXTBEGIN
1070
    73
1070
     1
1070
    44
1040
1.0
1070
    74
1070
     0
1000
MTEXTEND
  0
VIEWPORT
  5
22
 67
     1
  8
0
 10
261.51769911504419
 20
148.5
 30
0.0
 40
523.0353982300885
 41
297.0
 68
     1
 69
     1
1001
ACAD
1000
MVIEW
1002
{
1070
    16
1010
0.0
1020
0.0
1030
0.0
1010
0.0
1020
0.0
1030
1.0
1040
0.0
1040
297.0
1040
261.51769911504419
1040
148.5
1040
50.0
1040
0.0
1040
0.0
1070
     0
1070
   100
1070
     1
1070
     1
1070
     0
1070
     0
1070
     0
1070
     0
1040
0.0
1040
0.0
1040
0.0
1040
1.0
1040
1.0
1040
10.0
1040
10.0
1070
     0
1002
{
1002
}
1002
}
1001
GENIUS_GENODEF_13
1002
{
1000
HIER
1070
     0
1002
}
1002
{
1000
MANEDIT
1070
     0
1002
}
1002
{
1000
NOSEL
1070
     0
1002
}
1002
{
1000
BEHIND
1070
     0
1002
}
1002
{
1000
OTHER
1070
     0
1002
}
1002
{
1000
REACTOR
1002
}
1001
GENIUS_GENOBJ-N-SDF_13
1002
{
1000
OWNER
1000
GEN
1002
}
1001
GENIUS_GENSCREG_15
1000
PF
1040
1.0
1000
DF
1040
1.0
1000
MIN
1011
0.0
1021
-0.0
1031
0.0
1021
0.0
1031
0.0
1000
MAX
1011
523.0353982300885
1021
-0.0
1031
0.0
1021
297.0
1031
0.0
1000
FLAGS
1070
     2
  0
ENDSEC
  0
EOF
