  0
SECTION
  2
HEADER
  9
$ACADVER
  1
AC1009
  9
$INSBASE
 10
0.0
 20
0.0
 30
0.0
  9
$EXTMIN
 10
-44.617306472665057
 20
-21.467679332164209
 30
-0.0000000349181948
  9
$EXTMAX
 10
22.024599786952422
 20
47.014091552899629
 30
0.0000000814935747
  9
$LIMMIN
 10
0.0
 20
0.0
  9
$LIMMAX
 10
297.0
 20
210.0
  9
$ORTHOMODE
 70
     0
  9
$REGENMODE
 70
     1
  9
$FILLMODE
 70
     1
  9
$QTEXTMODE
 70
     0
  9
$MIRRTEXT
 70
     1
  9
$DRAGMODE
 70
     2
  9
$LTSCALE
 40
10.0
  9
$OSMODE
 70
   639
  9
$ATTMODE
 70
     1
  9
$TEXTSIZE
 40
3.0
  9
$TRACEWID
 40
1.0
  9
$TEXTSTYLE
  7
YOKO
  9
$CLAYER
  8
240
  9
$CELTYPE
  6
BYLAYER
  9
$CECOLOR
 62
   256
  9
$DIMSCALE
 40
1.0
  9
$DIMASZ
 40
2.2299999999999991
  9
$DIMEXO
 40
0.5
  9
$DIMDLI
 40
2.5
  9
$DIMRND
 40
0.0
  9
$DIMDLE
 40
0.0
  9
$DIMEXE
 40
1.0
  9
$DIMTP
 40
0.0
  9
$DIMTM
 40
0.0
  9
$DIMTXT
 40
3.0
  9
$DIMCEN
 40
0.0
  9
$DIMTSZ
 40
0.0
  9
$DIMTOL
 70
     0
  9
$DIMLIM
 70
     0
  9
$DIMTIH
 70
     0
  9
$DIMTOH
 70
     0
  9
$DIMSE1
 70
     0
  9
$DIMSE2
 70
     0
  9
$DIMTAD
 70
     3
  9
$DIMZIN
 70
     8
  9
$DIMBLK
  1
OPEN
  9
$DIMASO
 70
     1
  9
$DIMSHO
 70
     1
  9
$DIMPOST
  1

  9
$DIMAPOST
  1

  9
$DIMALT
 70
     0
  9
$DIMALTD
 70
     2
  9
$DIMALTF
 40
25.399999999999999
  9
$DIMLFAC
 40
1.0
  9
$DIMTOFL
 70
     1
  9
$DIMTVP
 40
0.0
  9
$DIMTIX
 70
     0
  9
$DIMSOXD
 70
     0
  9
$DIMSAH
 70
     0
  9
$DIMBLK1
  1

  9
$DIMBLK2
  1

  9
$DIMSTYLE
  2
BIGT
  9
$DIMCLRD
 70
   256
  9
$DIMCLRE
 70
   256
  9
$DIMCLRT
 70
    40
  9
$DIMTFAC
 40
1.0
  9
$DIMGAP
 40
1.0
  9
$LUNITS
 70
     2
  9
$LUPREC
 70
     2
  9
$SKETCHINC
 40
1.0
  9
$FILLETRAD
 40
0.0
  9
$AUNITS
 70
     0
  9
$AUPREC
 70
     3
  9
$MENU
  1
.
  9
$ELEVATION
 40
0.0
  9
$PELEVATION
 40
0.0
  9
$THICKNESS
 40
0.0
  9
$LIMCHECK
 70
     0
  9
$BLIPMODE
 70
     0
  9
$CHAMFERA
 40
10.0
  9
$CHAMFERB
 40
10.0
  9
$SKPOLY
 70
     0
  9
$TDCREATE
 40
2452880.4648967362
  9
$TDUPDATE
 40
2453612.5397744789
  9
$TDINDWG
 40
0.0919963426
  9
$TDUSRTIMER
 40
0.0919961574
  9
$USRTIMER
 70
     1
  9
$ANGBASE
 50
0.0
  9
$ANGDIR
 70
     0
  9
$PDMODE
 70
    35
  9
$PDSIZE
 40
2.0
  9
$PLINEWID
 40
0.0
  9
$COORDS
 70
     2
  9
$SPLFRAME
 70
     0
  9
$SPLINETYPE
 70
     6
  9
$SPLINESEGS
 70
     8
  9
$ATTDIA
 70
     1
  9
$ATTREQ
 70
     1
  9
$HANDLING
 70
     1
  9
$HANDSEED
  5
20E0
  9
$SURFTAB1
 70
     6
  9
$SURFTAB2
 70
     6
  9
$SURFTYPE
 70
     6
  9
$SURFU
 70
     6
  9
$SURFV
 70
     6
  9
$UCSNAME
  2

  9
$UCSORG
 10
0.0
 20
0.0
 30
0.0
  9
$UCSXDIR
 10
1.0
 20
0.0
 30
0.0
  9
$UCSYDIR
 10
0.0
 20
1.0
 30
0.0
  9
$PUCSNAME
  2

  9
$PUCSORG
 10
0.0
 20
0.0
 30
0.0
  9
$PUCSXDIR
 10
1.0
 20
0.0
 30
0.0
  9
$PUCSYDIR
 10
0.0
 20
1.0
 30
0.0
  9
$USERI1
 70
     1
  9
$USERI2
 70
     0
  9
$USERI3
 70
     0
  9
$USERI4
 70
     0
  9
$USERI5
 70
     0
  9
$USERR1
 40
0.0
  9
$USERR2
 40
0.0
  9
$USERR3
 40
0.0
  9
$USERR4
 40
0.0
  9
$USERR5
 40
0.0
  9
$WORLDVIEW
 70
     1
  9
$SHADEDGE
 70
     3
  9
$SHADEDIF
 70
    70
  9
$TILEMODE
 70
     1
  9
$MAXACTVP
 70
    16
  9
$PLIMCHECK
 70
     0
  9
$PEXTMIN
 10
1.0000000000000000E+020
 20
1.0000000000000000E+020
 30
1.0000000000000000E+020
  9
$PEXTMAX
 10
-1.0000000000000000E+020
 20
-1.0000000000000000E+020
 30
-1.0000000000000000E+020
  9
$PLIMMIN
 10
0.0
 20
0.0
  9
$PLIMMAX
 10
420.0
 20
297.0
  9
$UNITMODE
 70
     0
  9
$VISRETAIN
 70
     0
  9
$PLINEGEN
 70
     0
  9
$PSLTSCALE
 70
     1
  0
ENDSEC
  0
SECTION
  2
TABLES
  0
TABLE
  2
VPORT
 70
    12
  0
VPORT
  2
*ACTIVE
 70
     0
 10
0.0
 20
0.0
 11
1.0
 21
1.0
 12
-11.296353342856319
 22
12.77320611036771
 13
0.0
 23
0.0
 14
7.0
 24
7.0
 15
7.0
 25
7.0
 16
0.0
 26
0.0
 36
1.0
 17
0.0
 27
0.0
 37
0.0
 40
68.890617278407504
 41
1.266932270916334
 42
50.0
 43
0.0
 44
0.0
 50
0.0
 51
0.0
 71
     0
 72
  2000
 73
     1
 74
     0
 75
     0
 76
     0
 77
     0
 78
     0
  0
ENDTAB
  0
TABLE
  2
LTYPE
 70
    16
  0
LTYPE
  2
CONTINUOUS
 70
     0
  3
Solid line
 72
    65
 73
     0
 40
0.0
  0
LTYPE
  2
CENTER2
 70
     0
  3
___ _ ___ _ ___ _ ___ _ ___ _ ___ _ ___ _ ___ _
 72
    65
 73
     4
 40
1.125
 49
0.75
 49
-0.125
 49
0.125
 49
-0.125
  0
LTYPE
  2
HIDDEN2
 70
     0
  3
_ _ _ _ _ _ _ _ _ _ _ _ _ _ _ _ _ _ _ _ _ _ _ _
 72
    65
 73
     2
 40
0.1875
 49
0.125
 49
-0.0625
  0
LTYPE
  2
HIDDEN
 70
     0
  3
Hidden __ __ __ __ __ __ __ __ __ __ __ __ __ _
 72
    65
 73
     2
 40
9.5249999999999986
 49
6.3499999999999988
 49
-3.1749999999999989
  0
LTYPE
  2
PHANTOM2
 70
     0
  3
Phantom (.5x) ___ _ _ ___ _ _ ___ _ _ ___ _ _
 72
    65
 73
     6
 40
31.75
 49
15.875
 49
-3.1749999999999989
 49
3.1749999999999989
 49
-3.1749999999999989
 49
3.1749999999999989
 49
-3.1749999999999989
  0
LTYPE
  2
CENTER
 70
     0
  3
Center ____ _ ____ _ ____ _ ____ _ ____ _ ____
 72
    65
 73
     4
 40
50.799999999999997
 49
31.75
 49
-6.3499999999999988
 49
6.3499999999999988
 49
-6.3499999999999988
  0
LTYPE
  2
AM_ISO02W050
 70
     0
  3
__ __ __ __ __ __ __ __ __ __ __ __ __ __ __
 72
    65
 73
     2
 40
7.5
 49
6.0
 49
-1.5
  0
LTYPE
  2
AM_ISO08W050
 70
     0
  3
____ . ____ . ____ . ____ . ____ . ____ . ____
 72
    65
 73
     4
 40
18.0
 49
12.0
 49
-1.5
 49
3.0
 49
-1.5
  0
LTYPE
  2
AM_ISO09W050
 70
     0
  3
_____ . . _____ . . _____ . . ____ .. ____
 72
    65
 73
     6
 40
22.5
 49
12.0
 49
-1.5
 49
3.0
 49
-1.5
 49
3.0
 49
-1.5
  0
LTYPE
  2
AMCONSTR
 70
     0
  3
_______________________
 72
    65
 73
     2
 40
9999.0
 49
9999.0
 49
0.0
  0
LTYPE
  2
AM_ISO08W050X2
 70
     0
  3
__ . __ . __ . __ . __ . __
 72
    65
 73
     4
 40
9.0
 49
6.0
 49
-0.75
 49
1.5
 49
-0.75
  0
LTYPE
  2
AM_ISO02W050X2
 70
     0
  3
 _ _ _ _ _ _ _ _ _ _ _ _
 72
    65
 73
     2
 40
3.75
 49
3.0
 49
-0.75
  0
LTYPE
  2
AMZIGZAG
 70
     0
  3
/\/-/\/-/\/-/\/-/\/-/\/
 72
    65
 73
     2
 40
11.0001
 49
0.0001
 49
-11.0
  0
LTYPE
  2
ACISOWELD
 70
     0
  3
_ _ _ _ _
 72
    65
 73
     2
 40
2.0
 49
2.0
 49
-1.0
  0
LTYPE
  2
ACISOTGB
 70
     0
  3
__ . . __ . .
 72
    65
 73
     6
 40
9.0
 49
4.0
 49
-1.0
 49
1.0
 49
-1.0
 49
1.0
 49
-1.0
  0
LTYPE
  2
ACISOTGL
 70
     0
  3
_ _ _ _ _
 72
    65
 73
     2
 40
3.0
 49
2.0
 49
-1.0
  0
ENDTAB
  0
TABLE
  2
LAYER
 70
     7
  0
LAYER
  2
0
 70
     0
 62
     7
  6
CONTINUOUS
  0
LAYER
  2
240
 70
     0
 62
     4
  6
CONTINUOUS
  0
LAYER
  2
241
 70
     0
 62
   211
  6
CONTINUOUS
  0
LAYER
  2
243
 70
     0
 62
   211
  6
HIDDEN2
  0
LAYER
  2
245
 70
     0
 62
     2
  6
CENTER2
  0
LAYER
  2
250
 70
     0
 62
     3
  6
CONTINUOUS
  0
LAYER
  2
DEFPOINTS
 70
     0
 62
     7
  6
CONTINUOUS
  0
ENDTAB
  0
TABLE
  2
STYLE
 70
     5
  0
STYLE
  2
STANDARD
 70
     0
 40
0.0
 41
1.0
 50
0.0
 71
     0
 42
3.0
  3
romans.shx
  4
BIGFONT.SHX
  0
STYLE
  2
YOKO
 70
     0
 40
0.0
 41
1.0
 50
0.0
 71
     0
 42
3.0
  3
romans.shx
  4
extfont.shx
  0
STYLE
  2

 70
     1
 40
0.0
 41
1.0
 50
0.0
 71
     0
 42
3.0
  3
ltypeshp.shx
  4

  0
STYLE
  2
ACISOTS
 70
     0
 40
1.0
 41
1.0
 50
0.0
 71
     0
 42
3.0
  3
isocp.shx
  4
extfont.shx
  0
STYLE
  2
ACISOGDT
 70
     0
 40
0.0
 41
1.0
 50
0.0
 71
     0
 42
3.0
  3
amgdt.shx
  4

  0
ENDTAB
  0
TABLE
  2
VIEW
 70
     0
  0
ENDTAB
  0
TABLE
  2
UCS
 70
     0
  0
ENDTAB
  0
TABLE
  2
APPID
 70
    16
  0
APPID
  2
ACAD
 70
     0
  0
APPID
  2
GLOBAL
 70
     0
  0
APPID
  2
DETAIL
 70
     0
  0
APPID
  2
GRPNAME
 70
     0
  0
APPID
  2
GPARA
 70
     0
  0
APPID
  2
ITEMNAME
 70
     0
  0
APPID
  2
MCAD_NO_VIS
 70
     0
  0
APPID
  2
ACAD_TEMP_GRAPHIC
 70
     0
  0
APPID
  2
AD_DRAW
 70
     0
  0
APPID
  2
ACATTRIBSERVICES
 70
     0
  0
APPID
  2
DESIGNERASSEMBLIES
 70
     0
  0
APPID
  2
ACADM_DIM_EDIT
 70
     0
  0
APPID
  2
AMDT_DM_ADJ
 70
     0
  0
APPID
  2
GENIUS_GENSCREG_15
 70
     0
  0
APPID
  2
GENIUS_GENODEF_13
 70
     0
  0
APPID
  2
GENIUS_GENOBJ-N-SDF_13
 70
     0
  0
ENDTAB
  0
TABLE
  2
DIMSTYLE
 70
     9
  0
DIMSTYLE
  2
STANDARD
 70
     0
  3

  4

  5

  6

  7

 40
1.0
 41
2.0
 42
2.0
 43
3.75
 44
2.0
 45
0.0
 46
0.0
 47
0.0
 48
0.0
140
4.0
141
0.09
142
0.0
143
25.399999999999999
144
1.0
145
0.0
146
1.0
147
1.0
 71
     0
 72
     0
 73
     1
 74
     1
 75
     0
 76
     0
 77
     0
 78
     8
170
     0
171
     2
172
     0
173
     1
174
     0
175
     0
176
   256
177
   256
178
   256
  0
DIMSTYLE
  2
BIGT
 70
     0
  3

  4

  5
OPEN
  6

  7

 40
1.0
 41
2.2299999999999991
 42
0.5
 43
2.5
 44
1.0
 45
0.0
 46
0.0
 47
0.0
 48
0.0
140
3.5
141
0.0
142
0.0
143
25.399999999999999
144
1.0
145
0.0
146
1.0
147
1.0
 71
     0
 72
     0
 73
     0
 74
     0
 75
     0
 76
     0
 77
     3
 78
     9
170
     0
171
     2
172
     1
173
     0
174
     0
175
     0
176
   256
177
   256
178
    40
  0
DIMSTYLE
  2
AM_ISO
 70
     0
  3

  4
"
  5

  6

  7

 40
1.0
 41
2.5
 42
1.0
 43
10.0
 44
1.0
 45
0.0
 46
0.0
 47
0.1
 48
0.1
140
3.5
141
0.0
142
0.0
143
0.0393701
144
1.0
145
0.0
146
0.71
147
1.5
 71
     0
 72
     0
 73
     0
 74
     0
 75
     0
 76
     0
 77
     1
 78
     8
170
     0
171
     2
172
     1
173
     0
174
     0
175
     0
176
   256
177
   256
178
     2
  0
DIMSTYLE
  2
AM_ISO$3
 70
     0
  3

  4
"
  5

  6

  7

 40
1.0
 41
2.5
 42
1.0
 43
10.0
 44
1.0
 45
0.0
 46
0.0
 47
0.1
 48
0.1
140
3.5
141
0.0
142
0.0
143
0.0393701
144
1.0
145
0.0
146
0.71
147
1.5
 71
     0
 72
     0
 73
     0
 74
     1
 75
     0
 76
     0
 77
     1
 78
     8
170
     0
171
     2
172
     0
173
     0
174
     0
175
     0
176
   256
177
   256
178
     2
  0
DIMSTYLE
  2
AM_ISO$4
 70
     0
  3

  4
"
  5

  6

  7

 40
1.0
 41
2.5
 42
1.0
 43
10.0
 44
1.0
 45
0.0
 46
0.0
 47
0.1
 48
0.1
140
3.5
141
0.0
142
0.0
143
0.0393701
144
1.0
145
0.0
146
0.71
147
1.5
 71
     0
 72
     0
 73
     0
 74
     1
 75
     0
 76
     0
 77
     1
 78
     8
170
     0
171
     2
172
     0
173
     0
174
     0
175
     0
176
   256
177
   256
178
     2
  0
DIMSTYLE
  2
AM_ISO$6
 70
     0
  3

  4
"
  5

  6

  7

 40
1.0
 41
2.5
 42
1.0
 43
10.0
 44
1.0
 45
0.0
 46
0.0
 47
0.1
 48
0.1
140
3.5
141
0.0
142
0.0
143
0.0393701
144
1.0
145
0.0
146
0.71
147
1.5
 71
     0
 72
     0
 73
     0
 74
     0
 75
     0
 76
     0
 77
     0
 78
     8
170
     0
171
     2
172
     1
173
     0
174
     0
175
     0
176
   256
177
   256
178
     2
  0
DIMSTYLE
  2
AM_ISO$7
 70
     0
  3

  4
"
  5

  6

  7

 40
1.0
 41
2.5
 42
1.0
 43
10.0
 44
1.0
 45
0.0
 46
0.0
 47
0.1
 48
0.1
140
5.0
141
0.0
142
0.0
143
0.0393701
144
1.0
145
0.0
146
0.71
147
1.5
 71
     0
 72
     0
 73
     0
 74
     0
 75
     0
 76
     0
 77
     1
 78
     8
170
     0
171
     2
172
     1
173
     0
174
     0
175
     0
176
   256
177
   256
178
     2
  0
DIMSTYLE
  2
AM_ISO$SF
 70
     0
  3

  4
"
  5

  6

  7

 40
1.0
 41
2.5
 42
1.0
 43
10.0
 44
1.0
 45
0.0
 46
0.0
 47
0.1
 48
0.1
140
3.5
141
0.0
142
0.0
143
0.0393701
144
1.0
145
0.0
146
0.71
147
1.5
 71
     0
 72
     0
 73
     0
 74
     0
 75
     1
 76
     1
 77
     1
 78
     8
170
     0
171
     2
172
     1
173
     0
174
     0
175
     0
176
   256
177
   256
178
     2
  0
DIMSTYLE
  2
AM_ISO$SH
 70
     0
  3

  4
"
  5

  6
GENAXEH
  7

 40
1.0
 41
2.5
 42
1.0
 43
10.0
 44
1.0
 45
0.0
 46
0.0
 47
0.1
 48
0.1
140
3.5
141
0.0
142
0.0
143
0.0393701
144
2.0
145
0.0
146
0.71
147
1.5
 71
     0
 72
     0
 73
     0
 74
     0
 75
     1
 76
     1
 77
     1
 78
     8
170
     0
171
     2
172
     1
173
     1
174
     0
175
     0
176
   256
177
   256
178
     2
  0
ENDTAB
  0
ENDSEC
  0
SECTION
  2
BLOCKS
  0
BLOCK
  8
0
  2
$MODEL_SPACE
 70
     0
 10
0.0
 20
0.0
 30
0.0
  3
$MODEL_SPACE
  1

  0
ENDBLK
  5
1C
  8
0
  0
BLOCK
 67
     1
  8
0
  2
$PAPER_SPACE
 70
     0
 10
0.0
 20
0.0
 30
0.0
  3
$PAPER_SPACE
  1

  0
ENDBLK
  5
19
 67
     1
  8
0
  0
BLOCK
  8
0
  2
_OPEN
 70
     0
 10
0.0
 20
0.0
 30
0.0
  3
_OPEN
  1

  0
LINE
  5
595
  8
0
  6
BYBLOCK
 62
     0
 10
-1.0
 20
0.1666666666666666
 30
0.0
 11
0.0
 21
0.0
 31
0.0
  0
LINE
  5
596
  8
0
  6
BYBLOCK
 62
     0
 10
-1.0
 20
-0.1666666666666666
 30
0.0
 11
0.0
 21
0.0
 31
0.0
  0
LINE
  5
597
  8
0
  6
BYBLOCK
 62
     0
 10
0.0
 20
0.0
 30
0.0
 11
-1.0
 21
0.0
 31
0.0
  0
ENDBLK
  5
599
  8
0
  0
BLOCK
  8
0
  2
A$C79815B74
 70
     0
 10
0.0
 20
0.0
 30
0.0
  3
A$C79815B74
  1

  0
LINE
  5
1F77
  8
243
 10
-13.20000000000001
 20
12.75
 30
0.0
 11
-42.599999999999973
 21
9.6599354831894821
 31
0.0
1001
GRPNAME
1000
NBS16 09
  0
LINE
  5
1F78
  8
245
 10
-44.596458352025387
 20
0.0
 30
0.0
 11
1.3524577206304389
 21
0.0
 31
0.0
1001
GRPNAME
1000
PASTMDCT
  0
LINE
  5
1F79
  8
243
 10
-13.20000000000001
 20
-12.75
 30
0.0
 11
-42.599999999999973
 21
-9.6599354831894821
 31
0.0
1001
GRPNAME
1000
NBS16 0B
  0
LINE
  5
1F7A
  8
243
 10
-34.599999999999987
 20
4.5
 30
0.0
 11
-8.0999999999999943
 21
4.5
 31
0.0
  0
LINE
  5
1F7B
  8
243
 10
-34.599999999999987
 20
-4.5
 30
0.0
 11
-8.0999999999999943
 21
-4.5
 31
0.0
  0
LINE
  5
1F7C
  8
243
 10
-42.599999999999973
 20
0.0
 30
0.0
 11
-42.599999999999973
 21
9.6599354831894821
 31
0.0
1001
GRPNAME
1000
NBS16 09
  0
LINE
  5
1F7D
  8
243
 10
-34.599999999999987
 20
5.6500000000000341
 30
0.0
 11
-34.599999999999987
 21
-5.6500000000000341
 31
0.0
  0
LINE
  5
1F7E
  8
243
 10
-42.599999999999973
 20
0.0
 30
0.0
 11
-42.599999999999973
 21
-9.6599354831894821
 31
0.0
1001
GRPNAME
1000
NBS16 0B
  0
LINE
  5
1F7F
  8
243
 10
-42.599999999999881
 20
-7.6500000000000341
 30
0.0
 11
-36.599999999999987
 21
-7.6500000000000341
 31
0.0
  0
ARC
  5
1F80
  8
243
 10
-36.599999999999987
 20
-5.6500000000000341
 30
0.0
 40
2.0
 50
269.99999989973168
 51
359.9999998997319
  0
LINE
  5
1F81
  8
243
 10
-42.599999999999881
 20
7.6500000000000341
 30
0.0
 11
-36.599999999999987
 21
7.6500000000000341
 31
0.0
  0
ARC
  5
1F82
  8
243
 10
-36.599999999999987
 20
5.6500000000000341
 30
0.0
 40
2.0
 50
0.0000000899788588
 51
90.000000089977988
  0
LINE
  5
1F83
  8
241
 10
-4.5999999999999943
 20
0.0
 30
0.0
 11
-4.5999999999999943
 21
-17.16466620536616
 31
0.0
1001
GRPNAME
1000
PASTMDCV
  0
LINE
  5
1F84
  8
241
 10
-28.049107457385912
 20
0.0
 30
0.0
 11
-28.049107457385912
 21
-21.0
 31
0.0
1001
GRPNAME
1000
PASTMDCV
  0
LINE
  5
1F85
  8
241
 10
-29.8274638626133
 20
0.0
 30
0.0
 11
-29.8274638626133
 21
-21.349999999999991
 31
0.0
1001
GRPNAME
1000
PASTMDCV
  0
LINE
  5
1F86
  8
240
 10
-31.69999999999995
 20
-20.849999999999991
 30
0.0
 11
-31.69999999999995
 21
0.0
 31
0.0
1001
GRPNAME
1000
PASTMDCV
  0
LINE
  5
1F87
  8
240
 10
-0.0383377362819317
 20
-9.3159711124510522
 30
0.0
 11
-4.542277243498261
 21
-17.122950245801292
 31
0.0
  0
LINE
  5
1F88
  8
240
 10
-28.049107457385912
 20
-21.0
 30
0.0
 11
-5.5999999999999943
 21
-21.0
 31
0.0
1001
GRPNAME
1000
PASTMDCV
  0
LINE
  5
1F89
  8
240
 10
-31.199999999999939
 20
-21.349999999999991
 30
0.0
 11
-29.8274638626133
 21
-21.349999999999991
 31
0.0
1001
GRPNAME
1000
PASTMDCV
  0
ARC
  5
1F8A
  8
240
 10
-31.199999999999939
 20
-20.849999999999991
 30
0.0
 40
0.5
 50
180.00000001286469
 51
270.00000001285821
1001
GRPNAME
1000
PASTMDCV
  0
ARC
  5
1F8B
  8
240
 10
-28.763250300240209
 20
-21.699999999999989
 30
0.0
 40
0.9999999999999764
 50
44.427004131299
 51
135.00000013049299
1001
GRPNAME
1000
PASTMDCV
  0
LINE
  5
1F8C
  8
240
 10
-29.470357081426709
 20
-20.992893218813428
 30
0.0
 11
-29.8274638626133
 21
-21.349999999999991
 31
0.0
1001
GRPNAME
1000
PASTMDCV
  0
LINE
  5
1F8D
  8
240
 10
-4.5999999999999943
 20
-17.16466620536616
 30
0.0
 11
-4.5999999999999943
 21
-20.0
 31
0.0
1001
GRPNAME
1000
PASTMDCV
  0
LINE
  5
1F8E
  8
241
 10
-4.6068224733541268
 20
-18.753071585282889
 30
0.0
 11
-4.6000076386119133
 21
-18.778504894786089
 31
0.0
1001
GRPNAME
1000
PASTMDB6
  0
LINE
  5
1F8F
  8
241
 10
-4.6068224733541268
 20
-18.753071585282889
 30
0.0
 11
-4.6000076386119133
 21
-18.778504894786089
 31
0.0
1001
GRPNAME
1000
PASTMDB5
  0
ARC
  5
1F90
  8
240
 10
-5.5999999999999943
 20
-20.0
 30
0.0
 40
1.0
 50
270.00000000000318
 51
0.0
1001
GRPNAME
1000
PASTMDCV
  0
ARC
  5
1F91
  8
241
 10
-4.715515195533639
 20
-17.023007202148449
 30
0.0
 40
0.2000000000000794
 50
305.2775492169647
 51
330.01883935900622
  0
LINE
  5
1F92
  8
240
 10
-28.049107457385912
 20
21.0
 30
0.0
 11
-5.5999999999999943
 21
21.0
 31
0.0
1001
GRPNAME
1000
PASTMDCT
  0
LINE
  5
1F93
  8
243
 10
-7.5999999999999943
 20
11.0179491924311
 30
0.0
 11
-7.5999999999999943
 21
0.0
 31
0.0
1001
GRPNAME
1000
NBS16 09
  0
LINE
  5
1F94
  8
241
 10
-28.049107457385912
 20
0.0
 30
0.0
 11
-28.049107457385912
 21
21.0
 31
0.0
1001
GRPNAME
1000
PASTMDCT
  0
LINE
  5
1F95
  8
241
 10
-29.8274638626133
 20
0.0
 30
0.0
 11
-29.8274638626133
 21
21.349999999999991
 31
0.0
1001
GRPNAME
1000
PASTMDCT
  0
LINE
  5
1F96
  8
240
 10
-31.69999999999995
 20
20.849999999999991
 30
0.0
 11
-31.69999999999995
 21
0.0
 31
0.0
1001
GRPNAME
1000
PASTMDCT
  0
LINE
  5
1F97
  8
243
 10
-7.5999999999999943
 20
-11.0179491924311
 30
0.0
 11
-7.5999999999999943
 21
0.0
 31
0.0
1001
GRPNAME
1000
NBS16 0B
  0
LINE
  5
1F98
  8
243
 10
-10.599999999999991
 20
-12.75
 30
0.0
 11
-7.5999999999999943
 21
-11.0179491924311
 31
0.0
1001
GRPNAME
1000
NBS16 0B
  0
LINE
  5
1F99
  8
243
 10
-13.20000000000001
 20
-11.0
 30
0.0
 11
-10.799999999999979
 21
-11.0
 31
0.0
1001
GRPNAME
1000
NBS16 0B
  0
LINE
  5
1F9A
  8
243
 10
-10.799999999999979
 20
-12.74999999999994
 30
0.0
 11
-10.599999999999991
 21
-12.75
 31
0.0
1001
GRPNAME
1000
NBS16 0B
  0
LINE
  5
1F9B
  8
243
 10
-13.20000000000001
 20
-11.0
 30
0.0
 11
-13.20000000000001
 21
-12.75
 31
0.0
1001
GRPNAME
1000
NBS16 0B
  0
LINE
  5
1F9C
  8
243
 10
-10.799999999999979
 20
-12.74999999999994
 30
0.0
 11
-10.799999999999979
 21
-11.0
 31
0.0
1001
GRPNAME
1000
NBS16 0B
  0
ARC
  5
1F9D
  8
243
 10
-8.0999999999999943
 20
-5.0
 30
0.0
 40
0.5
 50
0.000000005145883
 51
90.000000005139327
  0
LINE
  5
1F9E
  8
240
 10
-31.199999999999939
 20
21.349999999999991
 30
0.0
 11
-29.8274638626133
 21
21.349999999999991
 31
0.0
1001
GRPNAME
1000
PASTMDCT
  0
ARC
  5
1F9F
  8
240
 10
-31.199999999999939
 20
20.849999999999991
 30
0.0
 40
0.5
 50
89.999999989716358
 51
179.99999998970819
1001
GRPNAME
1000
PASTMDCT
  0
ARC
  5
1FA0
  8
240
 10
-28.763250300240209
 20
21.699999999999989
 30
0.0
 40
0.9999999999999779
 50
224.9999999273569
 51
315.57299592655028
1001
GRPNAME
1000
PASTMDCT
  0
LINE
  5
1FA1
  8
240
 10
-29.470357081426709
 20
20.992893218813428
 30
0.0
 11
-29.8274638626133
 21
21.349999999999991
 31
0.0
1001
GRPNAME
1000
PASTMDCT
  0
ARC
  5
1FA2
  8
243
 10
-8.0999999999999943
 20
5.0
 30
0.0
 40
0.5
 50
269.99999998456877
 51
359.99999998456548
  0
LINE
  5
1FA3
  8
243
 10
-10.599999999999991
 20
12.75
 30
0.0
 11
-7.5999999999999943
 21
11.0179491924311
 31
0.0
1001
GRPNAME
1000
NBS16 09
  0
LINE
  5
1FA4
  8
243
 10
-10.799999999999979
 20
12.74999999999994
 30
0.0
 11
-10.599999999999991
 21
12.75
 31
0.0
1001
GRPNAME
1000
NBS16 09
  0
LINE
  5
1FA5
  8
243
 10
-13.20000000000001
 20
11.0
 30
0.0
 11
-10.799999999999979
 21
11.0
 31
0.0
1001
GRPNAME
1000
NBS16 09
  0
LINE
  5
1FA6
  8
243
 10
-13.20000000000001
 20
11.0
 30
0.0
 11
-13.20000000000001
 21
12.75
 31
0.0
1001
GRPNAME
1000
NBS16 09
  0
LINE
  5
1FA7
  8
243
 10
-10.799999999999979
 20
12.74999999999994
 30
0.0
 11
-10.799999999999979
 21
11.0
 31
0.0
1001
GRPNAME
1000
NBS16 09
  0
LINE
  5
1FA8
  8
241
 10
-4.5999999999999943
 20
0.0
 30
0.0
 11
-4.5999999999999943
 21
17.16466620536616
 31
0.0
1001
GRPNAME
1000
PASTMDCT
  0
LINE
  5
1FA9
  8
240
 10
0.0
 20
0.0
 30
0.0
 11
0.0
 21
9.2327006823643103
 31
0.0
1001
GRPNAME
1000
PASTMDC7
  0
LINE
  5
1FAA
  8
240
 10
0.0
 20
0.0
 30
0.0
 11
0.0
 21
-9.2327006823643103
 31
0.0
  0
ARC
  5
1FAB
  8
240
 10
-0.4714326163703221
 20
-9.0661135033189435
 30
0.0
 40
0.5000000000000413
 50
330.01883939238638
 51
340.53844021791957
  0
LINE
  5
1FAC
  8
240
 10
-0.0383377362819317
 20
9.3159711124510522
 30
0.0
 11
-4.542277243498261
 21
17.122950245801292
 31
0.0
1001
GRPNAME
1000
PASTMDC7
  0
ARC
  5
1FAD
  8
240
 10
-0.4714326163703221
 20
9.0661135033189435
 30
0.0
 40
0.5000000000000596
 50
19.461559782080389
 51
29.981160607613479
1001
GRPNAME
1000
PASTMDC7
  0
LINE
  5
1FAE
  8
240
 10
-4.5999999999999943
 20
17.16466620536616
 30
0.0
 11
-4.5999999999999943
 21
20.0
 31
0.0
1001
GRPNAME
1000
PASTMDCT
  0
ARC
  5
1FAF
  8
241
 10
-4.715515195533639
 20
17.023007202148449
 30
0.0
 40
0.1999999999999837
 50
29.981160640993782
 51
54.722450783017159
1001
GRPNAME
1000
PASTMDC7
  0
LINE
  5
1FB0
  8
241
 10
-4.6068224733541268
 20
18.753071585282889
 30
0.0
 11
-4.6000076386119133
 21
18.778504894786089
 31
0.0
1001
GRPNAME
1000
PASTMDAW
  0
LINE
  5
1FB1
  8
241
 10
-4.6068224733541268
 20
18.753071585282889
 30
0.0
 11
-4.6000076386119133
 21
18.778504894786089
 31
0.0
1001
GRPNAME
1000
PASTMDAV
  0
ARC
  5
1FB2
  8
240
 10
-5.5999999999999943
 20
20.0
 30
0.0
 40
1.0
 50
0.0
 51
89.999999999996732
1001
GRPNAME
1000
PASTMDCT
  0
ENDBLK
  5
1FB4
  8
0
  0
BLOCK
  8
0
  2
GENAXEH
 70
     0
 10
0.0
 20
0.0
 30
0.0
  3
GENAXEH
  1

  0
LINE
  5
207F
  8
0
 10
-1.0
 20
0.0
 30
0.0
 11
1.0
 21
0.0
 31
0.0
  0
ENDBLK
  5
2081
  8
0
  0
BLOCK
  8
0
  2
*U6
 70
     1
 10
0.0
 20
0.0
 30
0.0
  3
*U6
  1

  0
TEXT
  5
20D3
  8
250
 62
    40
 10
19.999999999999989
 20
-4.0714285714285721
 30
0.0
 40
3.0
  1
\U+2205
 50
90.0
  0
TEXT
  5
20D4
  8
250
 62
    40
 10
19.999999999999989
 20
-1.3571428571428581
 30
0.0
 40
3.0
  1
42
 50
90.0
  0
ENDBLK
  5
20D6
  8
0
  0
BLOCK
  8
0
  2
*U7
 70
     1
 10
0.0
 20
0.0
 30
0.0
  3
*U7
  1

  0
TEXT
  5
20DC
  8
250
 62
    40
 10
13.00203507935788
 20
-5.8000000000000043
 30
0.0
 40
3.0
  1
\U+2205
 50
90.0
  0
TEXT
  5
20DD
  8
250
 62
    40
 10
13.00203507935788
 20
-3.0857142857142899
 30
0.0
 40
3.0
  1
8ü`9
 50
90.0
  0
ENDBLK
  5
20DF
  8
0
  0
ENDSEC
  0
SECTION
  2
ENTITIES
  0
INSERT
  5
1FB5
  8
240
  2
A$C79815B74
 10
0.0
 20
0.0
 30
0.0
  0
LINE
  5
20A3
  8
250
 10
-7.600000000044842
 20
-4.5
 30
0.0
 11
15.00203507935788
 21
-4.5000000000000071
 31
0.0
  0
LINE
  5
20A4
  8
250
 10
-7.6000000001346573
 20
4.5
 30
0.0
 11
15.00203507935788
 21
4.499999999999992
 31
0.0
  0
LINE
  5
20A5
  8
250
 10
14.00203507935788
 20
-2.2700000000000071
 30
0.0
 11
14.00203507935788
 21
2.2699999999999938
 31
0.0
  0
LINE
  5
20A9
  8
250
 10
-5.0999999999999357
 20
-21.0
 30
0.0
 11
21.999999999999989
 21
-21.0
 31
0.0
  0
LINE
  5
20AA
  8
250
 10
-5.0999999999999943
 20
21.0
 30
0.0
 11
22.0
 21
20.999999999999989
 31
0.0
  0
LINE
  5
20AB
  8
250
 10
20.999999999999989
 20
-18.77
 30
0.0
 11
21.0
 21
18.769999999999989
 31
0.0
  0
TEXT
  5
20AF
  8
250
 10
19.999999999999989
 20
-4.0714285714285721
 30
0.0
 40
3.0
  1
\U+2205
 50
90.0
1001
ACAD
1000
MTEXTBEGIN
1070
    73
1070
     1
1070
    44
1040
1.0
1070
    74
1070
     0
1000
MTEXTEND
  0
TEXT
  5
20B0
  8
250
 10
19.999999999999989
 20
-1.3571428571428581
 30
0.0
 40
3.0
  1
42
 50
90.0
1001
ACAD
1000
MTEXTBEGIN
1070
    73
1070
     1
1070
    44
1040
1.0
1070
    74
1070
     0
1000
MTEXTEND
  0
LINE
  5
20B1
  8
250
 10
20.62833333333333
 20
18.769999999999989
 30
0.0
 11
21.0
 21
20.999999999999989
 31
0.0
  0
LINE
  5
20B2
  8
250
 10
21.37166666666667
 20
18.769999999999989
 30
0.0
 11
21.0
 21
20.999999999999989
 31
0.0
  0
LINE
  5
20B3
  8
250
 10
21.0
 20
20.999999999999989
 30
0.0
 11
21.0
 21
18.769999999999989
 31
0.0
  0
LINE
  5
20B4
  8
250
 10
21.371666666666648
 20
-18.77
 30
0.0
 11
20.999999999999989
 21
-21.0
 31
0.0
  0
LINE
  5
20B5
  8
250
 10
20.62833333333332
 20
-18.77
 30
0.0
 11
20.999999999999989
 21
-21.0
 31
0.0
  0
LINE
  5
20B6
  8
250
 10
20.999999999999989
 20
-21.0
 30
0.0
 11
20.999999999999989
 21
-18.77
 31
0.0
  0
TEXT
  5
20B7
  8
250
 10
13.00203507935788
 20
-5.8000000000000043
 30
0.0
 40
3.0
  1
\U+2205
 50
90.0
  0
TEXT
  5
20B8
  8
250
 10
13.00203507935788
 20
-3.0857142857142899
 30
0.0
 40
3.0
  1
8ü`9
 50
90.0
  0
LINE
  5
20B9
  8
250
 10
13.630368412691221
 20
2.2699999999999929
 30
0.0
 11
14.00203507935788
 21
4.499999999999992
 31
0.0
  0
LINE
  5
20BA
  8
250
 10
14.373701746024549
 20
2.2699999999999929
 30
0.0
 11
14.00203507935788
 21
4.499999999999992
 31
0.0
  0
LINE
  5
20BB
  8
250
 10
14.00203507935788
 20
4.499999999999992
 30
0.0
 11
14.00203507935788
 21
2.2699999999999929
 31
0.0
  0
LINE
  5
20BC
  8
250
 10
14.37370174602454
 20
-2.270000000000008
 30
0.0
 11
14.00203507935788
 21
-4.5000000000000071
 31
0.0
  0
LINE
  5
20BD
  8
250
 10
13.63036841269121
 20
-2.270000000000008
 30
0.0
 11
14.00203507935788
 21
-4.5000000000000071
 31
0.0
  0
LINE
  5
20BE
  8
250
 10
14.00203507935788
 20
-4.5000000000000071
 30
0.0
 11
14.00203507935788
 21
-2.270000000000008
 31
0.0
  0
TEXT
  5
20BF
  8
243
 10
-35.952380952380949
 20
42.0
 30
0.0
 40
5.0
  1
MPS16-0809
  7
YOKO
1001
ITEMNAME
1000
DI010
1001
ACAD
1000
MTEXTBEGIN
1070
    73
1070
     1
1070
    44
1040
1.0
1070
    74
1070
     0
1000
MTEXTEND
  0
VIEWPORT
  5
22
 67
     1
  8
0
 10
261.51769911504419
 20
148.5
 30
0.0
 40
523.0353982300885
 41
297.0
 68
     1
 69
     1
1001
ACAD
1000
MVIEW
1002
{
1070
    16
1010
0.0
1020
0.0
1030
0.0
1010
0.0
1020
0.0
1030
1.0
1040
0.0
1040
297.0
1040
261.51769911504419
1040
148.5
1040
50.0
1040
0.0
1040
0.0
1070
     0
1070
   100
1070
     1
1070
     1
1070
     0
1070
     0
1070
     0
1070
     0
1040
0.0
1040
0.0
1040
0.0
1040
1.0
1040
1.0
1040
10.0
1040
10.0
1070
     0
1002
{
1002
}
1002
}
1001
GENIUS_GENODEF_13
1002
{
1000
HIER
1070
     0
1002
}
1002
{
1000
MANEDIT
1070
     0
1002
}
1002
{
1000
NOSEL
1070
     0
1002
}
1002
{
1000
BEHIND
1070
     0
1002
}
1002
{
1000
OTHER
1070
     0
1002
}
1002
{
1000
REACTOR
1002
}
1001
GENIUS_GENOBJ-N-SDF_13
1002
{
1000
OWNER
1000
GEN
1002
}
1001
GENIUS_GENSCREG_15
1000
PF
1040
1.0
1000
DF
1040
1.0
1000
MIN
1011
0.0
1021
0.0
1031
0.0
1021
0.0
1031
0.0
1000
MAX
1011
523.0353982300885
1021
0.0
1031
0.0
1021
297.0
1031
0.0
1000
FLAGS
1070
     2
  0
ENDSEC
  0
EOF
