  0
SECTION
  2
HEADER
  9
$ACADVER
  1
AC1009
  9
$INSBASE
 10
0.0
 20
0.0
 30
0.0
  9
$EXTMIN
 10
-44.017269853806503
 20
-21.467679332164209
 30
-0.0000000349181948
  9
$EXTMAX
 10
22.01326424153422
 20
47.014091552899629
 30
0.0000000814935747
  9
$LIMMIN
 10
0.0
 20
0.0
  9
$LIMMAX
 10
297.0
 20
210.0
  9
$ORTHOMODE
 70
     0
  9
$REGENMODE
 70
     1
  9
$FILLMODE
 70
     1
  9
$QTEXTMODE
 70
     0
  9
$MIRRTEXT
 70
     1
  9
$DRAGMODE
 70
     2
  9
$LTSCALE
 40
10.0
  9
$OSMODE
 70
   639
  9
$ATTMODE
 70
     1
  9
$TEXTSIZE
 40
3.0
  9
$TRACEWID
 40
1.0
  9
$TEXTSTYLE
  7
YOKO
  9
$CLAYER
  8
240
  9
$CELTYPE
  6
BYLAYER
  9
$CECOLOR
 62
   256
  9
$DIMSCALE
 40
1.0
  9
$DIMASZ
 40
2.2299999999999991
  9
$DIMEXO
 40
0.5
  9
$DIMDLI
 40
2.5
  9
$DIMRND
 40
0.0
  9
$DIMDLE
 40
0.0
  9
$DIMEXE
 40
1.0
  9
$DIMTP
 40
0.0
  9
$DIMTM
 40
0.0
  9
$DIMTXT
 40
3.0
  9
$DIMCEN
 40
0.0
  9
$DIMTSZ
 40
0.0
  9
$DIMTOL
 70
     0
  9
$DIMLIM
 70
     0
  9
$DIMTIH
 70
     0
  9
$DIMTOH
 70
     0
  9
$DIMSE1
 70
     0
  9
$DIMSE2
 70
     0
  9
$DIMTAD
 70
     3
  9
$DIMZIN
 70
     8
  9
$DIMBLK
  1
OPEN
  9
$DIMASO
 70
     1
  9
$DIMSHO
 70
     1
  9
$DIMPOST
  1

  9
$DIMAPOST
  1

  9
$DIMALT
 70
     0
  9
$DIMALTD
 70
     2
  9
$DIMALTF
 40
25.399999999999999
  9
$DIMLFAC
 40
1.0
  9
$DIMTOFL
 70
     1
  9
$DIMTVP
 40
0.0
  9
$DIMTIX
 70
     0
  9
$DIMSOXD
 70
     0
  9
$DIMSAH
 70
     0
  9
$DIMBLK1
  1

  9
$DIMBLK2
  1

  9
$DIMSTYLE
  2
BIGT
  9
$DIMCLRD
 70
   256
  9
$DIMCLRE
 70
   256
  9
$DIMCLRT
 70
    40
  9
$DIMTFAC
 40
1.0
  9
$DIMGAP
 40
1.0
  9
$LUNITS
 70
     2
  9
$LUPREC
 70
     2
  9
$SKETCHINC
 40
1.0
  9
$FILLETRAD
 40
0.0
  9
$AUNITS
 70
     0
  9
$AUPREC
 70
     3
  9
$MENU
  1
.
  9
$ELEVATION
 40
0.0
  9
$PELEVATION
 40
0.0
  9
$THICKNESS
 40
0.0
  9
$LIMCHECK
 70
     0
  9
$BLIPMODE
 70
     0
  9
$CHAMFERA
 40
10.0
  9
$CHAMFERB
 40
10.0
  9
$SKPOLY
 70
     0
  9
$TDCREATE
 40
2452880.4648967362
  9
$TDUPDATE
 40
2453612.5408116318
  9
$TDINDWG
 40
0.0909295255
  9
$TDUSRTIMER
 40
0.0909295255
  9
$USRTIMER
 70
     1
  9
$ANGBASE
 50
0.0
  9
$ANGDIR
 70
     0
  9
$PDMODE
 70
    35
  9
$PDSIZE
 40
2.0
  9
$PLINEWID
 40
0.0
  9
$COORDS
 70
     2
  9
$SPLFRAME
 70
     0
  9
$SPLINETYPE
 70
     6
  9
$SPLINESEGS
 70
     8
  9
$ATTDIA
 70
     1
  9
$ATTREQ
 70
     1
  9
$HANDLING
 70
     1
  9
$HANDSEED
  5
1D67
  9
$SURFTAB1
 70
     6
  9
$SURFTAB2
 70
     6
  9
$SURFTYPE
 70
     6
  9
$SURFU
 70
     6
  9
$SURFV
 70
     6
  9
$UCSNAME
  2

  9
$UCSORG
 10
0.0
 20
0.0
 30
0.0
  9
$UCSXDIR
 10
1.0
 20
0.0
 30
0.0
  9
$UCSYDIR
 10
0.0
 20
1.0
 30
0.0
  9
$PUCSNAME
  2

  9
$PUCSORG
 10
0.0
 20
0.0
 30
0.0
  9
$PUCSXDIR
 10
1.0
 20
0.0
 30
0.0
  9
$PUCSYDIR
 10
0.0
 20
1.0
 30
0.0
  9
$USERI1
 70
     1
  9
$USERI2
 70
     0
  9
$USERI3
 70
     0
  9
$USERI4
 70
     0
  9
$USERI5
 70
     0
  9
$USERR1
 40
0.0
  9
$USERR2
 40
0.0
  9
$USERR3
 40
0.0
  9
$USERR4
 40
0.0
  9
$USERR5
 40
0.0
  9
$WORLDVIEW
 70
     1
  9
$SHADEDGE
 70
     3
  9
$SHADEDIF
 70
    70
  9
$TILEMODE
 70
     1
  9
$MAXACTVP
 70
    16
  9
$PLIMCHECK
 70
     0
  9
$PEXTMIN
 10
1.0000000000000000E+020
 20
1.0000000000000000E+020
 30
1.0000000000000000E+020
  9
$PEXTMAX
 10
-1.0000000000000000E+020
 20
-1.0000000000000000E+020
 30
-1.0000000000000000E+020
  9
$PLIMMIN
 10
0.0
 20
0.0
  9
$PLIMMAX
 10
420.0
 20
297.0
  9
$UNITMODE
 70
     0
  9
$VISRETAIN
 70
     0
  9
$PLINEGEN
 70
     0
  9
$PSLTSCALE
 70
     1
  0
ENDSEC
  0
SECTION
  2
TABLES
  0
TABLE
  2
VPORT
 70
    11
  0
VPORT
  2
*ACTIVE
 70
     0
 10
0.0
 20
0.0
 11
1.0
 21
1.0
 12
-11.00200280613614
 22
12.77320611036771
 13
0.0
 23
0.0
 14
7.0
 24
7.0
 15
7.0
 25
7.0
 16
0.0
 26
0.0
 36
1.0
 17
0.0
 27
0.0
 37
0.0
 40
68.890617278407504
 41
1.266932270916334
 42
50.0
 43
0.0
 44
0.0
 50
0.0
 51
0.0
 71
     0
 72
  2000
 73
     1
 74
     0
 75
     0
 76
     0
 77
     0
 78
     0
  0
ENDTAB
  0
TABLE
  2
LTYPE
 70
    16
  0
LTYPE
  2
CONTINUOUS
 70
     0
  3
Solid line
 72
    65
 73
     0
 40
0.0
  0
LTYPE
  2
CENTER2
 70
     0
  3
___ _ ___ _ ___ _ ___ _ ___ _ ___ _ ___ _ ___ _
 72
    65
 73
     4
 40
1.125
 49
0.75
 49
-0.125
 49
0.125
 49
-0.125
  0
LTYPE
  2
HIDDEN2
 70
     0
  3
_ _ _ _ _ _ _ _ _ _ _ _ _ _ _ _ _ _ _ _ _ _ _ _
 72
    65
 73
     2
 40
0.1875
 49
0.125
 49
-0.0625
  0
LTYPE
  2
HIDDEN
 70
     0
  3
Hidden __ __ __ __ __ __ __ __ __ __ __ __ __ _
 72
    65
 73
     2
 40
9.5249999999999986
 49
6.3499999999999988
 49
-3.1749999999999989
  0
LTYPE
  2
PHANTOM2
 70
     0
  3
Phantom (.5x) ___ _ _ ___ _ _ ___ _ _ ___ _ _
 72
    65
 73
     6
 40
31.75
 49
15.875
 49
-3.1749999999999989
 49
3.1749999999999989
 49
-3.1749999999999989
 49
3.1749999999999989
 49
-3.1749999999999989
  0
LTYPE
  2
CENTER
 70
     0
  3
Center ____ _ ____ _ ____ _ ____ _ ____ _ ____
 72
    65
 73
     4
 40
50.799999999999997
 49
31.75
 49
-6.3499999999999988
 49
6.3499999999999988
 49
-6.3499999999999988
  0
LTYPE
  2
AM_ISO02W050
 70
     0
  3
__ __ __ __ __ __ __ __ __ __ __ __ __ __ __
 72
    65
 73
     2
 40
7.5
 49
6.0
 49
-1.5
  0
LTYPE
  2
AM_ISO08W050
 70
     0
  3
____ . ____ . ____ . ____ . ____ . ____ . ____
 72
    65
 73
     4
 40
18.0
 49
12.0
 49
-1.5
 49
3.0
 49
-1.5
  0
LTYPE
  2
AM_ISO09W050
 70
     0
  3
_____ . . _____ . . _____ . . ____ .. ____
 72
    65
 73
     6
 40
22.5
 49
12.0
 49
-1.5
 49
3.0
 49
-1.5
 49
3.0
 49
-1.5
  0
LTYPE
  2
AMCONSTR
 70
     0
  3
_______________________
 72
    65
 73
     2
 40
9999.0
 49
9999.0
 49
0.0
  0
LTYPE
  2
AM_ISO08W050X2
 70
     0
  3
__ . __ . __ . __ . __ . __
 72
    65
 73
     4
 40
9.0
 49
6.0
 49
-0.75
 49
1.5
 49
-0.75
  0
LTYPE
  2
AM_ISO02W050X2
 70
     0
  3
 _ _ _ _ _ _ _ _ _ _ _ _
 72
    65
 73
     2
 40
3.75
 49
3.0
 49
-0.75
  0
LTYPE
  2
AMZIGZAG
 70
     0
  3
/\/-/\/-/\/-/\/-/\/-/\/
 72
    65
 73
     2
 40
11.0001
 49
0.0001
 49
-11.0
  0
LTYPE
  2
ACISOWELD
 70
     0
  3
_ _ _ _ _
 72
    65
 73
     2
 40
2.0
 49
2.0
 49
-1.0
  0
LTYPE
  2
ACISOTGB
 70
     0
  3
__ . . __ . .
 72
    65
 73
     6
 40
9.0
 49
4.0
 49
-1.0
 49
1.0
 49
-1.0
 49
1.0
 49
-1.0
  0
LTYPE
  2
ACISOTGL
 70
     0
  3
_ _ _ _ _
 72
    65
 73
     2
 40
3.0
 49
2.0
 49
-1.0
  0
ENDTAB
  0
TABLE
  2
LAYER
 70
     7
  0
LAYER
  2
0
 70
     0
 62
     7
  6
CONTINUOUS
  0
LAYER
  2
240
 70
     0
 62
     4
  6
CONTINUOUS
  0
LAYER
  2
241
 70
     0
 62
   211
  6
CONTINUOUS
  0
LAYER
  2
243
 70
     0
 62
   211
  6
HIDDEN2
  0
LAYER
  2
245
 70
     0
 62
     2
  6
CENTER2
  0
LAYER
  2
250
 70
     0
 62
     3
  6
CONTINUOUS
  0
LAYER
  2
DEFPOINTS
 70
     0
 62
     7
  6
CONTINUOUS
  0
ENDTAB
  0
TABLE
  2
STYLE
 70
     5
  0
STYLE
  2
STANDARD
 70
     0
 40
0.0
 41
1.0
 50
0.0
 71
     0
 42
3.0
  3
romans.shx
  4
BIGFONT.SHX
  0
STYLE
  2
YOKO
 70
     0
 40
0.0
 41
1.0
 50
0.0
 71
     0
 42
3.0
  3
romans.shx
  4
extfont.shx
  0
STYLE
  2

 70
     1
 40
0.0
 41
1.0
 50
0.0
 71
     0
 42
3.0
  3
ltypeshp.shx
  4

  0
STYLE
  2
ACISOTS
 70
     0
 40
1.0
 41
1.0
 50
0.0
 71
     0
 42
3.0
  3
isocp.shx
  4
extfont.shx
  0
STYLE
  2
ACISOGDT
 70
     0
 40
0.0
 41
1.0
 50
0.0
 71
     0
 42
3.0
  3
amgdt.shx
  4

  0
ENDTAB
  0
TABLE
  2
VIEW
 70
     0
  0
ENDTAB
  0
TABLE
  2
UCS
 70
     0
  0
ENDTAB
  0
TABLE
  2
APPID
 70
    16
  0
APPID
  2
ACAD
 70
     0
  0
APPID
  2
GLOBAL
 70
     0
  0
APPID
  2
DETAIL
 70
     0
  0
APPID
  2
GRPNAME
 70
     0
  0
APPID
  2
GPARA
 70
     0
  0
APPID
  2
ITEMNAME
 70
     0
  0
APPID
  2
MCAD_NO_VIS
 70
     0
  0
APPID
  2
ACAD_TEMP_GRAPHIC
 70
     0
  0
APPID
  2
AD_DRAW
 70
     0
  0
APPID
  2
ACATTRIBSERVICES
 70
     0
  0
APPID
  2
DESIGNERASSEMBLIES
 70
     0
  0
APPID
  2
ACADM_DIM_EDIT
 70
     0
  0
APPID
  2
AMDT_DM_ADJ
 70
     0
  0
APPID
  2
GENIUS_GENSCREG_15
 70
     0
  0
APPID
  2
GENIUS_GENOBJ-N-SDF_13
 70
     0
  0
APPID
  2
GENIUS_GENODEF_13
 70
     0
  0
ENDTAB
  0
TABLE
  2
DIMSTYLE
 70
     9
  0
DIMSTYLE
  2
STANDARD
 70
     0
  3

  4

  5

  6

  7

 40
1.0
 41
2.0
 42
2.0
 43
3.75
 44
2.0
 45
0.0
 46
0.0
 47
0.0
 48
0.0
140
4.0
141
0.09
142
0.0
143
25.399999999999999
144
1.0
145
0.0
146
1.0
147
1.0
 71
     0
 72
     0
 73
     1
 74
     1
 75
     0
 76
     0
 77
     0
 78
     8
170
     0
171
     2
172
     0
173
     1
174
     0
175
     0
176
   256
177
   256
178
   256
  0
DIMSTYLE
  2
BIGT
 70
     0
  3

  4

  5
OPEN
  6

  7

 40
1.0
 41
2.2299999999999991
 42
0.5
 43
2.5
 44
1.0
 45
0.0
 46
0.0
 47
0.0
 48
0.0
140
3.5
141
0.0
142
0.0
143
25.399999999999999
144
1.0
145
0.0
146
1.0
147
1.0
 71
     0
 72
     0
 73
     0
 74
     0
 75
     0
 76
     0
 77
     3
 78
     9
170
     0
171
     2
172
     1
173
     0
174
     0
175
     0
176
   256
177
   256
178
    40
  0
DIMSTYLE
  2
AM_ISO
 70
     0
  3

  4
"
  5

  6

  7

 40
1.0
 41
2.5
 42
1.0
 43
10.0
 44
1.0
 45
0.0
 46
0.0
 47
0.1
 48
0.1
140
3.5
141
0.0
142
0.0
143
0.0393701
144
1.0
145
0.0
146
0.71
147
1.5
 71
     0
 72
     0
 73
     0
 74
     0
 75
     0
 76
     0
 77
     1
 78
     8
170
     0
171
     2
172
     1
173
     0
174
     0
175
     0
176
   256
177
   256
178
     2
  0
DIMSTYLE
  2
AM_ISO$3
 70
     0
  3

  4
"
  5

  6

  7

 40
1.0
 41
2.5
 42
1.0
 43
10.0
 44
1.0
 45
0.0
 46
0.0
 47
0.1
 48
0.1
140
3.5
141
0.0
142
0.0
143
0.0393701
144
1.0
145
0.0
146
0.71
147
1.5
 71
     0
 72
     0
 73
     0
 74
     1
 75
     0
 76
     0
 77
     1
 78
     8
170
     0
171
     2
172
     0
173
     0
174
     0
175
     0
176
   256
177
   256
178
     2
  0
DIMSTYLE
  2
AM_ISO$4
 70
     0
  3

  4
"
  5

  6

  7

 40
1.0
 41
2.5
 42
1.0
 43
10.0
 44
1.0
 45
0.0
 46
0.0
 47
0.1
 48
0.1
140
3.5
141
0.0
142
0.0
143
0.0393701
144
1.0
145
0.0
146
0.71
147
1.5
 71
     0
 72
     0
 73
     0
 74
     1
 75
     0
 76
     0
 77
     1
 78
     8
170
     0
171
     2
172
     0
173
     0
174
     0
175
     0
176
   256
177
   256
178
     2
  0
DIMSTYLE
  2
AM_ISO$6
 70
     0
  3

  4
"
  5

  6

  7

 40
1.0
 41
2.5
 42
1.0
 43
10.0
 44
1.0
 45
0.0
 46
0.0
 47
0.1
 48
0.1
140
3.5
141
0.0
142
0.0
143
0.0393701
144
1.0
145
0.0
146
0.71
147
1.5
 71
     0
 72
     0
 73
     0
 74
     0
 75
     0
 76
     0
 77
     0
 78
     8
170
     0
171
     2
172
     1
173
     0
174
     0
175
     0
176
   256
177
   256
178
     2
  0
DIMSTYLE
  2
AM_ISO$7
 70
     0
  3

  4
"
  5

  6

  7

 40
1.0
 41
2.5
 42
1.0
 43
10.0
 44
1.0
 45
0.0
 46
0.0
 47
0.1
 48
0.1
140
5.0
141
0.0
142
0.0
143
0.0393701
144
1.0
145
0.0
146
0.71
147
1.5
 71
     0
 72
     0
 73
     0
 74
     0
 75
     0
 76
     0
 77
     1
 78
     8
170
     0
171
     2
172
     1
173
     0
174
     0
175
     0
176
   256
177
   256
178
     2
  0
DIMSTYLE
  2
AM_ISO$SF
 70
     0
  3

  4
"
  5

  6

  7

 40
1.0
 41
2.5
 42
1.0
 43
10.0
 44
1.0
 45
0.0
 46
0.0
 47
0.1
 48
0.1
140
3.5
141
0.0
142
0.0
143
0.0393701
144
1.0
145
0.0
146
0.71
147
1.5
 71
     0
 72
     0
 73
     0
 74
     0
 75
     1
 76
     1
 77
     1
 78
     8
170
     0
171
     2
172
     1
173
     0
174
     0
175
     0
176
   256
177
   256
178
     2
  0
DIMSTYLE
  2
AM_ISO$SH
 70
     0
  3

  4
"
  5

  6
GENAXEH
  7

 40
1.0
 41
2.5
 42
1.0
 43
10.0
 44
1.0
 45
0.0
 46
0.0
 47
0.1
 48
0.1
140
3.5
141
0.0
142
0.0
143
0.0393701
144
2.0
145
0.0
146
0.71
147
1.5
 71
     0
 72
     0
 73
     0
 74
     0
 75
     1
 76
     1
 77
     1
 78
     8
170
     0
171
     2
172
     1
173
     1
174
     0
175
     0
176
   256
177
   256
178
     2
  0
ENDTAB
  0
ENDSEC
  0
SECTION
  2
BLOCKS
  0
BLOCK
  8
0
  2
$MODEL_SPACE
 70
     0
 10
0.0
 20
0.0
 30
0.0
  3
$MODEL_SPACE
  1

  0
ENDBLK
  5
1C
  8
0
  0
BLOCK
 67
     1
  8
0
  2
$PAPER_SPACE
 70
     0
 10
0.0
 20
0.0
 30
0.0
  3
$PAPER_SPACE
  1

  0
ENDBLK
  5
19
 67
     1
  8
0
  0
BLOCK
  8
0
  2
_OPEN
 70
     0
 10
0.0
 20
0.0
 30
0.0
  3
_OPEN
  1

  0
LINE
  5
595
  8
0
  6
BYBLOCK
 62
     0
 10
-1.0
 20
0.1666666666666666
 30
0.0
 11
0.0
 21
0.0
 31
0.0
  0
LINE
  5
596
  8
0
  6
BYBLOCK
 62
     0
 10
-1.0
 20
-0.1666666666666666
 30
0.0
 11
0.0
 21
0.0
 31
0.0
  0
LINE
  5
597
  8
0
  6
BYBLOCK
 62
     0
 10
0.0
 20
0.0
 30
0.0
 11
-1.0
 21
0.0
 31
0.0
  0
ENDBLK
  5
599
  8
0
  0
BLOCK
  8
0
  2
A$C78CF62DC
 70
     0
 10
0.0
 20
0.0
 30
0.0
  3
A$C78CF62DC
  1

  0
LINE
  5
1BF9
  8
243
 10
-12.600000000000019
 20
12.75
 30
0.0
 11
-41.999999999999979
 21
9.6599354831894821
 31
0.0
1001
GRPNAME
1000
NBS16 09
  0
LINE
  5
1BFA
  8
243
 10
-12.600000000000019
 20
-12.75
 30
0.0
 11
-41.999999999999979
 21
-9.6599354831894821
 31
0.0
1001
GRPNAME
1000
NBS16 0B
  0
LINE
  5
1BFB
  8
245
 10
-43.996458352025378
 20
0.0
 30
0.0
 11
1.9524577206304341
 21
0.0
 31
0.0
1001
GRPNAME
1000
PASTMDCT
  0
LINE
  5
1BFC
  8
243
 10
-41.999999999999872
 20
7.6500000000000341
 30
0.0
 11
-27.0
 21
7.6500000000000341
 31
0.0
  0
LINE
  5
1BFD
  8
243
 10
-41.999999999999872
 20
-7.6500000000000341
 30
0.0
 11
-27.0
 21
-7.6500000000000341
 31
0.0
  0
LINE
  5
1BFE
  8
243
 10
-41.999999999999979
 20
0.0
 30
0.0
 11
-41.999999999999979
 21
9.6599354831894821
 31
0.0
1001
GRPNAME
1000
NBS16 09
  0
LINE
  5
1BFF
  8
243
 10
-41.999999999999979
 20
0.0
 30
0.0
 11
-41.999999999999979
 21
-9.6599354831894821
 31
0.0
1001
GRPNAME
1000
NBS16 0B
  0
LINE
  5
1C00
  8
241
 10
-4.0
 20
0.0
 30
0.0
 11
-4.0
 21
-17.169076432417111
 31
0.0
1001
GRPNAME
1000
PASTMDCV
  0
LINE
  5
1C01
  8
241
 10
-27.449107457385921
 20
0.0
 30
0.0
 11
-27.449107457385921
 21
-21.0
 31
0.0
1001
GRPNAME
1000
PASTMDCV
  0
LINE
  5
1C02
  8
241
 10
-29.227463862613298
 20
0.0
 30
0.0
 11
-29.227463862613298
 21
-21.349999999999991
 31
0.0
1001
GRPNAME
1000
PASTMDCV
  0
LINE
  5
1C03
  8
240
 10
-31.099999999999952
 20
-20.849999999999991
 30
0.0
 11
-31.099999999999952
 21
0.0
 31
0.0
1001
GRPNAME
1000
PASTMDCV
  0
LINE
  5
1C04
  8
240
 10
-0.0817848883012857
 20
-7.1877019316429047
 30
0.0
 11
-3.950312489204634
 21
-17.095747895359921
 31
0.0
  0
LINE
  5
1C05
  8
240
 10
-27.449107457385921
 20
-21.0
 30
0.0
 11
-5.0
 21
-21.0
 31
0.0
1001
GRPNAME
1000
PASTMDCV
  0
LINE
  5
1C06
  8
240
 10
-30.599999999999952
 20
-21.349999999999991
 30
0.0
 11
-29.227463862613298
 21
-21.349999999999991
 31
0.0
1001
GRPNAME
1000
PASTMDCV
  0
ARC
  5
1C07
  8
240
 10
-30.599999999999952
 20
-20.849999999999991
 30
0.0
 40
0.5
 50
180.00000001286469
 51
270.00000001285821
1001
GRPNAME
1000
PASTMDCV
  0
LINE
  5
1C08
  8
240
 10
-28.870357081426722
 20
-20.992893218813428
 30
0.0
 11
-29.227463862613298
 21
-21.349999999999991
 31
0.0
1001
GRPNAME
1000
PASTMDCV
  0
ARC
  5
1C09
  8
240
 10
-28.163250300240222
 20
-21.699999999999989
 30
0.0
 40
0.9999999999999764
 50
44.427004131299
 51
135.00000013049299
1001
GRPNAME
1000
PASTMDCV
  0
LINE
  5
1C0A
  8
240
 10
-4.0
 20
-17.169076432416919
 30
0.0
 11
-4.0
 21
-20.0
 31
0.0
1001
GRPNAME
1000
PASTMDCV
  0
LINE
  5
1C0B
  8
241
 10
-4.0068224733541342
 20
-18.753071585282889
 30
0.0
 11
-4.0000076386119181
 21
-18.778504894786089
 31
0.0
1001
GRPNAME
1000
PASTMDB6
  0
LINE
  5
1C0C
  8
241
 10
-4.0068224733541342
 20
-18.753071585282889
 30
0.0
 11
-4.0000076386119181
 21
-18.778504894786089
 31
0.0
1001
GRPNAME
1000
PASTMDB5
  0
ARC
  5
1C0D
  8
240
 10
-5.0
 20
-20.0
 30
0.0
 40
1.0
 50
270.00000000000318
 51
0.0
1001
GRPNAME
1000
PASTMDCV
  0
ARC
  5
1C0E
  8
240
 10
-4.136615445571719
 20
-17.02300720214842
 30
0.0
 40
0.2000000000001211
 50
313.08457900573069
 51
338.67218668392911
  0
LINE
  5
1C0F
  8
240
 10
-27.449107457385921
 20
21.0
 30
0.0
 11
-5.0
 21
21.0
 31
0.0
1001
GRPNAME
1000
PASTMDCT
  0
LINE
  5
1C10
  8
243
 10
-7.0
 20
11.0179491924311
 30
0.0
 11
-7.0
 21
0.0
 31
0.0
1001
GRPNAME
1000
NBS16 09
  0
LINE
  5
1C11
  8
241
 10
-27.449107457385921
 20
0.0
 30
0.0
 11
-27.449107457385921
 21
21.0
 31
0.0
1001
GRPNAME
1000
PASTMDCT
  0
LINE
  5
1C12
  8
241
 10
-29.227463862613298
 20
0.0
 30
0.0
 11
-29.227463862613298
 21
21.349999999999991
 31
0.0
1001
GRPNAME
1000
PASTMDCT
  0
LINE
  5
1C13
  8
240
 10
-31.099999999999952
 20
20.849999999999991
 30
0.0
 11
-31.099999999999952
 21
0.0
 31
0.0
1001
GRPNAME
1000
PASTMDCT
  0
LINE
  5
1C14
  8
243
 10
-25.0
 20
5.6500000000000341
 30
0.0
 11
-25.0
 21
-5.6500000000000341
 31
0.0
  0
LINE
  5
1C15
  8
243
 10
-25.0
 20
3.0
 30
0.0
 11
-7.5
 21
3.0
 31
0.0
  0
LINE
  5
1C16
  8
243
 10
-25.0
 20
-3.0
 30
0.0
 11
-7.5
 21
-3.0
 31
0.0
  0
ARC
  5
1C17
  8
243
 10
-27.0
 20
-5.6500000000000341
 30
0.0
 40
2.0
 50
269.99999989973168
 51
359.99999989973333
  0
LINE
  5
1C18
  8
243
 10
-7.0
 20
-11.0179491924311
 30
0.0
 11
-7.0
 21
0.0
 31
0.0
1001
GRPNAME
1000
NBS16 0B
  0
LINE
  5
1C19
  8
243
 10
-10.19999999999998
 20
-12.74999999999994
 30
0.0
 11
-10.0
 21
-12.75
 31
0.0
1001
GRPNAME
1000
NBS16 0B
  0
LINE
  5
1C1A
  8
243
 10
-12.600000000000019
 20
-11.0
 30
0.0
 11
-10.19999999999998
 21
-11.0
 31
0.0
1001
GRPNAME
1000
NBS16 0B
  0
LINE
  5
1C1B
  8
243
 10
-12.600000000000019
 20
-11.0
 30
0.0
 11
-12.600000000000019
 21
-12.75
 31
0.0
1001
GRPNAME
1000
NBS16 0B
  0
LINE
  5
1C1C
  8
243
 10
-10.19999999999998
 20
-12.74999999999994
 30
0.0
 11
-10.19999999999998
 21
-11.0
 31
0.0
1001
GRPNAME
1000
NBS16 0B
  0
LINE
  5
1C1D
  8
243
 10
-10.0
 20
-12.75
 30
0.0
 11
-7.0
 21
-11.0179491924311
 31
0.0
1001
GRPNAME
1000
NBS16 0B
  0
ARC
  5
1C1E
  8
243
 10
-7.5
 20
-3.5
 30
0.0
 40
0.5
 50
0.000000005145883
 51
90.000000005139327
  0
ARC
  5
1C1F
  8
243
 10
-7.5
 20
3.5
 30
0.0
 40
0.5
 50
269.99999998456877
 51
359.99999998456548
  0
ARC
  5
1C20
  8
243
 10
-27.0
 20
5.6500000000000341
 30
0.0
 40
2.0
 50
0.0000000899772304
 51
90.000000089977988
  0
LINE
  5
1C21
  8
240
 10
-30.599999999999952
 20
21.349999999999991
 30
0.0
 11
-29.227463862613298
 21
21.349999999999991
 31
0.0
1001
GRPNAME
1000
PASTMDCT
  0
ARC
  5
1C22
  8
240
 10
-30.599999999999952
 20
20.849999999999991
 30
0.0
 40
0.5
 50
89.999999989716358
 51
179.99999998970819
1001
GRPNAME
1000
PASTMDCT
  0
LINE
  5
1C23
  8
240
 10
-28.870357081426722
 20
20.992893218813428
 30
0.0
 11
-29.227463862613298
 21
21.349999999999991
 31
0.0
1001
GRPNAME
1000
PASTMDCT
  0
ARC
  5
1C24
  8
240
 10
-28.163250300240222
 20
21.699999999999989
 30
0.0
 40
0.9999999999999779
 50
224.9999999273569
 51
315.57299592655028
1001
GRPNAME
1000
PASTMDCT
  0
LINE
  5
1C25
  8
243
 10
-10.19999999999998
 20
12.74999999999994
 30
0.0
 11
-10.0
 21
12.75
 31
0.0
1001
GRPNAME
1000
NBS16 09
  0
LINE
  5
1C26
  8
243
 10
-12.600000000000019
 20
11.0
 30
0.0
 11
-10.19999999999998
 21
11.0
 31
0.0
1001
GRPNAME
1000
NBS16 09
  0
LINE
  5
1C27
  8
243
 10
-12.600000000000019
 20
11.0
 30
0.0
 11
-12.600000000000019
 21
12.75
 31
0.0
1001
GRPNAME
1000
NBS16 09
  0
LINE
  5
1C28
  8
243
 10
-10.19999999999998
 20
12.74999999999994
 30
0.0
 11
-10.19999999999998
 21
11.0
 31
0.0
1001
GRPNAME
1000
NBS16 09
  0
LINE
  5
1C29
  8
243
 10
-10.0
 20
12.75
 30
0.0
 11
-7.0
 21
11.0179491924311
 31
0.0
1001
GRPNAME
1000
NBS16 09
  0
LINE
  5
1C2A
  8
241
 10
-4.0
 20
0.0
 30
0.0
 11
-4.0
 21
17.169076432417111
 31
0.0
1001
GRPNAME
1000
PASTMDCT
  0
LINE
  5
1C2B
  8
240
 10
0.0
 20
0.0000000002571312
 30
0.0
 11
0.0
 21
6.8942462455613036
 31
0.0
1001
GRPNAME
1000
PASTMDBG
  0
LINE
  5
1C2C
  8
240
 10
0.0
 20
-0.0000000002571312
 30
0.0
 11
0.0
 21
-6.8942462455613036
 31
0.0
  0
LINE
  5
1C2D
  8
240
 10
0.0
 20
-6.8942462455613036
 30
0.0
 11
-0.064579366325404
 21
-7.1352597218083229
 31
0.0
  0
ARC
  5
1C2E
  8
240
 10
-0.5475422794699512
 20
-7.005850199257039
 30
0.0
 40
0.500000000000026
 50
338.67218678416617
 51
345.00000025838727
  0
LINE
  5
1C2F
  8
240
 10
-0.0817848883012857
 20
7.1877019316429047
 30
0.0
 11
-3.950312489204634
 21
17.095747895359921
 31
0.0
1001
GRPNAME
1000
PASTMDBG
  0
LINE
  5
1C30
  8
240
 10
0.0
 20
6.8942462455613036
 30
0.0
 11
-0.064579366325404
 21
7.1352597218083229
 31
0.0
1001
GRPNAME
1000
PASTMDBG
  0
ARC
  5
1C31
  8
240
 10
-0.5475422794699512
 20
7.005850199257039
 30
0.0
 40
0.5000000000000258
 50
14.999999741612649
 51
21.327813215833771
1001
GRPNAME
1000
PASTMDBG
  0
LINE
  5
1C32
  8
240
 10
-4.0
 20
17.169076432416919
 30
0.0
 11
-4.0
 21
20.0
 31
0.0
1001
GRPNAME
1000
PASTMDCT
  0
ARC
  5
1C33
  8
240
 10
-4.136615445571719
 20
17.02300720214842
 30
0.0
 40
0.1999999999999884
 50
21.327813316070081
 51
46.915420994269212
1001
GRPNAME
1000
PASTMDBH
  0
LINE
  5
1C34
  8
241
 10
-4.0068224733541342
 20
18.753071585282889
 30
0.0
 11
-4.0000076386119181
 21
18.778504894786089
 31
0.0
1001
GRPNAME
1000
PASTMDAW
  0
LINE
  5
1C35
  8
241
 10
-4.0068224733541342
 20
18.753071585282889
 30
0.0
 11
-4.0000076386119181
 21
18.778504894786089
 31
0.0
1001
GRPNAME
1000
PASTMDAV
  0
ARC
  5
1C36
  8
240
 10
-5.0
 20
20.0
 30
0.0
 40
1.0
 50
0.0
 51
89.999999999996732
1001
GRPNAME
1000
PASTMDCT
  0
ENDBLK
  5
1C38
  8
0
  0
BLOCK
  8
0
  2
GENAXEH
 70
     0
 10
0.0
 20
0.0
 30
0.0
  3
GENAXEH
  1

  0
LINE
  5
1D03
  8
0
 10
-1.0
 20
0.0
 30
0.0
 11
1.0
 21
0.0
 31
0.0
  0
ENDBLK
  5
1D05
  8
0
  0
BLOCK
  8
0
  2
*U6
 70
     1
 10
0.0
 20
0.0
 30
0.0
  3
*U6
  1

  0
TEXT
  5
1D5A
  8
250
 62
    40
 10
19.999999999999989
 20
-4.0714285714285721
 30
0.0
 40
3.0
  1
\U+2205
 50
90.0
  0
TEXT
  5
1D5B
  8
250
 62
    40
 10
19.999999999999989
 20
-1.3571428571428581
 30
0.0
 40
3.0
  1
42
 50
90.0
  0
ENDBLK
  5
1D5D
  8
0
  0
BLOCK
  8
0
  2
*U7
 70
     1
 10
0.0
 20
0.0
 30
0.0
  3
*U7
  1

  0
TEXT
  5
1D63
  8
250
 62
    40
 10
13.000334192626349
 20
-5.8714285714285737
 30
0.0
 40
3.0
  1
\U+2205
 50
90.0
  0
TEXT
  5
1D64
  8
250
 62
    40
 10
13.000334192626349
 20
-3.1571428571428601
 30
0.0
 40
3.0
  1
5ü`6
 50
90.0
  0
ENDBLK
  5
1D66
  8
0
  0
ENDSEC
  0
SECTION
  2
ENTITIES
  0
INSERT
  5
1C39
  8
240
  2
A$C78CF62DC
 10
0.0
 20
0.0
 30
0.0
  0
LINE
  5
1D1F
  8
250
 10
-7.0000000000448477
 20
-3.0
 30
0.0
 11
15.000334192626349
 21
-3.0000000000000062
 31
0.0
  0
LINE
  5
1D20
  8
250
 10
-7.0000000001346621
 20
3.0
 30
0.0
 11
15.000334192626349
 21
2.9999999999999929
 31
0.0
  0
LINE
  5
1D21
  8
250
 10
14.000334192626349
 20
-5.2300000000000049
 30
0.0
 11
14.000334192626349
 21
-7.4600000000000044
 31
0.0
  0
LINE
  5
1D22
  8
250
 10
14.000334192626349
 20
5.2299999999999924
 30
0.0
 11
14.000334192626349
 21
7.4599999999999911
 31
0.0
  0
LINE
  5
1D23
  8
250
 10
14.000334192626349
 20
-3.0000000000000062
 30
0.0
 11
14.000334192626349
 21
2.9999999999999929
 31
0.0
  0
LINE
  5
1D27
  8
250
 10
-4.5
 20
-21.0
 30
0.0
 11
21.999999999999989
 21
-21.0
 31
0.0
  0
LINE
  5
1D28
  8
250
 10
-4.5
 20
21.0
 30
0.0
 11
22.0
 21
20.999999999999989
 31
0.0
  0
LINE
  5
1D29
  8
250
 10
20.999999999999989
 20
-18.77
 30
0.0
 11
21.0
 21
18.769999999999989
 31
0.0
  0
TEXT
  5
1D2D
  8
250
 10
19.999999999999989
 20
-4.0714285714285721
 30
0.0
 40
3.0
  1
\U+2205
 50
90.0
1001
ACAD
1000
MTEXTBEGIN
1070
    73
1070
     1
1070
    44
1040
1.0
1070
    74
1070
     0
1000
MTEXTEND
  0
TEXT
  5
1D2E
  8
250
 10
19.999999999999989
 20
-1.3571428571428581
 30
0.0
 40
3.0
  1
42
 50
90.0
1001
ACAD
1000
MTEXTBEGIN
1070
    73
1070
     1
1070
    44
1040
1.0
1070
    74
1070
     0
1000
MTEXTEND
  0
LINE
  5
1D2F
  8
250
 10
20.62833333333333
 20
18.769999999999989
 30
0.0
 11
21.0
 21
20.999999999999989
 31
0.0
  0
LINE
  5
1D30
  8
250
 10
21.37166666666667
 20
18.769999999999989
 30
0.0
 11
21.0
 21
20.999999999999989
 31
0.0
  0
LINE
  5
1D31
  8
250
 10
21.0
 20
20.999999999999989
 30
0.0
 11
21.0
 21
18.769999999999989
 31
0.0
  0
LINE
  5
1D32
  8
250
 10
21.371666666666648
 20
-18.77
 30
0.0
 11
20.999999999999989
 21
-21.0
 31
0.0
  0
LINE
  5
1D33
  8
250
 10
20.62833333333332
 20
-18.77
 30
0.0
 11
20.999999999999989
 21
-21.0
 31
0.0
  0
LINE
  5
1D34
  8
250
 10
20.999999999999989
 20
-21.0
 30
0.0
 11
20.999999999999989
 21
-18.77
 31
0.0
  0
TEXT
  5
1D35
  8
250
 10
13.000334192626349
 20
-5.8714285714285737
 30
0.0
 40
3.0
  1
\U+2205
 50
90.0
  0
TEXT
  5
1D36
  8
250
 10
13.000334192626349
 20
-3.1571428571428601
 30
0.0
 40
3.0
  1
5ü`6
 50
90.0
  0
LINE
  5
1D37
  8
250
 10
14.372000859293021
 20
5.2299999999999933
 30
0.0
 11
14.000334192626349
 21
2.9999999999999929
 31
0.0
  0
LINE
  5
1D38
  8
250
 10
13.62866752595969
 20
5.2299999999999933
 30
0.0
 11
14.000334192626349
 21
2.9999999999999929
 31
0.0
  0
LINE
  5
1D39
  8
250
 10
14.000334192626349
 20
2.9999999999999929
 30
0.0
 11
14.000334192626349
 21
5.2299999999999933
 31
0.0
  0
LINE
  5
1D3A
  8
250
 10
13.62866752595969
 20
-5.2300000000000049
 30
0.0
 11
14.000334192626349
 21
-3.0000000000000062
 31
0.0
  0
LINE
  5
1D3B
  8
250
 10
14.372000859293021
 20
-5.2300000000000049
 30
0.0
 11
14.000334192626349
 21
-3.0000000000000062
 31
0.0
  0
LINE
  5
1D3C
  8
250
 10
14.000334192626349
 20
-3.0000000000000062
 30
0.0
 11
14.000334192626349
 21
-5.2300000000000049
 31
0.0
  0
TEXT
  5
1D3D
  8
243
 10
-35.952380952380949
 20
42.0
 30
0.0
 40
5.0
  1
MPS16-0506
  7
YOKO
1001
ITEMNAME
1000
DI010
1001
ACAD
1000
MTEXTBEGIN
1070
    73
1070
     1
1070
    44
1040
1.0
1070
    74
1070
     0
1000
MTEXTEND
  0
VIEWPORT
  5
22
 67
     1
  8
0
 10
261.51769911504419
 20
148.5
 30
0.0
 40
523.0353982300885
 41
297.0
 68
     1
 69
     1
1001
ACAD
1000
MVIEW
1002
{
1070
    16
1010
0.0
1020
0.0
1030
0.0
1010
0.0
1020
0.0
1030
1.0
1040
0.0
1040
297.0
1040
261.51769911504419
1040
148.5
1040
50.0
1040
0.0
1040
0.0
1070
     0
1070
   100
1070
     1
1070
     1
1070
     0
1070
     0
1070
     0
1070
     0
1040
0.0
1040
0.0
1040
0.0
1040
1.0
1040
1.0
1040
10.0
1040
10.0
1070
     0
1002
{
1002
}
1002
}
1001
GENIUS_GENOBJ-N-SDF_13
1002
{
1000
OWNER
1000
GEN
1002
}
1001
GENIUS_GENODEF_13
1002
{
1000
HIER
1070
     0
1002
}
1002
{
1000
MANEDIT
1070
     0
1002
}
1002
{
1000
NOSEL
1070
     0
1002
}
1002
{
1000
BEHIND
1070
     0
1002
}
1002
{
1000
OTHER
1070
     0
1002
}
1002
{
1000
REACTOR
1002
}
1001
GENIUS_GENSCREG_15
1000
PF
1040
1.0
1000
DF
1040
1.0
1000
MIN
1011
0.0
1021
0.0
1031
0.0
1021
0.0
1031
0.0
1000
MAX
1011
523.0353982300885
1021
0.0
1031
0.0
1021
297.0
1031
0.0
1000
FLAGS
1070
     2
  0
ENDSEC
  0
EOF
